ISO-10303-21;
HEADER;
FILE_DESCRIPTION (( 'STEP AP214' ),
    '1' );
FILE_NAME ('Micro_GEM-562-2.STEP',
    '2021-09-01T20:55:31',
    ( '' ),
    ( '' ),
    'SwSTEP 2.0',
    'SolidWorks 2020',
    '' );
FILE_SCHEMA (( 'AUTOMOTIVE_DESIGN' ));
ENDSEC;

DATA;
#1 = DIRECTION ( 'NONE',  ( 1.000000000000000000, 0.0000000000000000000, 0.0000000000000000000 ) ) ;
#2 = EDGE_LOOP ( 'NONE', ( #119, #164, #6, #233 ) ) ;
#3 = PRODUCT_DEFINITION_FORMATION_WITH_SPECIFIED_SOURCE ( 'ANY', '', #202, .NOT_KNOWN. ) ;
#4 = CARTESIAN_POINT ( 'NONE',  ( 0.0000000000000000000, 0.0000000000000000000, 3.500000000000000000 ) ) ;
#5 = ORIENTED_EDGE ( 'NONE', *, *, #53, .T. ) ;
#6 = ORIENTED_EDGE ( 'NONE', *, *, #140, .T. ) ;
#7 = AXIS2_PLACEMENT_3D ( 'NONE', #248, #182, #200 ) ;
#8 = ORIENTED_EDGE ( 'NONE', *, *, #198, .T. ) ;
#9 = ORIENTED_EDGE ( 'NONE', *, *, #266, .F. ) ;
#10 = VERTEX_POINT ( 'NONE', #78 ) ;
#11 = LENGTH_MEASURE_WITH_UNIT ( LENGTH_MEASURE( 0.02539999999999999897 ), #59 );
#12 = ADVANCED_FACE ( 'NONE', ( #282 ), #286, .T. ) ;
#13 = CARTESIAN_POINT ( 'NONE',  ( 0.0000000000000000000, 0.0000000000000000000, 3.485000000000000320 ) ) ;
#14 = CIRCLE ( 'NONE', #221, 0.2662500000000004863 ) ;
#15 = CARTESIAN_POINT ( 'NONE',  ( 1.530808498934191571E-16, 0.0000000000000000000, 1.250000000000000000 ) ) ;
#16 = CARTESIAN_POINT ( 'NONE',  ( -0.2812499999999998890, 0.0000000000000000000, 1.251595048011768130 ) ) ;
#17 = DIRECTION ( 'NONE',  ( 0.0000000000000000000, 0.0000000000000000000, 1.000000000000000000 ) ) ;
#18 = CONICAL_SURFACE ( 'NONE', #7, 0.2662500000000004863, 0.7853981633974437271 ) ;
#19 = UNCERTAINTY_MEASURE_WITH_UNIT (LENGTH_MEASURE( 1.000000000000000082E-05 ), #240, 'distance_accuracy_value', 'NONE');
#20 = DIMENSIONAL_EXPONENTS ( 1.000000000000000000, 0.0000000000000000000, 0.0000000000000000000, 0.0000000000000000000, 0.0000000000000000000, 0.0000000000000000000, 0.0000000000000000000 ) ;
#21 = DIRECTION ( 'NONE',  ( 0.1736481776669313581, 0.0000000000000000000, 0.9848077530122077983 ) ) ;
#22 = CARTESIAN_POINT ( 'NONE',  ( 0.0000000000000000000, 0.0000000000000000000, 3.485000000000000320 ) ) ;
#23 = ADVANCED_FACE ( 'NONE', ( #192 ), #238, .T. ) ;
#24 = PLANE ( 'NONE',  #296 ) ;
#25 = AXIS2_PLACEMENT_3D ( 'NONE', #31, #212, #265 ) ;
#26 = ORIENTED_EDGE ( 'NONE', *, *, #74, .F. ) ;
#27 = ORIENTED_EDGE ( 'NONE', *, *, #222, .T. ) ;
#28 = SURFACE_SIDE_STYLE ('',( #234 ) ) ;
#29 = ORIENTED_EDGE ( 'NONE', *, *, #82, .F. ) ;
#30 = AXIS2_PLACEMENT_3D ( 'NONE', #64, #292, #89 ) ;
#31 = CARTESIAN_POINT ( 'NONE',  ( 0.0000000000000000000, 0.0000000000000000000, 3.500000000000000000 ) ) ;
#32 = EDGE_CURVE ( 'NONE', #120, #10, #83, .T. ) ;
#33 = EDGE_LOOP ( 'NONE', ( #27, #278 ) ) ;
#34 = LINE ( 'NONE', #269, #126 ) ;
#35 = CIRCLE ( 'NONE', #147, 0.2812500000000000555 ) ;
#36 = DIRECTION ( 'NONE',  ( -1.000000000000000000, 0.0000000000000000000, 0.0000000000000000000 ) ) ;
#37 = FILL_AREA_STYLE_COLOUR ( '', #291 ) ;
#38 = CARTESIAN_POINT ( 'NONE',  ( -0.2662500000000004863, 0.0000000000000000000, 3.500000000000000000 ) ) ;
#39 = ADVANCED_FACE ( 'NONE', ( #107 ), #247, .T. ) ;
#40 = PLANE ( 'NONE',  #243 ) ;
#41 = MECHANICAL_DESIGN_GEOMETRIC_PRESENTATION_REPRESENTATION (  '', ( #94 ), #105 ) ;
#42 = CARTESIAN_POINT ( 'NONE',  ( 0.0000000000000000000, 0.0000000000000000000, 3.500000000000000000 ) ) ;
#43 = APPLICATION_CONTEXT ( 'automotive_design' ) ;
#44 =( LENGTH_UNIT ( ) NAMED_UNIT ( * ) SI_UNIT ( $, .METRE. ) );
#45 = CARTESIAN_POINT ( 'NONE',  ( 0.2812500000000000555, 3.444319122601930972E-17, 3.485000000000000320 ) ) ;
#46 = AXIS2_PLACEMENT_3D ( 'NONE', #72, #48, #156 ) ;
#47 = LINE ( 'NONE', #95, #127 ) ;
#48 = DIRECTION ( 'NONE',  ( -1.224646799147353207E-16, -0.0000000000000000000, -1.000000000000000000 ) ) ;
#49 = EDGE_LOOP ( 'NONE', ( #102, #58 ) ) ;
#50 = AXIS2_PLACEMENT_3D ( 'NONE', #157, #249, #69 ) ;
#51 = SHAPE_DEFINITION_REPRESENTATION ( #168, #134 ) ;
#52 = ORIENTED_EDGE ( 'NONE', *, *, #140, .F. ) ;
#53 = EDGE_CURVE ( 'NONE', #285, #208, #196, .T. ) ;
#54 = ORIENTED_EDGE ( 'NONE', *, *, #150, .T. ) ;
#55 = FILL_AREA_STYLE ('',( #191 ) ) ;
#56 = DIRECTION ( 'NONE',  ( -1.224646799147353207E-16, -0.0000000000000000000, -1.000000000000000000 ) ) ;
#57 = DIRECTION ( 'NONE',  ( 1.000000000000000000, 0.0000000000000000000, 0.0000000000000000000 ) ) ;
#58 = ORIENTED_EDGE ( 'NONE', *, *, #85, .T. ) ;
#59 =( LENGTH_UNIT ( ) NAMED_UNIT ( * ) SI_UNIT ( $, .METRE. ) );
#60 = SURFACE_SIDE_STYLE ('',( #217 ) ) ;
#61 = COLOUR_RGB ( '',0.7921568627450980005, 0.8196078431372548767, 0.9333333333333333481 ) ;
#62 = LINE ( 'NONE', #244, #287 ) ;
#63 = DIRECTION ( 'NONE',  ( -1.224646799147353207E-16, -0.0000000000000000000, -1.000000000000000000 ) ) ;
#64 = CARTESIAN_POINT ( 'NONE',  ( 0.0000000000000000000, 0.0000000000000000000, 3.500000000000000000 ) ) ;
#65 = DIRECTION ( 'NONE',  ( -0.0000000000000000000, -0.0000000000000000000, -1.000000000000000000 ) ) ;
#66 = CIRCLE ( 'NONE', #155, 0.2812500000000000555 ) ;
#67 = EDGE_CURVE ( 'NONE', #101, #188, #34, .T. ) ;
#68 = FACE_OUTER_BOUND ( 'NONE', #169, .T. ) ;
#69 = DIRECTION ( 'NONE',  ( -1.000000000000000000, 0.0000000000000000000, 1.224646799147353207E-16 ) ) ;
#70 = DIRECTION ( 'NONE',  ( 1.000000000000000000, 0.0000000000000000000, 0.0000000000000000000 ) ) ;
#71 = MANIFOLD_SOLID_BREP ( 'Cut-Revolve1', #261 ) ;
#72 = CARTESIAN_POINT ( 'NONE',  ( 0.0000000000000000000, 0.0000000000000000000, 0.0000000000000000000 ) ) ;
#73 = PRODUCT_RELATED_PRODUCT_CATEGORY ( 'part', '', ( #202 ) ) ;
#74 = EDGE_CURVE ( 'NONE', #170, #188, #35, .T. ) ;
#75 = ORIENTED_EDGE ( 'NONE', *, *, #229, .F. ) ;
#76 = AXIS2_PLACEMENT_3D ( 'NONE', #153, #175, #130 ) ;
#77 = CARTESIAN_POINT ( 'NONE',  ( 0.0000000000000000000, 0.0000000000000000000, 0.0000000000000000000 ) ) ;
#78 = CARTESIAN_POINT ( 'NONE',  ( -0.2809687499999998228, 3.442596963040630068E-17, 1.250000000000000000 ) ) ;
#79 = ORIENTED_EDGE ( 'NONE', *, *, #133, .F. ) ;
#80 =( NAMED_UNIT ( * ) PLANE_ANGLE_UNIT ( ) SI_UNIT ( $, .RADIAN. ) );
#81 = ORIENTED_EDGE ( 'NONE', *, *, #67, .F. ) ;
#82 = EDGE_CURVE ( 'NONE', #10, #120, #199, .T. ) ;
#83 = CIRCLE ( 'NONE', #256, 0.2809687499999999338 ) ;
#84 = ORIENTED_EDGE ( 'NONE', *, *, #222, .F. ) ;
#85 = EDGE_CURVE ( 'NONE', #145, #101, #138, .T. ) ;
#86 = DIRECTION ( 'NONE',  ( -1.224646799147353207E-16, -0.0000000000000000000, -1.000000000000000000 ) ) ;
#87 = CARTESIAN_POINT ( 'NONE',  ( 1.530808498934191571E-16, 0.0000000000000000000, 1.250000000000000000 ) ) ;
#88 = PRESENTATION_LAYER_ASSIGNMENT (  '', '', ( #268 ) ) ;
#89 = DIRECTION ( 'NONE',  ( 1.000000000000000000, 0.0000000000000000000, 0.0000000000000000000 ) ) ;
#90 = ADVANCED_FACE ( 'NONE', ( #154 ), #185, .T. ) ;
#91 = DIRECTION ( 'NONE',  ( 1.000000000000000000, 0.0000000000000000000, 0.0000000000000000000 ) ) ;
#92 = UNCERTAINTY_MEASURE_WITH_UNIT (LENGTH_MEASURE( 1.000000000000000082E-05 ), #111, 'distance_accuracy_value', 'NONE');
#93 = CARTESIAN_POINT ( 'NONE',  ( -0.2809687499999999338, 0.0000000000000000000, 3.440874803479328548E-17 ) ) ;
#94 = STYLED_ITEM ( 'NONE', ( #128 ), #71 ) ;
#95 = CARTESIAN_POINT ( 'NONE',  ( -0.2809687499999998228, 3.440874803479328548E-17, 1.250000000000000000 ) ) ;
#96 = CARTESIAN_POINT ( 'NONE',  ( 0.2809687499999999338, 3.440874803479328548E-17, -3.440874803479328548E-17 ) ) ;
#97 = CARTESIAN_POINT ( 'NONE',  ( -0.2809687499999999893, 0.0000000000000000000, 6.881749606958657096E-17 ) ) ;
#98 = CONICAL_SURFACE ( 'NONE', #216, 0.2809687499999999338, 0.1745329251994338637 ) ;
#99 = ORIENTED_EDGE ( 'NONE', *, *, #181, .T. ) ;
#100 = EDGE_CURVE ( 'NONE', #208, #285, #171, .T. ) ;
#101 = VERTEX_POINT ( 'NONE', #38 ) ;
#102 = ORIENTED_EDGE ( 'NONE', *, *, #229, .T. ) ;
#103 = ORIENTED_EDGE ( 'NONE', *, *, #150, .F. ) ;
#104 = ORIENTED_EDGE ( 'NONE', *, *, #85, .F. ) ;
#105 =( GEOMETRIC_REPRESENTATION_CONTEXT ( 3 ) GLOBAL_UNCERTAINTY_ASSIGNED_CONTEXT ( ( #92 ) ) GLOBAL_UNIT_ASSIGNED_CONTEXT ( ( #111, #177, #197 ) ) REPRESENTATION_CONTEXT ( 'NONE', 'WORKASPACE' ) );
#106 = CARTESIAN_POINT ( 'NONE',  ( 1.532761869376289433E-16, 0.0000000000000000000, 1.251595048011768130 ) ) ;
#107 = FACE_OUTER_BOUND ( 'NONE', #2, .T. ) ;
#108 = PRODUCT_DEFINITION ( 'UNKNOWN', '', #3, #136 ) ;
#109 = DIRECTION ( 'NONE',  ( 1.000000000000000000, 0.0000000000000000000, 0.0000000000000000000 ) ) ;
#110 = VECTOR ( 'NONE', #161, 39.37007874015748143 ) ;
#111 =( CONVERSION_BASED_UNIT ( 'INCH', #11 ) LENGTH_UNIT ( ) NAMED_UNIT ( #225 ) );
#112 = LENGTH_MEASURE_WITH_UNIT ( LENGTH_MEASURE( 0.02539999999999999897 ), #44 );
#113 = DIRECTION ( 'NONE',  ( -1.224646799147353207E-16, -0.0000000000000000000, -1.000000000000000000 ) ) ;
#114 = LINE ( 'NONE', #96, #143 ) ;
#115 = FACE_OUTER_BOUND ( 'NONE', #121, .T. ) ;
#116 = AXIS2_PLACEMENT_3D ( 'NONE', #4, #65, #294 ) ;
#117 = UNCERTAINTY_MEASURE_WITH_UNIT (LENGTH_MEASURE( 1.000000000000000082E-05 ), #255, 'distance_accuracy_value', 'NONE');
#118 =( NAMED_UNIT ( * ) PLANE_ANGLE_UNIT ( ) SI_UNIT ( $, .RADIAN. ) );
#119 = ORIENTED_EDGE ( 'NONE', *, *, #213, .F. ) ;
#120 = VERTEX_POINT ( 'NONE', #264 ) ;
#121 = EDGE_LOOP ( 'NONE', ( #29, #235, #5, #52 ) ) ;
#122 = VECTOR ( 'NONE', #288, 39.37007874015748143 ) ;
#123 = ORIENTED_EDGE ( 'NONE', *, *, #74, .T. ) ;
#124 = ORIENTED_EDGE ( 'NONE', *, *, #32, .T. ) ;
#125 = DIRECTION ( 'NONE',  ( 1.000000000000000000, 0.0000000000000000000, 0.0000000000000000000 ) ) ;
#126 = VECTOR ( 'NONE', #290, 39.37007874015748143 ) ;
#127 = VECTOR ( 'NONE', #139, 39.37007874015747433 ) ;
#128 = PRESENTATION_STYLE_ASSIGNMENT (( #223 ) ) ;
#129 = ADVANCED_FACE ( 'NONE', ( #220 ), #40, .F. ) ;
#130 = DIRECTION ( 'NONE',  ( -1.000000000000000000, 0.0000000000000000000, 0.0000000000000000000 ) ) ;
#131 = CARTESIAN_POINT ( 'NONE',  ( 0.0000000000000000000, 0.0000000000000000000, 0.0000000000000000000 ) ) ;
#132 =( GEOMETRIC_REPRESENTATION_CONTEXT ( 3 ) GLOBAL_UNCERTAINTY_ASSIGNED_CONTEXT ( ( #117 ) ) GLOBAL_UNIT_ASSIGNED_CONTEXT ( ( #255, #80, #237 ) ) REPRESENTATION_CONTEXT ( 'NONE', 'WORKASPACE' ) );
#133 = EDGE_CURVE ( 'NONE', #170, #208, #293, .T. ) ;
#134 = ADVANCED_BREP_SHAPE_REPRESENTATION ( 'Micro_GEM-562-2', ( #71, #172 ), #279 ) ;
#135 = DIRECTION ( 'NONE',  ( 1.000000000000000000, 0.0000000000000000000, -0.0000000000000000000 ) ) ;
#136 = PRODUCT_DEFINITION_CONTEXT ( 'detailed design', #43, 'design' ) ;
#137 = LINE ( 'NONE', #201, #110 ) ;
#138 = CIRCLE ( 'NONE', #30, 0.2662500000000004863 ) ;
#139 = DIRECTION ( 'NONE',  ( -0.1736481776669311639, 2.126576849575783008E-17, 0.9848077530122080203 ) ) ;
#140 = EDGE_CURVE ( 'NONE', #120, #208, #62, .T. ) ;
#141 = FACE_OUTER_BOUND ( 'NONE', #49, .T. ) ;
#142 = EDGE_LOOP ( 'NONE', ( #104, #99, #214, #81 ) ) ;
#143 = VECTOR ( 'NONE', #183, 39.37007874015748143 ) ;
#144 = EDGE_LOOP ( 'NONE', ( #236, #124, #54, #9 ) ) ;
#145 = VERTEX_POINT ( 'NONE', #205 ) ;
#146 = DIRECTION ( 'NONE',  ( -1.000000000000000000, 0.0000000000000000000, 1.224646799147353454E-16 ) ) ;
#147 = AXIS2_PLACEMENT_3D ( 'NONE', #13, #289, #125 ) ;
#148 = ORIENTED_EDGE ( 'NONE', *, *, #82, .T. ) ;
#149 = FILL_AREA_STYLE ('',( #37 ) ) ;
#150 = EDGE_CURVE ( 'NONE', #10, #257, #230, .T. ) ;
#151 = VECTOR ( 'NONE', #113, 39.37007874015748143 ) ;
#152 = CARTESIAN_POINT ( 'NONE',  ( 0.2812500000000000555, 3.444319122601930972E-17, 3.500000000000000000 ) ) ;
#153 = CARTESIAN_POINT ( 'NONE',  ( 0.0000000000000000000, 0.0000000000000000000, 3.500000000000000000 ) ) ;
#154 = FACE_OUTER_BOUND ( 'NONE', #142, .T. ) ;
#155 = AXIS2_PLACEMENT_3D ( 'NONE', #22, #250, #70 ) ;
#156 = DIRECTION ( 'NONE',  ( -1.000000000000000000, 0.0000000000000000000, 1.224646799147353454E-16 ) ) ;
#157 = CARTESIAN_POINT ( 'NONE',  ( 4.213856314347737298E-33, 0.0000000000000000000, 3.440874803479328548E-17 ) ) ;
#158 = EDGE_CURVE ( 'NONE', #188, #170, #66, .T. ) ;
#159 = CARTESIAN_POINT ( 'NONE',  ( 0.2662500000000004863, 3.260622102729833328E-17, 3.500000000000000000 ) ) ;
#160 = LINE ( 'NONE', #159, #206 ) ;
#161 = DIRECTION ( 'NONE',  ( -0.0000000000000000000, -0.0000000000000000000, -1.000000000000000000 ) ) ;
#162 = APPLICATION_PROTOCOL_DEFINITION ( 'draft international standard', 'automotive_design', 1998, #43 ) ;
#163 =( LENGTH_UNIT ( ) NAMED_UNIT ( * ) SI_UNIT ( $, .METRE. ) );
#164 = ORIENTED_EDGE ( 'NONE', *, *, #32, .F. ) ;
#165 = PRESENTATION_LAYER_ASSIGNMENT (  '', '', ( #94 ) ) ;
#166 = MECHANICAL_DESIGN_GEOMETRIC_PRESENTATION_REPRESENTATION (  '', ( #268 ), #132 ) ;
#167 = ORIENTED_EDGE ( 'NONE', *, *, #53, .F. ) ;
#168 = PRODUCT_DEFINITION_SHAPE ( 'NONE', 'NONE',  #108 ) ;
#169 = EDGE_LOOP ( 'NONE', ( #79, #123, #8, #187 ) ) ;
#170 = VERTEX_POINT ( 'NONE', #45 ) ;
#171 = CIRCLE ( 'NONE', #239, 0.2812500000000000555 ) ;
#172 = AXIS2_PLACEMENT_3D ( 'NONE', #77, #260, #57 ) ;
#173 = ORIENTED_EDGE ( 'NONE', *, *, #252, .T. ) ;
#174 = DIRECTION ( 'NONE',  ( 1.224646799147353207E-16, 0.0000000000000000000, 1.000000000000000000 ) ) ;
#175 = DIRECTION ( 'NONE',  ( 0.0000000000000000000, 0.0000000000000000000, -1.000000000000000000 ) ) ;
#176 = AXIS2_PLACEMENT_3D ( 'NONE', #259, #56, #146 ) ;
#177 =( NAMED_UNIT ( * ) PLANE_ANGLE_UNIT ( ) SI_UNIT ( $, .RADIAN. ) );
#178 = DIRECTION ( 'NONE',  ( 1.000000000000000000, 0.0000000000000000000, 0.0000000000000000000 ) ) ;
#179 = CARTESIAN_POINT ( 'NONE',  ( 0.0000000000000000000, 0.0000000000000000000, 3.500000000000000000 ) ) ;
#180 = DIRECTION ( 'NONE',  ( 1.224646799147353207E-16, 0.0000000000000000000, 1.000000000000000000 ) ) ;
#181 = EDGE_CURVE ( 'NONE', #145, #170, #160, .T. ) ;
#182 = DIRECTION ( 'NONE',  ( 0.0000000000000000000, 0.0000000000000000000, -1.000000000000000000 ) ) ;
#183 = DIRECTION ( 'NONE',  ( -1.224646799147353207E-16, -0.0000000000000000000, -1.000000000000000000 ) ) ;
#184 = DIRECTION ( 'NONE',  ( 0.0000000000000000000, 0.0000000000000000000, 1.000000000000000000 ) ) ;
#185 = CONICAL_SURFACE ( 'NONE', #76, 0.2662500000000004863, 0.7853981633974437271 ) ;
#186 = PRODUCT_CONTEXT ( 'NONE', #218, 'mechanical' ) ;
#187 = ORIENTED_EDGE ( 'NONE', *, *, #100, .F. ) ;
#188 = VERTEX_POINT ( 'NONE', #251 ) ;
#189 =( NAMED_UNIT ( * ) SI_UNIT ( $, .STERADIAN. ) SOLID_ANGLE_UNIT ( ) );
#190 = EDGE_LOOP ( 'NONE', ( #210, #204, #167, #193 ) ) ;
#191 = FILL_AREA_STYLE_COLOUR ( '', #61 ) ;
#192 = FACE_OUTER_BOUND ( 'NONE', #190, .T. ) ;
#193 = ORIENTED_EDGE ( 'NONE', *, *, #198, .F. ) ;
#194 = CIRCLE ( 'NONE', #232, 0.2809687499999999893 ) ;
#195 = DIRECTION ( 'NONE',  ( -1.000000000000000000, 0.0000000000000000000, 0.0000000000000000000 ) ) ;
#196 = CIRCLE ( 'NONE', #226, 0.2812500000000000555 ) ;
#197 =( NAMED_UNIT ( * ) SI_UNIT ( $, .STERADIAN. ) SOLID_ANGLE_UNIT ( ) );
#198 = EDGE_CURVE ( 'NONE', #188, #285, #137, .T. ) ;
#199 = CIRCLE ( 'NONE', #295, 0.2809687499999999338 ) ;
#200 = DIRECTION ( 'NONE',  ( -1.000000000000000000, 0.0000000000000000000, 0.0000000000000000000 ) ) ;
#201 = CARTESIAN_POINT ( 'NONE',  ( -0.2812500000000000555, 0.0000000000000000000, 3.500000000000000000 ) ) ;
#202 = PRODUCT ( 'Micro_GEM-562-2', 'Micro_GEM-562-2', '', ( #186 ) ) ;
#203 = DIRECTION ( 'NONE',  ( -1.224646799147353207E-16, -0.0000000000000000000, -1.000000000000000000 ) ) ;
#204 = ORIENTED_EDGE ( 'NONE', *, *, #133, .T. ) ;
#205 = CARTESIAN_POINT ( 'NONE',  ( 0.2662500000000004863, 3.352470612665882150E-17, 3.500000000000000000 ) ) ;
#206 = VECTOR ( 'NONE', #224, 39.37007874015748143 ) ;
#207 = ORIENTED_EDGE ( 'NONE', *, *, #181, .F. ) ;
#208 = VERTEX_POINT ( 'NONE', #227 ) ;
#209 = ADVANCED_FACE ( 'NONE', ( #68 ), #297, .T. ) ;
#210 = ORIENTED_EDGE ( 'NONE', *, *, #158, .T. ) ;
#211 = PRESENTATION_STYLE_ASSIGNMENT (( #231 ) ) ;
#212 = DIRECTION ( 'NONE',  ( -0.0000000000000000000, -0.0000000000000000000, -1.000000000000000000 ) ) ;
#213 = EDGE_CURVE ( 'NONE', #10, #285, #47, .T. ) ;
#214 = ORIENTED_EDGE ( 'NONE', *, *, #158, .F. ) ;
#215 = DIRECTION ( 'NONE',  ( 1.000000000000000000, 0.0000000000000000000, -0.0000000000000000000 ) ) ;
#216 = AXIS2_PLACEMENT_3D ( 'NONE', #273, #180, #253 ) ;
#217 = SURFACE_STYLE_FILL_AREA ( #149 ) ;
#218 = APPLICATION_CONTEXT ( 'automotive_design' ) ;
#219 = ADVANCED_FACE ( 'NONE', ( #271 ), #18, .T. ) ;
#220 = FACE_OUTER_BOUND ( 'NONE', #33, .T. ) ;
#221 = AXIS2_PLACEMENT_3D ( 'NONE', #179, #184, #1 ) ;
#222 = EDGE_CURVE ( 'NONE', #257, #262, #194, .T. ) ;
#223 = SURFACE_STYLE_USAGE ( .BOTH. , #60 ) ;
#224 = DIRECTION ( 'NONE',  ( 0.7071067811865443531, 8.659560562354894648E-17, -0.7071067811865507924 ) ) ;
#225 = DIMENSIONAL_EXPONENTS ( 1.000000000000000000, 0.0000000000000000000, 0.0000000000000000000, 0.0000000000000000000, 0.0000000000000000000, 0.0000000000000000000, 0.0000000000000000000 ) ;
#226 = AXIS2_PLACEMENT_3D ( 'NONE', #106, #86, #178 ) ;
#227 = CARTESIAN_POINT ( 'NONE',  ( 0.2812500000000001665, 3.444319122601932821E-17, 1.251595048011768130 ) ) ;
#228 = DIRECTION ( 'NONE',  ( -1.000000000000000000, 0.0000000000000000000, 1.224646799147353207E-16 ) ) ;
#229 = EDGE_CURVE ( 'NONE', #101, #145, #14, .T. ) ;
#230 = LINE ( 'NONE', #93, #151 ) ;
#231 = SURFACE_STYLE_USAGE ( .BOTH. , #28 ) ;
#232 = AXIS2_PLACEMENT_3D ( 'NONE', #299, #203, #228 ) ;
#233 = ORIENTED_EDGE ( 'NONE', *, *, #100, .T. ) ;
#234 = SURFACE_STYLE_FILL_AREA ( #55 ) ;
#235 = ORIENTED_EDGE ( 'NONE', *, *, #213, .T. ) ;
#236 = ORIENTED_EDGE ( 'NONE', *, *, #252, .F. ) ;
#237 =( NAMED_UNIT ( * ) SI_UNIT ( $, .STERADIAN. ) SOLID_ANGLE_UNIT ( ) );
#238 = CYLINDRICAL_SURFACE ( 'NONE', #25, 0.2812500000000000555 ) ;
#239 = AXIS2_PLACEMENT_3D ( 'NONE', #246, #63, #91 ) ;
#240 =( CONVERSION_BASED_UNIT ( 'INCH', #112 ) LENGTH_UNIT ( ) NAMED_UNIT ( #20 ) );
#241 = EDGE_LOOP ( 'NONE', ( #148, #173, #84, #103 ) ) ;
#242 = CARTESIAN_POINT ( 'NONE',  ( 1.530808498934191571E-16, 0.0000000000000000000, 1.250000000000000000 ) ) ;
#243 = AXIS2_PLACEMENT_3D ( 'NONE', #131, #267, #215 ) ;
#244 = CARTESIAN_POINT ( 'NONE',  ( 0.2809687500000001004, 0.0000000000000000000, 1.250000000000000000 ) ) ;
#245 = DIRECTION ( 'NONE',  ( -1.224646799147353207E-16, -0.0000000000000000000, -1.000000000000000000 ) ) ;
#246 = CARTESIAN_POINT ( 'NONE',  ( 1.532761869376289433E-16, 0.0000000000000000000, 1.251595048011768130 ) ) ;
#247 = CONICAL_SURFACE ( 'NONE', #275, 0.2809687499999999338, 0.1745329251994338637 ) ;
#248 = CARTESIAN_POINT ( 'NONE',  ( 0.0000000000000000000, 0.0000000000000000000, 3.500000000000000000 ) ) ;
#249 = DIRECTION ( 'NONE',  ( -1.224646799147353207E-16, -0.0000000000000000000, -1.000000000000000000 ) ) ;
#250 = DIRECTION ( 'NONE',  ( 0.0000000000000000000, 0.0000000000000000000, -1.000000000000000000 ) ) ;
#251 = CARTESIAN_POINT ( 'NONE',  ( -0.2812500000000000555, 0.0000000000000000000, 3.485000000000000320 ) ) ;
#252 = EDGE_CURVE ( 'NONE', #120, #262, #114, .T. ) ;
#253 = DIRECTION ( 'NONE',  ( 1.000000000000000000, 0.0000000000000000000, 0.0000000000000000000 ) ) ;
#254 = ADVANCED_FACE ( 'NONE', ( #115 ), #98, .T. ) ;
#255 =( CONVERSION_BASED_UNIT ( 'INCH', #283 ) LENGTH_UNIT ( ) NAMED_UNIT ( #298 ) );
#256 = AXIS2_PLACEMENT_3D ( 'NONE', #242, #245, #36 ) ;
#257 = VERTEX_POINT ( 'NONE', #97 ) ;
#258 = ORIENTED_EDGE ( 'NONE', *, *, #67, .T. ) ;
#259 = CARTESIAN_POINT ( 'NONE',  ( 0.0000000000000000000, 0.0000000000000000000, 0.0000000000000000000 ) ) ;
#260 = DIRECTION ( 'NONE',  ( 0.0000000000000000000, 0.0000000000000000000, 1.000000000000000000 ) ) ;
#261 = CLOSED_SHELL ( 'NONE', ( #12, #254, #90, #23, #209, #284, #219, #39, #277, #129 ) ) ;
#262 = VERTEX_POINT ( 'NONE', #272 ) ;
#263 = CIRCLE ( 'NONE', #50, 0.2809687499999999893 ) ;
#264 = CARTESIAN_POINT ( 'NONE',  ( 0.2809687500000001004, 0.0000000000000000000, 1.250000000000000000 ) ) ;
#265 = DIRECTION ( 'NONE',  ( -1.000000000000000000, 0.0000000000000000000, 0.0000000000000000000 ) ) ;
#266 = EDGE_CURVE ( 'NONE', #262, #257, #263, .T. ) ;
#267 = DIRECTION ( 'NONE',  ( 0.0000000000000000000, 0.0000000000000000000, 1.000000000000000000 ) ) ;
#268 = STYLED_ITEM ( 'NONE', ( #211 ), #134 ) ;
#269 = CARTESIAN_POINT ( 'NONE',  ( -0.2662500000000004863, 0.0000000000000000000, 3.500000000000000000 ) ) ;
#270 = DIRECTION ( 'NONE',  ( -1.224646799147353207E-16, -0.0000000000000000000, -1.000000000000000000 ) ) ;
#271 = FACE_OUTER_BOUND ( 'NONE', #281, .T. ) ;
#272 = CARTESIAN_POINT ( 'NONE',  ( 0.2809687499999999893, 3.440874803479329165E-17, -7.582401355855259480E-33 ) ) ;
#273 = CARTESIAN_POINT ( 'NONE',  ( 1.530808498934191571E-16, 0.0000000000000000000, 1.250000000000000000 ) ) ;
#274 = FACE_OUTER_BOUND ( 'NONE', #144, .T. ) ;
#275 = AXIS2_PLACEMENT_3D ( 'NONE', #15, #174, #109 ) ;
#276 = CYLINDRICAL_SURFACE ( 'NONE', #46, 0.2809687499999999338 ) ;
#277 = ADVANCED_FACE ( 'NONE', ( #274 ), #276, .T. ) ;
#278 = ORIENTED_EDGE ( 'NONE', *, *, #266, .T. ) ;
#279 =( GEOMETRIC_REPRESENTATION_CONTEXT ( 3 ) GLOBAL_UNCERTAINTY_ASSIGNED_CONTEXT ( ( #19 ) ) GLOBAL_UNIT_ASSIGNED_CONTEXT ( ( #240, #118, #189 ) ) REPRESENTATION_CONTEXT ( 'NONE', 'WORKASPACE' ) );
#280 = APPLICATION_PROTOCOL_DEFINITION ( 'draft international standard', 'automotive_design', 1998, #218 ) ;
#281 = EDGE_LOOP ( 'NONE', ( #207, #75, #258, #26 ) ) ;
#282 = FACE_OUTER_BOUND ( 'NONE', #241, .T. ) ;
#283 = LENGTH_MEASURE_WITH_UNIT ( LENGTH_MEASURE( 0.02539999999999999897 ), #163 );
#284 = ADVANCED_FACE ( 'NONE', ( #141 ), #24, .T. ) ;
#285 = VERTEX_POINT ( 'NONE', #16 ) ;
#286 = CYLINDRICAL_SURFACE ( 'NONE', #176, 0.2809687499999999338 ) ;
#287 = VECTOR ( 'NONE', #21, 39.37007874015748143 ) ;
#288 = DIRECTION ( 'NONE',  ( -0.0000000000000000000, -0.0000000000000000000, -1.000000000000000000 ) ) ;
#289 = DIRECTION ( 'NONE',  ( 0.0000000000000000000, 0.0000000000000000000, -1.000000000000000000 ) ) ;
#290 = DIRECTION ( 'NONE',  ( -0.7071067811865443531, 0.0000000000000000000, -0.7071067811865507924 ) ) ;
#291 = COLOUR_RGB ( '',0.7921568627450980005, 0.8196078431372548767, 0.9333333333333333481 ) ;
#292 = DIRECTION ( 'NONE',  ( 0.0000000000000000000, 0.0000000000000000000, 1.000000000000000000 ) ) ;
#293 = LINE ( 'NONE', #152, #122 ) ;
#294 = DIRECTION ( 'NONE',  ( -1.000000000000000000, 0.0000000000000000000, 0.0000000000000000000 ) ) ;
#295 = AXIS2_PLACEMENT_3D ( 'NONE', #87, #270, #195 ) ;
#296 = AXIS2_PLACEMENT_3D ( 'NONE', #42, #17, #135 ) ;
#297 = CYLINDRICAL_SURFACE ( 'NONE', #116, 0.2812500000000000555 ) ;
#298 = DIMENSIONAL_EXPONENTS ( 1.000000000000000000, 0.0000000000000000000, 0.0000000000000000000, 0.0000000000000000000, 0.0000000000000000000, 0.0000000000000000000, 0.0000000000000000000 ) ;
#299 = CARTESIAN_POINT ( 'NONE',  ( 4.213856314347737298E-33, 0.0000000000000000000, 3.440874803479328548E-17 ) ) ;
ENDSEC;
END-ISO-10303-21;
