ISO-10303-21;
HEADER;
FILE_DESCRIPTION (( 'STEP AP214' ),
    '1' );
FILE_NAME ('Micro_DM-250-490.STEP',
    '2021-09-02T16:01:46',
    ( '' ),
    ( '' ),
    'SwSTEP 2.0',
    'SolidWorks 2020',
    '' );
FILE_SCHEMA (( 'AUTOMOTIVE_DESIGN' ));
ENDSEC;

DATA;
#1 = CIRCLE ( 'NONE', #83, 0.1250000000000000000 ) ;
#2 = DIRECTION ( 'NONE',  ( -0.0000000000000000000, -0.0000000000000000000, -1.000000000000000000 ) ) ;
#3 = DIRECTION ( 'NONE',  ( 1.000000000000000000, 0.0000000000000000000, 0.0000000000000000000 ) ) ;
#4 = SHAPE_DEFINITION_REPRESENTATION ( #133, #264 ) ;
#5 = CARTESIAN_POINT ( 'NONE',  ( -0.1249500000000000610, 0.0000000000000000000, 0.0000000000000000000 ) ) ;
#6 = ORIENTED_EDGE ( 'NONE', *, *, #172, .T. ) ;
#7 = CIRCLE ( 'NONE', #256, 0.1100000000000001948 ) ;
#8 = LENGTH_MEASURE_WITH_UNIT ( LENGTH_MEASURE( 0.02539999999999999897 ), #263 );
#9 = EDGE_CURVE ( 'NONE', #18, #39, #255, .T. ) ;
#10 = CYLINDRICAL_SURFACE ( 'NONE', #126, 0.1249500000000000610 ) ;
#11 = CIRCLE ( 'NONE', #77, 0.007499999999999999722 ) ;
#12 = CARTESIAN_POINT ( 'NONE',  ( 0.0000000000000000000, 0.0000000000000000000, 0.0000000000000000000 ) ) ;
#13 = FACE_OUTER_BOUND ( 'NONE', #170, .T. ) ;
#14 = AXIS2_PLACEMENT_3D ( 'NONE', #287, #137, #57 ) ;
#15 = DIRECTION ( 'NONE',  ( -1.000000000000000000, 0.0000000000000000000, 0.0000000000000000000 ) ) ;
#16 = VERTEX_POINT ( 'NONE', #234 ) ;
#17 = EDGE_CURVE ( 'NONE', #142, #39, #94, .T. ) ;
#18 = VERTEX_POINT ( 'NONE', #177 ) ;
#19 = VERTEX_POINT ( 'NONE', #75 ) ;
#20 = CLOSED_SHELL ( 'NONE', ( #183, #79, #124, #268, #279, #167, #34, #216, #200, #219, #328 ) ) ;
#21 = EDGE_CURVE ( 'NONE', #45, #142, #204, .T. ) ;
#22 = ORIENTED_EDGE ( 'NONE', *, *, #37, .T. ) ;
#23 = DIRECTION ( 'NONE',  ( -0.0000000000000000000, -0.0000000000000000000, -1.000000000000000000 ) ) ;
#24 = FACE_OUTER_BOUND ( 'NONE', #297, .T. ) ;
#25 = CIRCLE ( 'NONE', #175, 0.1250000000000000000 ) ;
#26 = DIRECTION ( 'NONE',  ( 1.000000000000000000, 0.0000000000000000000, 0.0000000000000000000 ) ) ;
#27 = UNCERTAINTY_MEASURE_WITH_UNIT (LENGTH_MEASURE( 1.000000000000000082E-05 ), #318, 'distance_accuracy_value', 'NONE');
#28 = DIMENSIONAL_EXPONENTS ( 1.000000000000000000, 0.0000000000000000000, 0.0000000000000000000, 0.0000000000000000000, 0.0000000000000000000, 0.0000000000000000000, 0.0000000000000000000 ) ;
#29 = EDGE_CURVE ( 'NONE', #39, #142, #217, .T. ) ;
#30 = CARTESIAN_POINT ( 'NONE',  ( 0.1249500000000000610, 0.0000000000000000000, 0.1174499999999995686 ) ) ;
#31 = CARTESIAN_POINT ( 'NONE',  ( 0.0000000000000000000, 0.0000000000000000000, 0.1174499999999995548 ) ) ;
#32 =( NAMED_UNIT ( * ) SI_UNIT ( $, .STERADIAN. ) SOLID_ANGLE_UNIT ( ) );
#33 = AXIS2_PLACEMENT_3D ( 'NONE', #282, #281, #178 ) ;
#34 = ADVANCED_FACE ( 'NONE', ( #24 ), #249, .T. ) ;
#35 = SURFACE_SIDE_STYLE ('',( #88 ) ) ;
#36 = CARTESIAN_POINT ( 'NONE',  ( 0.0000000000000000000, 0.0000000000000000000, 1.707404996040164512E-17 ) ) ;
#37 = EDGE_CURVE ( 'NONE', #16, #117, #74, .T. ) ;
#38 = DIRECTION ( 'NONE',  ( -1.000000000000000000, 0.0000000000000000000, 0.0000000000000000000 ) ) ;
#39 = VERTEX_POINT ( 'NONE', #30 ) ;
#40 = VERTEX_POINT ( 'NONE', #157 ) ;
#41 = VECTOR ( 'NONE', #161, 39.37007874015748143 ) ;
#42 = FILL_AREA_STYLE_COLOUR ( '', #148 ) ;
#43 = CARTESIAN_POINT ( 'NONE',  ( 0.1100000000000001948, 1.438959988998141146E-17, 2.500000000000000000 ) ) ;
#44 = ORIENTED_EDGE ( 'NONE', *, *, #65, .F. ) ;
#45 = VERTEX_POINT ( 'NONE', #154 ) ;
#46 = AXIS2_PLACEMENT_3D ( 'NONE', #308, #202, #3 ) ;
#47 = APPLICATION_CONTEXT ( 'automotive_design' ) ;
#48 = ORIENTED_EDGE ( 'NONE', *, *, #192, .T. ) ;
#49 = CARTESIAN_POINT ( 'NONE',  ( 0.007499999999999999722, 0.0000000000000000000, 1.707404996040164512E-17 ) ) ;
#50 = PRODUCT_DEFINITION_CONTEXT ( 'detailed design', #47, 'design' ) ;
#51 = DIMENSIONAL_EXPONENTS ( 1.000000000000000000, 0.0000000000000000000, 0.0000000000000000000, 0.0000000000000000000, 0.0000000000000000000, 0.0000000000000000000, 0.0000000000000000000 ) ;
#52 = FILL_AREA_STYLE_COLOUR ( '', #166 ) ;
#53 = FILL_AREA_STYLE ('',( #52 ) ) ;
#54 =( GEOMETRIC_REPRESENTATION_CONTEXT ( 3 ) GLOBAL_UNCERTAINTY_ASSIGNED_CONTEXT ( ( #27 ) ) GLOBAL_UNIT_ASSIGNED_CONTEXT ( ( #318, #289, #32 ) ) REPRESENTATION_CONTEXT ( 'NONE', 'WORKASPACE' ) );
#55 = DIRECTION ( 'NONE',  ( 0.0000000000000000000, 0.0000000000000000000, -1.000000000000000000 ) ) ;
#56 = FACE_OUTER_BOUND ( 'NONE', #92, .T. ) ;
#57 = DIRECTION ( 'NONE',  ( -1.000000000000000000, 0.0000000000000000000, 0.0000000000000000000 ) ) ;
#58 = AXIS2_PLACEMENT_3D ( 'NONE', #269, #301, #104 ) ;
#59 = CARTESIAN_POINT ( 'NONE',  ( 0.0000000000000000000, 0.0000000000000000000, 2.500000000000000000 ) ) ;
#60 = FACE_OUTER_BOUND ( 'NONE', #93, .T. ) ;
#61 = AXIS2_PLACEMENT_3D ( 'NONE', #311, #253, #232 ) ;
#62 = SURFACE_STYLE_FILL_AREA ( #187 ) ;
#63 = VERTEX_POINT ( 'NONE', #286 ) ;
#64 = CARTESIAN_POINT ( 'NONE',  ( -0.007499999999999999722, 8.110223427353348070E-18, 1.707404996040164512E-17 ) ) ;
#65 = EDGE_CURVE ( 'NONE', #45, #18, #283, .T. ) ;
#66 = ORIENTED_EDGE ( 'NONE', *, *, #229, .T. ) ;
#67 = DIRECTION ( 'NONE',  ( -0.0000000000000000000, -0.0000000000000000000, -1.000000000000000000 ) ) ;
#68 = VECTOR ( 'NONE', #307, 39.37007874015748143 ) ;
#69 = ORIENTED_EDGE ( 'NONE', *, *, #298, .F. ) ;
#70 = ORIENTED_EDGE ( 'NONE', *, *, #192, .F. ) ;
#71 = EDGE_CURVE ( 'NONE', #40, #228, #213, .T. ) ;
#72 = ORIENTED_EDGE ( 'NONE', *, *, #150, .F. ) ;
#73 = CARTESIAN_POINT ( 'NONE',  ( -0.1250000000000000000, 0.0000000000000000000, 2.500000000000000000 ) ) ;
#74 = LINE ( 'NONE', #230, #147 ) ;
#75 = CARTESIAN_POINT ( 'NONE',  ( -0.1250000000000000000, 0.0000000000000000000, 0.7499999999999998890 ) ) ;
#76 = CARTESIAN_POINT ( 'NONE',  ( 0.0000000000000000000, 0.0000000000000000000, 0.0000000000000000000 ) ) ;
#77 = AXIS2_PLACEMENT_3D ( 'NONE', #111, #85, #38 ) ;
#78 = LINE ( 'NONE', #49, #68 ) ;
#79 = ADVANCED_FACE ( 'NONE', ( #98 ), #292, .T. ) ;
#80 = DIRECTION ( 'NONE',  ( -0.0000000000000000000, -0.0000000000000000000, -1.000000000000000000 ) ) ;
#81 = SURFACE_SIDE_STYLE ('',( #62 ) ) ;
#82 = CARTESIAN_POINT ( 'NONE',  ( -0.1100000000000001948, 0.0000000000000000000, 2.500000000000000000 ) ) ;
#83 = AXIS2_PLACEMENT_3D ( 'NONE', #260, #2, #205 ) ;
#84 =( NAMED_UNIT ( * ) SI_UNIT ( $, .STERADIAN. ) SOLID_ANGLE_UNIT ( ) );
#85 = DIRECTION ( 'NONE',  ( -0.0000000000000000000, -0.0000000000000000000, -1.000000000000000000 ) ) ;
#86 = EDGE_CURVE ( 'NONE', #63, #19, #305, .T. ) ;
#87 = DIRECTION ( 'NONE',  ( -0.7071067811865490160, 8.659560562354951347E-17, 0.7071067811865460184 ) ) ;
#88 = SURFACE_STYLE_FILL_AREA ( #53 ) ;
#89 = VECTOR ( 'NONE', #182, 39.37007874015748143 ) ;
#90 = DIRECTION ( 'NONE',  ( -0.0000000000000000000, -0.0000000000000000000, -1.000000000000000000 ) ) ;
#91 = EDGE_LOOP ( 'NONE', ( #96, #242 ) ) ;
#92 = EDGE_LOOP ( 'NONE', ( #199, #274, #247, #145 ) ) ;
#93 = EDGE_LOOP ( 'NONE', ( #258, #201 ) ) ;
#94 = CIRCLE ( 'NONE', #99, 0.1249500000000000194 ) ;
#95 =( CONVERSION_BASED_UNIT ( 'INCH', #144 ) LENGTH_UNIT ( ) NAMED_UNIT ( #28 ) );
#96 = ORIENTED_EDGE ( 'NONE', *, *, #303, .T. ) ;
#97 = EDGE_CURVE ( 'NONE', #40, #39, #78, .T. ) ;
#98 = FACE_OUTER_BOUND ( 'NONE', #224, .T. ) ;
#99 = AXIS2_PLACEMENT_3D ( 'NONE', #103, #23, #208 ) ;
#100 = PLANE ( 'NONE',  #155 ) ;
#101 = CARTESIAN_POINT ( 'NONE',  ( 0.0000000000000000000, 0.0000000000000000000, 2.500000000000000000 ) ) ;
#102 = DIRECTION ( 'NONE',  ( -1.000000000000000000, 0.0000000000000000000, 0.0000000000000000000 ) ) ;
#103 = CARTESIAN_POINT ( 'NONE',  ( 0.0000000000000000000, 0.0000000000000000000, 0.1174499999999995548 ) ) ;
#104 = DIRECTION ( 'NONE',  ( -1.000000000000000000, 0.0000000000000000000, 0.0000000000000000000 ) ) ;
#105 = EDGE_CURVE ( 'NONE', #273, #146, #7, .T. ) ;
#106 = DIRECTION ( 'NONE',  ( 1.000000000000000000, 0.0000000000000000000, 0.0000000000000000000 ) ) ;
#107 = CYLINDRICAL_SURFACE ( 'NONE', #130, 0.1249500000000000610 ) ;
#108 = CIRCLE ( 'NONE', #33, 0.1250000000000000000 ) ;
#109 = STYLED_ITEM ( 'NONE', ( #309 ), #264 ) ;
#110 = LINE ( 'NONE', #215, #196 ) ;
#111 = CARTESIAN_POINT ( 'NONE',  ( 0.0000000000000000000, 0.0000000000000000000, 1.707404996040164512E-17 ) ) ;
#112 = FACE_OUTER_BOUND ( 'NONE', #174, .T. ) ;
#113 = AXIS2_PLACEMENT_3D ( 'NONE', #254, #55, #125 ) ;
#114 = EDGE_LOOP ( 'NONE', ( #296, #327, #278, #222 ) ) ;
#115 = CARTESIAN_POINT ( 'NONE',  ( 0.0000000000000000000, 0.0000000000000000000, 2.500000000000000000 ) ) ;
#116 = DIRECTION ( 'NONE',  ( 0.0000000000000000000, 0.0000000000000000000, -1.000000000000000000 ) ) ;
#117 = VERTEX_POINT ( 'NONE', #181 ) ;
#118 = CARTESIAN_POINT ( 'NONE',  ( 0.0000000000000000000, 0.0000000000000000000, 2.485000000000000320 ) ) ;
#119 = EDGE_LOOP ( 'NONE', ( #295, #250, #190, #70 ) ) ;
#120 =( GEOMETRIC_REPRESENTATION_CONTEXT ( 3 ) GLOBAL_UNCERTAINTY_ASSIGNED_CONTEXT ( ( #285 ) ) GLOBAL_UNIT_ASSIGNED_CONTEXT ( ( #238, #266, #134 ) ) REPRESENTATION_CONTEXT ( 'NONE', 'WORKASPACE' ) );
#121 = MECHANICAL_DESIGN_GEOMETRIC_PRESENTATION_REPRESENTATION (  '', ( #109 ), #54 ) ;
#122 = ORIENTED_EDGE ( 'NONE', *, *, #315, .F. ) ;
#123 = DIRECTION ( 'NONE',  ( -0.0000000000000000000, -0.0000000000000000000, -1.000000000000000000 ) ) ;
#124 = ADVANCED_FACE ( 'NONE', ( #284 ), #140, .T. ) ;
#125 = DIRECTION ( 'NONE',  ( -1.000000000000000000, 0.0000000000000000000, 0.0000000000000000000 ) ) ;
#126 = AXIS2_PLACEMENT_3D ( 'NONE', #132, #67, #15 ) ;
#127 = DIRECTION ( 'NONE',  ( -0.0000000000000000000, -0.0000000000000000000, -1.000000000000000000 ) ) ;
#128 = CARTESIAN_POINT ( 'NONE',  ( 0.0000000000000000000, 0.0000000000000000000, 1.707404996040164512E-17 ) ) ;
#129 = CARTESIAN_POINT ( 'NONE',  ( 0.1249500000000000610, 1.530196175534618635E-17, 0.0000000000000000000 ) ) ;
#130 = AXIS2_PLACEMENT_3D ( 'NONE', #12, #290, #312 ) ;
#131 = DIRECTION ( 'NONE',  ( 0.0000000000000000000, 0.0000000000000000000, 1.000000000000000000 ) ) ;
#132 = CARTESIAN_POINT ( 'NONE',  ( 0.0000000000000000000, 0.0000000000000000000, 0.0000000000000000000 ) ) ;
#133 = PRODUCT_DEFINITION_SHAPE ( 'NONE', 'NONE',  #138 ) ;
#134 =( NAMED_UNIT ( * ) SI_UNIT ( $, .STERADIAN. ) SOLID_ANGLE_UNIT ( ) );
#135 = DIRECTION ( 'NONE',  ( 1.000000000000000000, 0.0000000000000000000, 0.0000000000000000000 ) ) ;
#136 = AXIS2_PLACEMENT_3D ( 'NONE', #31, #280, #102 ) ;
#137 = DIRECTION ( 'NONE',  ( -0.0000000000000000000, 0.0000000000000000000, -1.000000000000000000 ) ) ;
#138 = PRODUCT_DEFINITION ( 'UNKNOWN', '', #156, #50 ) ;
#139 = ORIENTED_EDGE ( 'NONE', *, *, #29, .F. ) ;
#140 = CONICAL_SURFACE ( 'NONE', #113, 0.1100000000000001948, 0.7853981633974517207 ) ;
#141 = DIRECTION ( 'NONE',  ( -1.000000000000000000, 0.0000000000000000000, 0.0000000000000000000 ) ) ;
#142 = VERTEX_POINT ( 'NONE', #158 ) ;
#143 = EDGE_CURVE ( 'NONE', #16, #63, #108, .T. ) ;
#144 = LENGTH_MEASURE_WITH_UNIT ( LENGTH_MEASURE( 0.02539999999999999897 ), #198 );
#145 = ORIENTED_EDGE ( 'NONE', *, *, #29, .T. ) ;
#146 = VERTEX_POINT ( 'NONE', #231 ) ;
#147 = VECTOR ( 'NONE', #80, 39.37007874015748143 ) ;
#148 = COLOUR_RGB ( '',0.7921568627450980005, 0.8196078431372548767, 0.9333333333333333481 ) ;
#149 = FACE_OUTER_BOUND ( 'NONE', #114, .T. ) ;
#150 = EDGE_CURVE ( 'NONE', #19, #117, #1, .T. ) ;
#151 = CARTESIAN_POINT ( 'NONE',  ( 0.0000000000000000000, 0.0000000000000000000, 0.7500000000000001110 ) ) ;
#152 = DIRECTION ( 'NONE',  ( 1.000000000000000000, 0.0000000000000000000, -0.0000000000000000000 ) ) ;
#153 = DIRECTION ( 'NONE',  ( 0.0000000000000000000, 0.0000000000000000000, 1.000000000000000000 ) ) ;
#154 = CARTESIAN_POINT ( 'NONE',  ( -0.1249500000000001027, 0.0000000000000000000, 0.7500000000000001110 ) ) ;
#155 = AXIS2_PLACEMENT_3D ( 'NONE', #59, #186, #319 ) ;
#156 = PRODUCT_DEFINITION_FORMATION_WITH_SPECIFIED_SOURCE ( 'ANY', '', #168, .NOT_KNOWN. ) ;
#157 = CARTESIAN_POINT ( 'NONE',  ( 0.007499999999999999722, 0.0000000000000000000, 1.707404996040164512E-17 ) ) ;
#158 = CARTESIAN_POINT ( 'NONE',  ( -0.1249500000000000610, 1.530196175534618327E-17, 0.1174499999999995686 ) ) ;
#159 = SURFACE_STYLE_USAGE ( .BOTH. , #81 ) ;
#160 = LINE ( 'NONE', #82, #41 ) ;
#161 = DIRECTION ( 'NONE',  ( -0.7071067811865499042, 0.0000000000000000000, -0.7071067811865451302 ) ) ;
#162 = MANIFOLD_SOLID_BREP ( 'Cut-Revolve4', #20 ) ;
#163 = AXIS2_PLACEMENT_3D ( 'NONE', #118, #116, #169 ) ;
#164 = ORIENTED_EDGE ( 'NONE', *, *, #315, .T. ) ;
#165 = EDGE_LOOP ( 'NONE', ( #324, #6 ) ) ;
#166 = COLOUR_RGB ( '',0.7921568627450980005, 0.8196078431372548767, 0.9333333333333333481 ) ;
#167 = ADVANCED_FACE ( 'NONE', ( #211 ), #100, .T. ) ;
#168 = PRODUCT ( 'Micro_DM-250-490', 'Micro_DM-250-490', '', ( #314 ) ) ;
#169 = DIRECTION ( 'NONE',  ( 1.000000000000000000, 0.0000000000000000000, 0.0000000000000000000 ) ) ;
#170 = EDGE_LOOP ( 'NONE', ( #321, #164, #246, #139 ) ) ;
#171 = DIMENSIONAL_EXPONENTS ( 1.000000000000000000, 0.0000000000000000000, 0.0000000000000000000, 0.0000000000000000000, 0.0000000000000000000, 0.0000000000000000000, 0.0000000000000000000 ) ;
#172 = EDGE_CURVE ( 'NONE', #228, #40, #11, .T. ) ;
#173 = DIRECTION ( 'NONE',  ( 0.0000000000000000000, 0.0000000000000000000, 1.000000000000000000 ) ) ;
#174 = EDGE_LOOP ( 'NONE', ( #66, #22, #72, #302 ) ) ;
#175 = AXIS2_PLACEMENT_3D ( 'NONE', #267, #226, #326 ) ;
#176 = CYLINDRICAL_SURFACE ( 'NONE', #265, 0.1250000000000000000 ) ;
#177 = CARTESIAN_POINT ( 'NONE',  ( 0.1249500000000001027, 1.530196175534619251E-17, 0.7500000000000001110 ) ) ;
#178 = DIRECTION ( 'NONE',  ( 1.000000000000000000, 0.0000000000000000000, 0.0000000000000000000 ) ) ;
#179 = DIRECTION ( 'NONE',  ( -0.0000000000000000000, -0.0000000000000000000, -1.000000000000000000 ) ) ;
#180 = STYLED_ITEM ( 'NONE', ( #240 ), #162 ) ;
#181 = CARTESIAN_POINT ( 'NONE',  ( 0.1250000000000000000, 1.530808498934191509E-17, 0.7499999999999998890 ) ) ;
#182 = DIRECTION ( 'NONE',  ( -0.0000000000000000000, -0.0000000000000000000, -1.000000000000000000 ) ) ;
#183 = ADVANCED_FACE ( 'NONE', ( #320 ), #107, .T. ) ;
#184 = PLANE ( 'NONE',  #14 ) ;
#185 = PRESENTATION_LAYER_ASSIGNMENT (  '', '', ( #180 ) ) ;
#186 = DIRECTION ( 'NONE',  ( 0.0000000000000000000, 0.0000000000000000000, 1.000000000000000000 ) ) ;
#187 = FILL_AREA_STYLE ('',( #42 ) ) ;
#188 = MECHANICAL_DESIGN_GEOMETRIC_PRESENTATION_REPRESENTATION (  '', ( #180 ), #120 ) ;
#189 = DIRECTION ( 'NONE',  ( 0.0000000000000000000, 0.0000000000000000000, 1.000000000000000000 ) ) ;
#190 = ORIENTED_EDGE ( 'NONE', *, *, #229, .F. ) ;
#191 = LINE ( 'NONE', #194, #261 ) ;
#192 = EDGE_CURVE ( 'NONE', #146, #63, #160, .T. ) ;
#193 = ORIENTED_EDGE ( 'NONE', *, *, #17, .F. ) ;
#194 = CARTESIAN_POINT ( 'NONE',  ( 0.1100000000000001948, 1.347111479062090784E-17, 2.500000000000000000 ) ) ;
#195 = EDGE_LOOP ( 'NONE', ( #44, #122 ) ) ;
#196 = VECTOR ( 'NONE', #87, 39.37007874015748143 ) ;
#197 = AXIS2_PLACEMENT_3D ( 'NONE', #76, #173, #152 ) ;
#198 =( LENGTH_UNIT ( ) NAMED_UNIT ( * ) SI_UNIT ( $, .METRE. ) );
#199 = ORIENTED_EDGE ( 'NONE', *, *, #209, .F. ) ;
#200 = ADVANCED_FACE ( 'NONE', ( #56 ), #272, .T. ) ;
#201 = ORIENTED_EDGE ( 'NONE', *, *, #275, .T. ) ;
#202 = DIRECTION ( 'NONE',  ( 0.0000000000000000000, 0.0000000000000000000, 1.000000000000000000 ) ) ;
#203 = CIRCLE ( 'NONE', #58, 0.1249500000000001027 ) ;
#204 = LINE ( 'NONE', #5, #244 ) ;
#205 = DIRECTION ( 'NONE',  ( -1.000000000000000000, 0.0000000000000000000, 0.0000000000000000000 ) ) ;
#206 = ORIENTED_EDGE ( 'NONE', *, *, #209, .T. ) ;
#207 = UNCERTAINTY_MEASURE_WITH_UNIT (LENGTH_MEASURE( 1.000000000000000082E-05 ), #95, 'distance_accuracy_value', 'NONE');
#208 = DIRECTION ( 'NONE',  ( -1.000000000000000000, 0.0000000000000000000, 0.0000000000000000000 ) ) ;
#209 = EDGE_CURVE ( 'NONE', #228, #142, #110, .T. ) ;
#210 = LENGTH_MEASURE_WITH_UNIT ( LENGTH_MEASURE( 0.02539999999999999897 ), #235 );
#211 = FACE_OUTER_BOUND ( 'NONE', #91, .T. ) ;
#212 = APPLICATION_PROTOCOL_DEFINITION ( 'draft international standard', 'automotive_design', 1998, #227 ) ;
#213 = CIRCLE ( 'NONE', #325, 0.007499999999999999722 ) ;
#214 = ORIENTED_EDGE ( 'NONE', *, *, #65, .T. ) ;
#215 = CARTESIAN_POINT ( 'NONE',  ( -0.007499999999999999722, 9.184850993605147975E-19, 1.707404996040164512E-17 ) ) ;
#216 = ADVANCED_FACE ( 'NONE', ( #291, #60 ), #184, .T. ) ;
#217 = CIRCLE ( 'NONE', #136, 0.1249500000000000194 ) ;
#218 = ORIENTED_EDGE ( 'NONE', *, *, #143, .F. ) ;
#219 = ADVANCED_FACE ( 'NONE', ( #13 ), #10, .T. ) ;
#220 = CYLINDRICAL_SURFACE ( 'NONE', #322, 0.1250000000000000000 ) ;
#221 = ORIENTED_EDGE ( 'NONE', *, *, #97, .F. ) ;
#222 = ORIENTED_EDGE ( 'NONE', *, *, #275, .F. ) ;
#223 = DIRECTION ( 'NONE',  ( 0.7071067811865499042, 8.659560562354961208E-17, -0.7071067811865451302 ) ) ;
#224 = EDGE_LOOP ( 'NONE', ( #271, #206, #323, #221 ) ) ;
#225 = DIRECTION ( 'NONE',  ( 0.0000000000000000000, 0.0000000000000000000, 1.000000000000000000 ) ) ;
#226 = DIRECTION ( 'NONE',  ( -0.0000000000000000000, -0.0000000000000000000, -1.000000000000000000 ) ) ;
#227 = APPLICATION_CONTEXT ( 'automotive_design' ) ;
#228 = VERTEX_POINT ( 'NONE', #64 ) ;
#229 = EDGE_CURVE ( 'NONE', #63, #16, #317, .T. ) ;
#230 = CARTESIAN_POINT ( 'NONE',  ( 0.1250000000000000000, 1.530808498934191509E-17, 2.500000000000000000 ) ) ;
#231 = CARTESIAN_POINT ( 'NONE',  ( -0.1100000000000001948, 0.0000000000000000000, 2.500000000000000000 ) ) ;
#232 = DIRECTION ( 'NONE',  ( -1.000000000000000000, 0.0000000000000000000, 0.0000000000000000000 ) ) ;
#233 = DIRECTION ( 'NONE',  ( -0.0000000000000000000, -0.0000000000000000000, -1.000000000000000000 ) ) ;
#234 = CARTESIAN_POINT ( 'NONE',  ( 0.1250000000000000000, 1.530808498934191509E-17, 2.485000000000000320 ) ) ;
#235 =( LENGTH_UNIT ( ) NAMED_UNIT ( * ) SI_UNIT ( $, .METRE. ) );
#236 = DIRECTION ( 'NONE',  ( 1.000000000000000000, 0.0000000000000000000, 0.0000000000000000000 ) ) ;
#237 = PLANE ( 'NONE',  #197 ) ;
#238 =( CONVERSION_BASED_UNIT ( 'INCH', #8 ) LENGTH_UNIT ( ) NAMED_UNIT ( #171 ) );
#239 = CIRCLE ( 'NONE', #304, 0.1100000000000001948 ) ;
#240 = PRESENTATION_STYLE_ASSIGNMENT (( #316 ) ) ;
#241 =( NAMED_UNIT ( * ) PLANE_ANGLE_UNIT ( ) SI_UNIT ( $, .RADIAN. ) );
#242 = ORIENTED_EDGE ( 'NONE', *, *, #105, .T. ) ;
#243 = DIRECTION ( 'NONE',  ( -0.0000000000000000000, -0.0000000000000000000, -1.000000000000000000 ) ) ;
#244 = VECTOR ( 'NONE', #179, 39.37007874015748143 ) ;
#245 = ORIENTED_EDGE ( 'NONE', *, *, #21, .F. ) ;
#246 = ORIENTED_EDGE ( 'NONE', *, *, #21, .T. ) ;
#247 = ORIENTED_EDGE ( 'NONE', *, *, #97, .T. ) ;
#248 = CARTESIAN_POINT ( 'NONE',  ( 0.0000000000000000000, 0.0000000000000000000, 2.500000000000000000 ) ) ;
#249 = CONICAL_SURFACE ( 'NONE', #61, 0.1100000000000001948, 0.7853981633974517207 ) ;
#250 = ORIENTED_EDGE ( 'NONE', *, *, #298, .T. ) ;
#251 = VECTOR ( 'NONE', #233, 39.37007874015748143 ) ;
#252 = AXIS2_PLACEMENT_3D ( 'NONE', #262, #131, #106 ) ;
#253 = DIRECTION ( 'NONE',  ( 0.0000000000000000000, 0.0000000000000000000, -1.000000000000000000 ) ) ;
#254 = CARTESIAN_POINT ( 'NONE',  ( 0.0000000000000000000, 0.0000000000000000000, 2.500000000000000000 ) ) ;
#255 = LINE ( 'NONE', #129, #89 ) ;
#256 = AXIS2_PLACEMENT_3D ( 'NONE', #101, #153, #26 ) ;
#257 = PRODUCT_RELATED_PRODUCT_CATEGORY ( 'part', '', ( #168 ) ) ;
#258 = ORIENTED_EDGE ( 'NONE', *, *, #150, .T. ) ;
#259 = APPLICATION_PROTOCOL_DEFINITION ( 'draft international standard', 'automotive_design', 1998, #47 ) ;
#260 = CARTESIAN_POINT ( 'NONE',  ( 0.0000000000000000000, 0.0000000000000000000, 0.7499999999999998890 ) ) ;
#261 = VECTOR ( 'NONE', #223, 39.37007874015748143 ) ;
#262 = CARTESIAN_POINT ( 'NONE',  ( 0.0000000000000000000, 0.0000000000000000000, 0.0000000000000000000 ) ) ;
#263 =( LENGTH_UNIT ( ) NAMED_UNIT ( * ) SI_UNIT ( $, .METRE. ) );
#264 = ADVANCED_BREP_SHAPE_REPRESENTATION ( 'Micro_DM-250-490', ( #162, #252 ), #293 ) ;
#265 = AXIS2_PLACEMENT_3D ( 'NONE', #115, #243, #270 ) ;
#266 =( NAMED_UNIT ( * ) PLANE_ANGLE_UNIT ( ) SI_UNIT ( $, .RADIAN. ) );
#267 = CARTESIAN_POINT ( 'NONE',  ( 0.0000000000000000000, 0.0000000000000000000, 0.7499999999999998890 ) ) ;
#268 = ADVANCED_FACE ( 'NONE', ( #112 ), #220, .T. ) ;
#269 = CARTESIAN_POINT ( 'NONE',  ( 0.0000000000000000000, 0.0000000000000000000, 0.7500000000000001110 ) ) ;
#270 = DIRECTION ( 'NONE',  ( -1.000000000000000000, 0.0000000000000000000, 0.0000000000000000000 ) ) ;
#271 = ORIENTED_EDGE ( 'NONE', *, *, #172, .F. ) ;
#272 = CONICAL_SURFACE ( 'NONE', #277, 0.007499999999999999722, 0.7853981633974503884 ) ;
#273 = VERTEX_POINT ( 'NONE', #43 ) ;
#274 = ORIENTED_EDGE ( 'NONE', *, *, #71, .F. ) ;
#275 = EDGE_CURVE ( 'NONE', #117, #19, #25, .T. ) ;
#276 = EDGE_LOOP ( 'NONE', ( #214, #294, #193, #245 ) ) ;
#277 = AXIS2_PLACEMENT_3D ( 'NONE', #36, #189, #135 ) ;
#278 = ORIENTED_EDGE ( 'NONE', *, *, #86, .T. ) ;
#279 = ADVANCED_FACE ( 'NONE', ( #149 ), #176, .T. ) ;
#280 = DIRECTION ( 'NONE',  ( -0.0000000000000000000, -0.0000000000000000000, -1.000000000000000000 ) ) ;
#281 = DIRECTION ( 'NONE',  ( 0.0000000000000000000, 0.0000000000000000000, -1.000000000000000000 ) ) ;
#282 = CARTESIAN_POINT ( 'NONE',  ( 0.0000000000000000000, 0.0000000000000000000, 2.485000000000000320 ) ) ;
#283 = CIRCLE ( 'NONE', #288, 0.1249500000000001027 ) ;
#284 = FACE_OUTER_BOUND ( 'NONE', #119, .T. ) ;
#285 = UNCERTAINTY_MEASURE_WITH_UNIT (LENGTH_MEASURE( 1.000000000000000082E-05 ), #238, 'distance_accuracy_value', 'NONE');
#286 = CARTESIAN_POINT ( 'NONE',  ( -0.1250000000000000000, 0.0000000000000000000, 2.485000000000000320 ) ) ;
#287 = CARTESIAN_POINT ( 'NONE',  ( 0.1249500000000001027, 0.0000000000000000000, 0.7500000000000001110 ) ) ;
#288 = AXIS2_PLACEMENT_3D ( 'NONE', #151, #123, #329 ) ;
#289 =( NAMED_UNIT ( * ) PLANE_ANGLE_UNIT ( ) SI_UNIT ( $, .RADIAN. ) );
#290 = DIRECTION ( 'NONE',  ( -0.0000000000000000000, -0.0000000000000000000, -1.000000000000000000 ) ) ;
#291 = FACE_BOUND ( 'NONE', #195, .T. ) ;
#292 = CONICAL_SURFACE ( 'NONE', #46, 0.007499999999999999722, 0.7853981633974503884 ) ;
#293 =( GEOMETRIC_REPRESENTATION_CONTEXT ( 3 ) GLOBAL_UNCERTAINTY_ASSIGNED_CONTEXT ( ( #207 ) ) GLOBAL_UNIT_ASSIGNED_CONTEXT ( ( #95, #241, #84 ) ) REPRESENTATION_CONTEXT ( 'NONE', 'WORKASPACE' ) );
#294 = ORIENTED_EDGE ( 'NONE', *, *, #9, .T. ) ;
#295 = ORIENTED_EDGE ( 'NONE', *, *, #105, .F. ) ;
#296 = ORIENTED_EDGE ( 'NONE', *, *, #37, .F. ) ;
#297 = EDGE_LOOP ( 'NONE', ( #69, #300, #48, #218 ) ) ;
#298 = EDGE_CURVE ( 'NONE', #273, #16, #191, .T. ) ;
#299 = CARTESIAN_POINT ( 'NONE',  ( 0.0000000000000000000, 0.0000000000000000000, 2.500000000000000000 ) ) ;
#300 = ORIENTED_EDGE ( 'NONE', *, *, #303, .F. ) ;
#301 = DIRECTION ( 'NONE',  ( -0.0000000000000000000, -0.0000000000000000000, -1.000000000000000000 ) ) ;
#302 = ORIENTED_EDGE ( 'NONE', *, *, #86, .F. ) ;
#303 = EDGE_CURVE ( 'NONE', #146, #273, #239, .T. ) ;
#304 = AXIS2_PLACEMENT_3D ( 'NONE', #299, #225, #236 ) ;
#305 = LINE ( 'NONE', #73, #251 ) ;
#306 = PRESENTATION_LAYER_ASSIGNMENT (  '', '', ( #109 ) ) ;
#307 = DIRECTION ( 'NONE',  ( 0.7071067811865490160, 0.0000000000000000000, 0.7071067811865460184 ) ) ;
#308 = CARTESIAN_POINT ( 'NONE',  ( 0.0000000000000000000, 0.0000000000000000000, 1.707404996040164512E-17 ) ) ;
#309 = PRESENTATION_STYLE_ASSIGNMENT (( #159 ) ) ;
#310 = DIRECTION ( 'NONE',  ( -1.000000000000000000, 0.0000000000000000000, 0.0000000000000000000 ) ) ;
#311 = CARTESIAN_POINT ( 'NONE',  ( 0.0000000000000000000, 0.0000000000000000000, 2.500000000000000000 ) ) ;
#312 = DIRECTION ( 'NONE',  ( -1.000000000000000000, 0.0000000000000000000, 0.0000000000000000000 ) ) ;
#313 = FACE_OUTER_BOUND ( 'NONE', #165, .T. ) ;
#314 = PRODUCT_CONTEXT ( 'NONE', #227, 'mechanical' ) ;
#315 = EDGE_CURVE ( 'NONE', #18, #45, #203, .T. ) ;
#316 = SURFACE_STYLE_USAGE ( .BOTH. , #35 ) ;
#317 = CIRCLE ( 'NONE', #163, 0.1250000000000000000 ) ;
#318 =( CONVERSION_BASED_UNIT ( 'INCH', #210 ) LENGTH_UNIT ( ) NAMED_UNIT ( #51 ) );
#319 = DIRECTION ( 'NONE',  ( 1.000000000000000000, 0.0000000000000000000, -0.0000000000000000000 ) ) ;
#320 = FACE_OUTER_BOUND ( 'NONE', #276, .T. ) ;
#321 = ORIENTED_EDGE ( 'NONE', *, *, #9, .F. ) ;
#322 = AXIS2_PLACEMENT_3D ( 'NONE', #248, #90, #141 ) ;
#323 = ORIENTED_EDGE ( 'NONE', *, *, #17, .T. ) ;
#324 = ORIENTED_EDGE ( 'NONE', *, *, #71, .T. ) ;
#325 = AXIS2_PLACEMENT_3D ( 'NONE', #128, #127, #310 ) ;
#326 = DIRECTION ( 'NONE',  ( -1.000000000000000000, 0.0000000000000000000, 0.0000000000000000000 ) ) ;
#327 = ORIENTED_EDGE ( 'NONE', *, *, #143, .T. ) ;
#328 = ADVANCED_FACE ( 'NONE', ( #313 ), #237, .F. ) ;
#329 = DIRECTION ( 'NONE',  ( -1.000000000000000000, 0.0000000000000000000, 0.0000000000000000000 ) ) ;
ENDSEC;
END-ISO-10303-21;
