ISO-10303-21;
HEADER;
FILE_DESCRIPTION (( 'STEP AP214' ),
    '1' );
FILE_NAME ('Micro_KC-125-190-040.STEP',
    '2021-09-03T19:07:45',
    ( '' ),
    ( '' ),
    'SwSTEP 2.0',
    'SolidWorks 2020',
    '' );
FILE_SCHEMA (( 'AUTOMOTIVE_DESIGN' ));
ENDSEC;

DATA;
#1 = CARTESIAN_POINT ( 'NONE',  ( 0.06250000000000000000, 0.0000000000000000000, 0.04000000000000000083 ) ) ;
#2 = ORIENTED_EDGE ( 'NONE', *, *, #252, .F. ) ;
#3 = AXIS2_PLACEMENT_3D ( 'NONE', #208, #348, #202 ) ;
#4 = CARTESIAN_POINT ( 'NONE',  ( 0.0000000000000000000, 0.0000000000000000000, 0.0000000000000000000 ) ) ;
#5 = ORIENTED_EDGE ( 'NONE', *, *, #173, .T. ) ;
#6 = LENGTH_MEASURE_WITH_UNIT ( LENGTH_MEASURE( 0.02539999999999999897 ), #39 );
#7 = CYLINDRICAL_SURFACE ( 'NONE', #290, 0.03100000000000000672 ) ;
#8 = FACE_OUTER_BOUND ( 'NONE', #31, .T. ) ;
#9 = DIRECTION ( 'NONE',  ( -0.0000000000000000000, -0.0000000000000000000, -1.000000000000000000 ) ) ;
#10 = VERTEX_POINT ( 'NONE', #201 ) ;
#11 =( GEOMETRIC_REPRESENTATION_CONTEXT ( 3 ) GLOBAL_UNCERTAINTY_ASSIGNED_CONTEXT ( ( #142 ) ) GLOBAL_UNIT_ASSIGNED_CONTEXT ( ( #281, #362, #132 ) ) REPRESENTATION_CONTEXT ( 'NONE', 'WORKASPACE' ) );
#12 = LINE ( 'NONE', #194, #172 ) ;
#13 = ADVANCED_FACE ( 'NONE', ( #171 ), #345, .T. ) ;
#14 = FACE_OUTER_BOUND ( 'NONE', #340, .T. ) ;
#15 = UNCERTAINTY_MEASURE_WITH_UNIT (LENGTH_MEASURE( 1.000000000000000082E-05 ), #196, 'distance_accuracy_value', 'NONE');
#16 = STYLED_ITEM ( 'NONE', ( #94 ), #67 ) ;
#17 = LINE ( 'NONE', #255, #175 ) ;
#18 = VECTOR ( 'NONE', #211, 39.37007874015748143 ) ;
#19 = PRESENTATION_LAYER_ASSIGNMENT (  '', '', ( #258 ) ) ;
#20 = ORIENTED_EDGE ( 'NONE', *, *, #151, .T. ) ;
#21 = ORIENTED_EDGE ( 'NONE', *, *, #120, .F. ) ;
#22 = DIMENSIONAL_EXPONENTS ( 1.000000000000000000, 0.0000000000000000000, 0.0000000000000000000, 0.0000000000000000000, 0.0000000000000000000, 0.0000000000000000000, 0.0000000000000000000 ) ;
#23 =( NAMED_UNIT ( * ) PLANE_ANGLE_UNIT ( ) SI_UNIT ( $, .RADIAN. ) );
#24 = CIRCLE ( 'NONE', #170, 0.03100000000000000325 ) ;
#25 = CARTESIAN_POINT ( 'NONE',  ( -0.03100000000000000325, 0.0000000000000000000, 0.04000000000000000083 ) ) ;
#26 = EDGE_CURVE ( 'NONE', #242, #307, #12, .T. ) ;
#27 = DIRECTION ( 'NONE',  ( -0.0000000000000000000, -0.0000000000000000000, -1.000000000000000000 ) ) ;
#28 = CARTESIAN_POINT ( 'NONE',  ( 0.04750000000000064587, 6.735557395310482421E-18, 1.500000000000000222 ) ) ;
#29 = DIRECTION ( 'NONE',  ( 0.0000000000000000000, 0.0000000000000000000, 1.000000000000000000 ) ) ;
#30 = DIRECTION ( 'NONE',  ( 1.000000000000000000, 0.0000000000000000000, 0.0000000000000000000 ) ) ;
#31 = EDGE_LOOP ( 'NONE', ( #214, #133 ) ) ;
#32 = EDGE_CURVE ( 'NONE', #229, #225, #17, .T. ) ;
#33 = CYLINDRICAL_SURFACE ( 'NONE', #266, 0.06250000000000000000 ) ;
#34 = AXIS2_PLACEMENT_3D ( 'NONE', #145, #292, #204 ) ;
#35 = DIRECTION ( 'NONE',  ( 0.7071067811865456854, 8.659560562354911904E-17, -0.7071067811865493491 ) ) ;
#36 = EDGE_LOOP ( 'NONE', ( #187, #278, #248, #101 ) ) ;
#37 = CARTESIAN_POINT ( 'NONE',  ( 0.0000000000000000000, 0.0000000000000000000, 0.04000000000000000083 ) ) ;
#38 = VERTEX_POINT ( 'NONE', #308 ) ;
#39 =( LENGTH_UNIT ( ) NAMED_UNIT ( * ) SI_UNIT ( $, .METRE. ) );
#40 = DIRECTION ( 'NONE',  ( -1.000000000000000000, 0.0000000000000000000, 0.0000000000000000000 ) ) ;
#41 =( NAMED_UNIT ( * ) PLANE_ANGLE_UNIT ( ) SI_UNIT ( $, .RADIAN. ) );
#42 = ORIENTED_EDGE ( 'NONE', *, *, #304, .T. ) ;
#43 =( GEOMETRIC_REPRESENTATION_CONTEXT ( 3 ) GLOBAL_UNCERTAINTY_ASSIGNED_CONTEXT ( ( #15 ) ) GLOBAL_UNIT_ASSIGNED_CONTEXT ( ( #196, #41, #80 ) ) REPRESENTATION_CONTEXT ( 'NONE', 'WORKASPACE' ) );
#44 = ORIENTED_EDGE ( 'NONE', *, *, #66, .T. ) ;
#45 = ADVANCED_FACE ( 'NONE', ( #14 ), #184, .T. ) ;
#46 = CLOSED_SHELL ( 'NONE', ( #264, #369, #13, #195, #373, #360, #87, #319, #45, #329, #276, #289, #53 ) ) ;
#47 = ORIENTED_EDGE ( 'NONE', *, *, #198, .T. ) ;
#48 = CONICAL_SURFACE ( 'NONE', #34, 0.04750000000000064587, 0.7853981633974457255 ) ;
#49 = EDGE_LOOP ( 'NONE', ( #73, #20, #131, #251 ) ) ;
#50 = VERTEX_POINT ( 'NONE', #203 ) ;
#51 = PRESENTATION_LAYER_ASSIGNMENT (  '', '', ( #16 ) ) ;
#52 = DIRECTION ( 'NONE',  ( -0.0000000000000000000, -0.0000000000000000000, -1.000000000000000000 ) ) ;
#53 = ADVANCED_FACE ( 'NONE', ( #144 ), #149, .T. ) ;
#54 = AXIS2_PLACEMENT_3D ( 'NONE', #1, #190, #128 ) ;
#55 = CARTESIAN_POINT ( 'NONE',  ( -0.03100000000000000672, 0.0000000000000000000, 0.0000000000000000000 ) ) ;
#56 = LINE ( 'NONE', #174, #272 ) ;
#57 = DIRECTION ( 'NONE',  ( -0.0000000000000000000, -0.0000000000000000000, -1.000000000000000000 ) ) ;
#58 = DIRECTION ( 'NONE',  ( 1.000000000000000000, 0.0000000000000000000, 0.0000000000000000000 ) ) ;
#59 = EDGE_CURVE ( 'NONE', #307, #81, #125, .T. ) ;
#60 = FACE_OUTER_BOUND ( 'NONE', #217, .T. ) ;
#61 = FILL_AREA_STYLE_COLOUR ( '', #68 ) ;
#62 = DIRECTION ( 'NONE',  ( -0.0000000000000000000, -0.0000000000000000000, -1.000000000000000000 ) ) ;
#63 = FILL_AREA_STYLE ('',( #61 ) ) ;
#64 = PRODUCT_DEFINITION_SHAPE ( 'NONE', 'NONE',  #163 ) ;
#65 = DIRECTION ( 'NONE',  ( -1.000000000000000000, 0.0000000000000000000, 0.0000000000000000000 ) ) ;
#66 = EDGE_CURVE ( 'NONE', #223, #335, #183, .T. ) ;
#67 = MANIFOLD_SOLID_BREP ( 'Cut-Revolve1', #46 ) ;
#68 = COLOUR_RGB ( '',0.7921568627450980005, 0.8196078431372548767, 0.9333333333333333481 ) ;
#69 = DIRECTION ( 'NONE',  ( 1.000000000000000000, 0.0000000000000000000, 0.0000000000000000000 ) ) ;
#70 = FACE_OUTER_BOUND ( 'NONE', #112, .T. ) ;
#71 = EDGE_CURVE ( 'NONE', #10, #81, #374, .T. ) ;
#72 = LINE ( 'NONE', #215, #370 ) ;
#73 = ORIENTED_EDGE ( 'NONE', *, *, #32, .F. ) ;
#74 = SURFACE_STYLE_USAGE ( .BOTH. , #334 ) ;
#75 = ORIENTED_EDGE ( 'NONE', *, *, #231, .F. ) ;
#76 = LENGTH_MEASURE_WITH_UNIT ( LENGTH_MEASURE( 0.02539999999999999897 ), #166 );
#77 = ORIENTED_EDGE ( 'NONE', *, *, #350, .T. ) ;
#78 = ORIENTED_EDGE ( 'NONE', *, *, #304, .F. ) ;
#79 = DIMENSIONAL_EXPONENTS ( 1.000000000000000000, 0.0000000000000000000, 0.0000000000000000000, 0.0000000000000000000, 0.0000000000000000000, 0.0000000000000000000, 0.0000000000000000000 ) ;
#80 =( NAMED_UNIT ( * ) SI_UNIT ( $, .STERADIAN. ) SOLID_ANGLE_UNIT ( ) );
#81 = VERTEX_POINT ( 'NONE', #25 ) ;
#82 = PRODUCT_DEFINITION_FORMATION_WITH_SPECIFIED_SOURCE ( 'ANY', '', #273, .NOT_KNOWN. ) ;
#83 = AXIS2_PLACEMENT_3D ( 'NONE', #140, #287, #111 ) ;
#84 = EDGE_CURVE ( 'NONE', #242, #50, #90, .T. ) ;
#85 = DIRECTION ( 'NONE',  ( -1.000000000000000000, 0.0000000000000000000, 0.0000000000000000000 ) ) ;
#86 = AXIS2_PLACEMENT_3D ( 'NONE', #333, #110, #113 ) ;
#87 = ADVANCED_FACE ( 'NONE', ( #293 ), #318, .T. ) ;
#88 = CARTESIAN_POINT ( 'NONE',  ( 0.0000000000000000000, 0.0000000000000000000, 1.500000000000000222 ) ) ;
#89 = CIRCLE ( 'NONE', #315, 0.04750000000000064587 ) ;
#90 = LINE ( 'NONE', #232, #246 ) ;
#91 = DIRECTION ( 'NONE',  ( -0.0000000000000000000, -0.0000000000000000000, -1.000000000000000000 ) ) ;
#92 =( CONVERSION_BASED_UNIT ( 'INCH', #6 ) LENGTH_UNIT ( ) NAMED_UNIT ( #79 ) );
#93 = LINE ( 'NONE', #116, #18 ) ;
#94 = PRESENTATION_STYLE_ASSIGNMENT (( #299 ) ) ;
#95 = EDGE_LOOP ( 'NONE', ( #337, #300, #366, #354 ) ) ;
#96 = FACE_OUTER_BOUND ( 'NONE', #192, .T. ) ;
#97 = ORIENTED_EDGE ( 'NONE', *, *, #350, .F. ) ;
#98 = CYLINDRICAL_SURFACE ( 'NONE', #322, 0.06250000000000000000 ) ;
#99 = AXIS2_PLACEMENT_3D ( 'NONE', #88, #206, #317 ) ;
#100 = PLANE ( 'NONE',  #254 ) ;
#101 = ORIENTED_EDGE ( 'NONE', *, *, #155, .F. ) ;
#102 = DIRECTION ( 'NONE',  ( -0.0000000000000000000, -0.0000000000000000000, -1.000000000000000000 ) ) ;
#103 = ORIENTED_EDGE ( 'NONE', *, *, #173, .F. ) ;
#104 =( NAMED_UNIT ( * ) SI_UNIT ( $, .STERADIAN. ) SOLID_ANGLE_UNIT ( ) );
#105 = ORIENTED_EDGE ( 'NONE', *, *, #181, .F. ) ;
#106 = SHAPE_DEFINITION_REPRESENTATION ( #64, #249 ) ;
#107 = ORIENTED_EDGE ( 'NONE', *, *, #301, .T. ) ;
#108 = AXIS2_PLACEMENT_3D ( 'NONE', #325, #180, #69 ) ;
#109 = SURFACE_STYLE_FILL_AREA ( #135 ) ;
#110 = DIRECTION ( 'NONE',  ( 0.0000000000000000000, 0.0000000000000000000, 1.000000000000000000 ) ) ;
#111 = DIRECTION ( 'NONE',  ( 1.000000000000000000, 0.0000000000000000000, 0.0000000000000000000 ) ) ;
#112 = EDGE_LOOP ( 'NONE', ( #256, #303, #356, #368 ) ) ;
#113 = DIRECTION ( 'NONE',  ( 1.000000000000000000, 0.0000000000000000000, 0.0000000000000000000 ) ) ;
#114 = PRODUCT_CONTEXT ( 'NONE', #244, 'mechanical' ) ;
#115 = CARTESIAN_POINT ( 'NONE',  ( 0.0000000000000000000, 0.0000000000000000000, 0.04000000000000000083 ) ) ;
#116 = CARTESIAN_POINT ( 'NONE',  ( -0.03100000000000001713, 3.796405077356796551E-18, 0.1899999999999999745 ) ) ;
#117 = AXIS2_PLACEMENT_3D ( 'NONE', #321, #27, #371 ) ;
#118 = DIRECTION ( 'NONE',  ( 1.000000000000000000, 0.0000000000000000000, -0.0000000000000000000 ) ) ;
#119 = CARTESIAN_POINT ( 'NONE',  ( 0.0000000000000000000, 0.0000000000000000000, 1.500000000000000222 ) ) ;
#120 = EDGE_CURVE ( 'NONE', #165, #50, #56, .T. ) ;
#121 = CARTESIAN_POINT ( 'NONE',  ( -0.04750000000000064587, 0.0000000000000000000, 1.500000000000000222 ) ) ;
#122 = FACE_OUTER_BOUND ( 'NONE', #95, .T. ) ;
#123 = ORIENTED_EDGE ( 'NONE', *, *, #84, .T. ) ;
#124 = AXIS2_PLACEMENT_3D ( 'NONE', #219, #222, #58 ) ;
#125 = CIRCLE ( 'NONE', #207, 0.03100000000000000325 ) ;
#126 = DIRECTION ( 'NONE',  ( -0.0000000000000000000, -0.0000000000000000000, -1.000000000000000000 ) ) ;
#127 = PLANE ( 'NONE',  #54 ) ;
#128 = DIRECTION ( 'NONE',  ( 1.000000000000000000, 0.0000000000000000000, -0.0000000000000000000 ) ) ;
#129 = DIRECTION ( 'NONE',  ( -0.0000000000000000000, -0.0000000000000000000, -1.000000000000000000 ) ) ;
#130 = APPLICATION_PROTOCOL_DEFINITION ( 'draft international standard', 'automotive_design', 1998, #244 ) ;
#131 = ORIENTED_EDGE ( 'NONE', *, *, #231, .T. ) ;
#132 =( NAMED_UNIT ( * ) SI_UNIT ( $, .STERADIAN. ) SOLID_ANGLE_UNIT ( ) );
#133 = ORIENTED_EDGE ( 'NONE', *, *, #151, .F. ) ;
#134 = CIRCLE ( 'NONE', #117, 0.06250000000000000000 ) ;
#135 = FILL_AREA_STYLE ('',( #224 ) ) ;
#136 = DIRECTION ( 'NONE',  ( -0.0000000000000000000, -0.0000000000000000000, -1.000000000000000000 ) ) ;
#137 = CIRCLE ( 'NONE', #365, 0.06250000000000000000 ) ;
#138 = ORIENTED_EDGE ( 'NONE', *, *, #338, .T. ) ;
#139 = EDGE_LOOP ( 'NONE', ( #221, #197 ) ) ;
#140 = CARTESIAN_POINT ( 'NONE',  ( 0.0000000000000000000, 0.0000000000000000000, 0.0000000000000000000 ) ) ;
#141 = EDGE_CURVE ( 'NONE', #230, #225, #200, .T. ) ;
#142 = UNCERTAINTY_MEASURE_WITH_UNIT (LENGTH_MEASURE( 1.000000000000000082E-05 ), #281, 'distance_accuracy_value', 'NONE');
#143 = DIRECTION ( 'NONE',  ( -0.7071067811865456854, 0.0000000000000000000, -0.7071067811865493491 ) ) ;
#144 = FACE_OUTER_BOUND ( 'NONE', #49, .T. ) ;
#145 = CARTESIAN_POINT ( 'NONE',  ( 0.0000000000000000000, 0.0000000000000000000, 1.500000000000000222 ) ) ;
#146 =( GEOMETRIC_REPRESENTATION_CONTEXT ( 3 ) GLOBAL_UNCERTAINTY_ASSIGNED_CONTEXT ( ( #159 ) ) GLOBAL_UNIT_ASSIGNED_CONTEXT ( ( #92, #23, #104 ) ) REPRESENTATION_CONTEXT ( 'NONE', 'WORKASPACE' ) );
#147 = DIRECTION ( 'NONE',  ( 1.000000000000000000, 0.0000000000000000000, 0.0000000000000000000 ) ) ;
#148 = CARTESIAN_POINT ( 'NONE',  ( 0.06250000000000000000, 7.654042494670956004E-18, 0.0000000000000000000 ) ) ;
#149 = CYLINDRICAL_SURFACE ( 'NONE', #3, 0.06250000000000000000 ) ;
#150 = FACE_OUTER_BOUND ( 'NONE', #139, .T. ) ;
#151 = EDGE_CURVE ( 'NONE', #229, #38, #298, .T. ) ;
#152 = CARTESIAN_POINT ( 'NONE',  ( 0.03100000000000000325, 3.796405077356795010E-18, 0.04000000000000000083 ) ) ;
#153 = EDGE_LOOP ( 'NONE', ( #21, #169, #77, #103 ) ) ;
#154 = CIRCLE ( 'NONE', #108, 0.06250000000000000000 ) ;
#155 = EDGE_CURVE ( 'NONE', #165, #158, #137, .T. ) ;
#156 = DIRECTION ( 'NONE',  ( -0.0000000000000000000, -0.0000000000000000000, -1.000000000000000000 ) ) ;
#157 = DIRECTION ( 'NONE',  ( 1.000000000000000000, 0.0000000000000000000, -0.0000000000000000000 ) ) ;
#158 = VERTEX_POINT ( 'NONE', #260 ) ;
#159 = UNCERTAINTY_MEASURE_WITH_UNIT (LENGTH_MEASURE( 1.000000000000000082E-05 ), #92, 'distance_accuracy_value', 'NONE');
#160 = CARTESIAN_POINT ( 'NONE',  ( 0.0000000000000000000, 0.0000000000000000000, 1.500000000000000222 ) ) ;
#161 = ORIENTED_EDGE ( 'NONE', *, *, #338, .F. ) ;
#162 = FACE_OUTER_BOUND ( 'NONE', #153, .T. ) ;
#163 = PRODUCT_DEFINITION ( 'UNKNOWN', '', #82, #279 ) ;
#164 = ORIENTED_EDGE ( 'NONE', *, *, #66, .F. ) ;
#165 = VERTEX_POINT ( 'NONE', #178 ) ;
#166 =( LENGTH_UNIT ( ) NAMED_UNIT ( * ) SI_UNIT ( $, .METRE. ) );
#167 = DIRECTION ( 'NONE',  ( 0.0000000000000000000, 0.0000000000000000000, 1.000000000000000000 ) ) ;
#168 = CIRCLE ( 'NONE', #326, 0.06250000000000000000 ) ;
#169 = ORIENTED_EDGE ( 'NONE', *, *, #155, .T. ) ;
#170 = AXIS2_PLACEMENT_3D ( 'NONE', #353, #9, #355 ) ;
#171 = FACE_OUTER_BOUND ( 'NONE', #309, .T. ) ;
#172 = VECTOR ( 'NONE', #136, 39.37007874015748143 ) ;
#173 = EDGE_CURVE ( 'NONE', #50, #367, #134, .T. ) ;
#174 = CARTESIAN_POINT ( 'NONE',  ( 0.06250000000000000000, 7.654042494670956004E-18, 1.500000000000000222 ) ) ;
#175 = VECTOR ( 'NONE', #288, 39.37007874015748143 ) ;
#176 = FACE_BOUND ( 'NONE', #312, .T. ) ;
#177 = DIRECTION ( 'NONE',  ( 1.000000000000000000, 0.0000000000000000000, 0.0000000000000000000 ) ) ;
#178 = CARTESIAN_POINT ( 'NONE',  ( 0.06250000000000000000, 7.654042494670956004E-18, 1.485000000000000764 ) ) ;
#179 = ORIENTED_EDGE ( 'NONE', *, *, #339, .T. ) ;
#180 = DIRECTION ( 'NONE',  ( -0.0000000000000000000, -0.0000000000000000000, -1.000000000000000000 ) ) ;
#181 = EDGE_CURVE ( 'NONE', #10, #242, #344, .T. ) ;
#182 = DIRECTION ( 'NONE',  ( -0.0000000000000000000, -0.0000000000000000000, -1.000000000000000000 ) ) ;
#183 = CIRCLE ( 'NONE', #124, 0.04750000000000064587 ) ;
#184 = CONICAL_SURFACE ( 'NONE', #86, 0.03100000000000001713, 0.7853981633974502774 ) ;
#185 = SURFACE_STYLE_FILL_AREA ( #63 ) ;
#186 = DIRECTION ( 'NONE',  ( 1.000000000000000000, 0.0000000000000000000, 0.0000000000000000000 ) ) ;
#187 = ORIENTED_EDGE ( 'NONE', *, *, #379, .F. ) ;
#188 = VECTOR ( 'NONE', #35, 39.37007874015748143 ) ;
#189 = SURFACE_SIDE_STYLE ('',( #185 ) ) ;
#190 = DIRECTION ( 'NONE',  ( 0.0000000000000000000, 0.0000000000000000000, 1.000000000000000000 ) ) ;
#191 = DIRECTION ( 'NONE',  ( -1.000000000000000000, 0.0000000000000000000, 0.0000000000000000000 ) ) ;
#192 = EDGE_LOOP ( 'NONE', ( #42, #271, #161, #97 ) ) ;
#193 = PRESENTATION_STYLE_ASSIGNMENT (( #74 ) ) ;
#194 = CARTESIAN_POINT ( 'NONE',  ( 0.03100000000000000672, 3.796405077356795780E-18, 0.0000000000000000000 ) ) ;
#195 = ADVANCED_FACE ( 'NONE', ( #342 ), #48, .T. ) ;
#196 =( CONVERSION_BASED_UNIT ( 'INCH', #76 ) LENGTH_UNIT ( ) NAMED_UNIT ( #228 ) );
#197 = ORIENTED_EDGE ( 'NONE', *, *, #198, .F. ) ;
#198 = EDGE_CURVE ( 'NONE', #225, #230, #168, .T. ) ;
#199 = EDGE_LOOP ( 'NONE', ( #107, #44 ) ) ;
#200 = CIRCLE ( 'NONE', #227, 0.06250000000000000000 ) ;
#201 = CARTESIAN_POINT ( 'NONE',  ( -0.03100000000000001713, 5.725223786013877433E-18, 0.1899999999999999745 ) ) ;
#202 = DIRECTION ( 'NONE',  ( -1.000000000000000000, 0.0000000000000000000, 0.0000000000000000000 ) ) ;
#203 = CARTESIAN_POINT ( 'NONE',  ( 0.06250000000000000000, 7.654042494670956004E-18, 0.2214999999999998359 ) ) ;
#204 = DIRECTION ( 'NONE',  ( -1.000000000000000000, 0.0000000000000000000, 0.0000000000000000000 ) ) ;
#205 = VECTOR ( 'NONE', #143, 39.37007874015748143 ) ;
#206 = DIRECTION ( 'NONE',  ( -0.0000000000000000000, -0.0000000000000000000, -1.000000000000000000 ) ) ;
#207 = AXIS2_PLACEMENT_3D ( 'NONE', #376, #156, #358 ) ;
#208 = CARTESIAN_POINT ( 'NONE',  ( 0.0000000000000000000, 0.0000000000000000000, 1.500000000000000222 ) ) ;
#209 = CARTESIAN_POINT ( 'NONE',  ( 0.0000000000000000000, 0.0000000000000000000, 0.1899999999999999745 ) ) ;
#210 = CARTESIAN_POINT ( 'NONE',  ( 0.0000000000000000000, 0.0000000000000000000, 0.0000000000000000000 ) ) ;
#211 = DIRECTION ( 'NONE',  ( -0.7071067811865489050, 8.659560562354950115E-17, 0.7071067811865461294 ) ) ;
#212 = AXIS2_PLACEMENT_3D ( 'NONE', #37, #182, #191 ) ;
#213 =( LENGTH_UNIT ( ) NAMED_UNIT ( * ) SI_UNIT ( $, .METRE. ) );
#214 = ORIENTED_EDGE ( 'NONE', *, *, #364, .F. ) ;
#215 = CARTESIAN_POINT ( 'NONE',  ( -0.06250000000000000000, 0.0000000000000000000, 1.500000000000000222 ) ) ;
#216 = CARTESIAN_POINT ( 'NONE',  ( 0.0000000000000000000, 0.0000000000000000000, 0.0000000000000000000 ) ) ;
#217 = EDGE_LOOP ( 'NONE', ( #286, #363, #47, #75 ) ) ;
#218 = CIRCLE ( 'NONE', #346, 0.06250000000000000000 ) ;
#219 = CARTESIAN_POINT ( 'NONE',  ( 0.0000000000000000000, 0.0000000000000000000, 1.500000000000000222 ) ) ;
#220 = DIRECTION ( 'NONE',  ( -0.0000000000000000000, -0.0000000000000000000, -1.000000000000000000 ) ) ;
#221 = ORIENTED_EDGE ( 'NONE', *, *, #141, .F. ) ;
#222 = DIRECTION ( 'NONE',  ( 0.0000000000000000000, 0.0000000000000000000, 1.000000000000000000 ) ) ;
#223 = VERTEX_POINT ( 'NONE', #28 ) ;
#224 = FILL_AREA_STYLE_COLOUR ( '', #328 ) ;
#225 = VERTEX_POINT ( 'NONE', #148 ) ;
#226 = CONICAL_SURFACE ( 'NONE', #311, 0.04750000000000064587, 0.7853981633974457255 ) ;
#227 = AXIS2_PLACEMENT_3D ( 'NONE', #210, #314, #177 ) ;
#228 = DIMENSIONAL_EXPONENTS ( 1.000000000000000000, 0.0000000000000000000, 0.0000000000000000000, 0.0000000000000000000, 0.0000000000000000000, 0.0000000000000000000, 0.0000000000000000000 ) ;
#229 = VERTEX_POINT ( 'NONE', #267 ) ;
#230 = VERTEX_POINT ( 'NONE', #378 ) ;
#231 = EDGE_CURVE ( 'NONE', #38, #230, #239, .T. ) ;
#232 = CARTESIAN_POINT ( 'NONE',  ( 0.03100000000000001713, 0.0000000000000000000, 0.1899999999999999745 ) ) ;
#233 = EDGE_CURVE ( 'NONE', #335, #158, #372, .T. ) ;
#234 = CYLINDRICAL_SURFACE ( 'NONE', #99, 0.06250000000000000000 ) ;
#235 = AXIS2_PLACEMENT_3D ( 'NONE', #209, #296, #85 ) ;
#236 = PRODUCT_RELATED_PRODUCT_CATEGORY ( 'part', '', ( #273 ) ) ;
#237 = DIRECTION ( 'NONE',  ( -1.000000000000000000, 0.0000000000000000000, 0.0000000000000000000 ) ) ;
#238 = DIRECTION ( 'NONE',  ( -0.0000000000000000000, -0.0000000000000000000, -1.000000000000000000 ) ) ;
#239 = LINE ( 'NONE', #263, #291 ) ;
#240 = CARTESIAN_POINT ( 'NONE',  ( 0.0000000000000000000, 0.0000000000000000000, 1.500000000000000222 ) ) ;
#241 = DIRECTION ( 'NONE',  ( 0.0000000000000000000, 0.0000000000000000000, -1.000000000000000000 ) ) ;
#242 = VERTEX_POINT ( 'NONE', #261 ) ;
#243 = DIRECTION ( 'NONE',  ( 0.0000000000000000000, 0.0000000000000000000, 1.000000000000000000 ) ) ;
#244 = APPLICATION_CONTEXT ( 'automotive_design' ) ;
#245 = CARTESIAN_POINT ( 'NONE',  ( 0.0000000000000000000, 0.0000000000000000000, 1.500000000000000222 ) ) ;
#246 = VECTOR ( 'NONE', #343, 39.37007874015748143 ) ;
#247 = LINE ( 'NONE', #297, #188 ) ;
#248 = ORIENTED_EDGE ( 'NONE', *, *, #233, .T. ) ;
#249 = ADVANCED_BREP_SHAPE_REPRESENTATION ( 'Micro_KC-125-190-040', ( #67, #83 ), #11 ) ;
#250 = LENGTH_MEASURE_WITH_UNIT ( LENGTH_MEASURE( 0.02539999999999999897 ), #213 );
#251 = ORIENTED_EDGE ( 'NONE', *, *, #141, .T. ) ;
#252 = EDGE_CURVE ( 'NONE', #242, #10, #375, .T. ) ;
#253 = AXIS2_PLACEMENT_3D ( 'NONE', #351, #347, #377 ) ;
#254 = AXIS2_PLACEMENT_3D ( 'NONE', #216, #243, #157 ) ;
#255 = CARTESIAN_POINT ( 'NONE',  ( 0.06250000000000000000, 7.654042494670956004E-18, 1.500000000000000222 ) ) ;
#256 = ORIENTED_EDGE ( 'NONE', *, *, #181, .T. ) ;
#257 = ORIENTED_EDGE ( 'NONE', *, *, #233, .F. ) ;
#258 = STYLED_ITEM ( 'NONE', ( #193 ), #249 ) ;
#259 = EDGE_CURVE ( 'NONE', #10, #367, #93, .T. ) ;
#260 = CARTESIAN_POINT ( 'NONE',  ( -0.06250000000000000000, 0.0000000000000000000, 1.485000000000000764 ) ) ;
#261 = CARTESIAN_POINT ( 'NONE',  ( 0.03100000000000001713, 0.0000000000000000000, 0.1899999999999999745 ) ) ;
#262 = APPLICATION_CONTEXT ( 'automotive_design' ) ;
#263 = CARTESIAN_POINT ( 'NONE',  ( -0.06250000000000000000, 0.0000000000000000000, 1.500000000000000222 ) ) ;
#264 = ADVANCED_FACE ( 'NONE', ( #60 ), #234, .T. ) ;
#265 = AXIS2_PLACEMENT_3D ( 'NONE', #302, #62, #323 ) ;
#266 = AXIS2_PLACEMENT_3D ( 'NONE', #160, #129, #65 ) ;
#267 = CARTESIAN_POINT ( 'NONE',  ( 0.06250000000000000000, 7.654042494670956004E-18, 0.04000000000000000083 ) ) ;
#268 = CARTESIAN_POINT ( 'NONE',  ( 0.0000000000000000000, 0.0000000000000000000, 1.500000000000000222 ) ) ;
#269 = ORIENTED_EDGE ( 'NONE', *, *, #379, .T. ) ;
#270 = AXIS2_PLACEMENT_3D ( 'NONE', #115, #91, #237 ) ;
#271 = ORIENTED_EDGE ( 'NONE', *, *, #120, .T. ) ;
#272 = VECTOR ( 'NONE', #57, 39.37007874015748143 ) ;
#273 = PRODUCT ( 'Micro_KC-125-190-040', 'Micro_KC-125-190-040', '', ( #114 ) ) ;
#274 = DIRECTION ( 'NONE',  ( 0.0000000000000000000, 0.0000000000000000000, 1.000000000000000000 ) ) ;
#275 = ORIENTED_EDGE ( 'NONE', *, *, #259, .T. ) ;
#276 = ADVANCED_FACE ( 'NONE', ( #176, #8 ), #127, .T. ) ;
#277 = DIRECTION ( 'NONE',  ( -1.000000000000000000, 0.0000000000000000000, 0.0000000000000000000 ) ) ;
#278 = ORIENTED_EDGE ( 'NONE', *, *, #301, .F. ) ;
#279 = PRODUCT_DEFINITION_CONTEXT ( 'detailed design', #262, 'design' ) ;
#280 = DIRECTION ( 'NONE',  ( 1.000000000000000000, 0.0000000000000000000, 0.0000000000000000000 ) ) ;
#281 =( CONVERSION_BASED_UNIT ( 'INCH', #250 ) LENGTH_UNIT ( ) NAMED_UNIT ( #22 ) );
#282 = DIRECTION ( 'NONE',  ( 1.000000000000000000, 0.0000000000000000000, 0.0000000000000000000 ) ) ;
#283 = ORIENTED_EDGE ( 'NONE', *, *, #84, .F. ) ;
#284 = CARTESIAN_POINT ( 'NONE',  ( 0.0000000000000000000, 0.0000000000000000000, 0.1899999999999999745 ) ) ;
#285 = MECHANICAL_DESIGN_GEOMETRIC_PRESENTATION_REPRESENTATION (  '', ( #16 ), #146 ) ;
#286 = ORIENTED_EDGE ( 'NONE', *, *, #364, .T. ) ;
#287 = DIRECTION ( 'NONE',  ( 0.0000000000000000000, 0.0000000000000000000, 1.000000000000000000 ) ) ;
#288 = DIRECTION ( 'NONE',  ( -0.0000000000000000000, -0.0000000000000000000, -1.000000000000000000 ) ) ;
#289 = ADVANCED_FACE ( 'NONE', ( #150 ), #100, .F. ) ;
#290 = AXIS2_PLACEMENT_3D ( 'NONE', #4, #220, #327 ) ;
#291 = VECTOR ( 'NONE', #52, 39.37007874015748143 ) ;
#292 = DIRECTION ( 'NONE',  ( 0.0000000000000000000, 0.0000000000000000000, -1.000000000000000000 ) ) ;
#293 = FACE_OUTER_BOUND ( 'NONE', #199, .T. ) ;
#294 = DIRECTION ( 'NONE',  ( 0.0000000000000000000, 0.0000000000000000000, -1.000000000000000000 ) ) ;
#295 = CARTESIAN_POINT ( 'NONE',  ( 0.0000000000000000000, 0.0000000000000000000, 0.0000000000000000000 ) ) ;
#296 = DIRECTION ( 'NONE',  ( -0.0000000000000000000, -0.0000000000000000000, -1.000000000000000000 ) ) ;
#297 = CARTESIAN_POINT ( 'NONE',  ( 0.04750000000000064587, 5.817072295950006528E-18, 1.500000000000000222 ) ) ;
#298 = CIRCLE ( 'NONE', #270, 0.06250000000000000000 ) ;
#299 = SURFACE_STYLE_USAGE ( .BOTH. , #189 ) ;
#300 = ORIENTED_EDGE ( 'NONE', *, *, #252, .T. ) ;
#301 = EDGE_CURVE ( 'NONE', #335, #223, #89, .T. ) ;
#302 = CARTESIAN_POINT ( 'NONE',  ( 0.0000000000000000000, 0.0000000000000000000, 0.0000000000000000000 ) ) ;
#303 = ORIENTED_EDGE ( 'NONE', *, *, #26, .T. ) ;
#304 = EDGE_CURVE ( 'NONE', #158, #165, #218, .T. ) ;
#305 = FACE_OUTER_BOUND ( 'NONE', #36, .T. ) ;
#306 = CARTESIAN_POINT ( 'NONE',  ( 0.0000000000000000000, 0.0000000000000000000, 1.485000000000000764 ) ) ;
#307 = VERTEX_POINT ( 'NONE', #152 ) ;
#308 = CARTESIAN_POINT ( 'NONE',  ( -0.06250000000000000000, 0.0000000000000000000, 0.04000000000000000083 ) ) ;
#309 = EDGE_LOOP ( 'NONE', ( #105, #275, #138, #283 ) ) ;
#310 = ORIENTED_EDGE ( 'NONE', *, *, #259, .F. ) ;
#311 = AXIS2_PLACEMENT_3D ( 'NONE', #268, #359, #40 ) ;
#312 = EDGE_LOOP ( 'NONE', ( #179, #331 ) ) ;
#313 = CIRCLE ( 'NONE', #212, 0.06250000000000000000 ) ;
#314 = DIRECTION ( 'NONE',  ( 0.0000000000000000000, 0.0000000000000000000, 1.000000000000000000 ) ) ;
#315 = AXIS2_PLACEMENT_3D ( 'NONE', #245, #274, #186 ) ;
#316 = VECTOR ( 'NONE', #238, 39.37007874015748143 ) ;
#317 = DIRECTION ( 'NONE',  ( -1.000000000000000000, 0.0000000000000000000, 0.0000000000000000000 ) ) ;
#318 = PLANE ( 'NONE',  #357 ) ;
#319 = ADVANCED_FACE ( 'NONE', ( #305 ), #226, .T. ) ;
#320 = CARTESIAN_POINT ( 'NONE',  ( 0.0000000000000000000, 0.0000000000000000000, 1.485000000000000764 ) ) ;
#321 = CARTESIAN_POINT ( 'NONE',  ( 0.0000000000000000000, 0.0000000000000000000, 0.2214999999999998359 ) ) ;
#322 = AXIS2_PLACEMENT_3D ( 'NONE', #240, #102, #277 ) ;
#323 = DIRECTION ( 'NONE',  ( -1.000000000000000000, 0.0000000000000000000, 0.0000000000000000000 ) ) ;
#324 = EDGE_LOOP ( 'NONE', ( #164, #269, #78, #257 ) ) ;
#325 = CARTESIAN_POINT ( 'NONE',  ( 0.0000000000000000000, 0.0000000000000000000, 0.2214999999999998359 ) ) ;
#326 = AXIS2_PLACEMENT_3D ( 'NONE', #295, #29, #147 ) ;
#327 = DIRECTION ( 'NONE',  ( -1.000000000000000000, 0.0000000000000000000, 0.0000000000000000000 ) ) ;
#328 = COLOUR_RGB ( '',0.7921568627450980005, 0.8196078431372548767, 0.9333333333333333481 ) ;
#329 = ADVANCED_FACE ( 'NONE', ( #122 ), #7, .T. ) ;
#330 = CARTESIAN_POINT ( 'NONE',  ( -0.04750000000000064587, 0.0000000000000000000, 1.500000000000000222 ) ) ;
#331 = ORIENTED_EDGE ( 'NONE', *, *, #59, .T. ) ;
#332 = CARTESIAN_POINT ( 'NONE',  ( -0.06250000000000000000, 0.0000000000000000000, 0.2214999999999998359 ) ) ;
#333 = CARTESIAN_POINT ( 'NONE',  ( 0.0000000000000000000, 0.0000000000000000000, 0.1899999999999999745 ) ) ;
#334 = SURFACE_SIDE_STYLE ('',( #109 ) ) ;
#335 = VERTEX_POINT ( 'NONE', #330 ) ;
#336 = AXIS2_PLACEMENT_3D ( 'NONE', #284, #167, #282 ) ;
#337 = ORIENTED_EDGE ( 'NONE', *, *, #26, .F. ) ;
#338 = EDGE_CURVE ( 'NONE', #367, #50, #154, .T. ) ;
#339 = EDGE_CURVE ( 'NONE', #81, #307, #24, .T. ) ;
#340 = EDGE_LOOP ( 'NONE', ( #310, #2, #123, #5 ) ) ;
#341 = APPLICATION_PROTOCOL_DEFINITION ( 'draft international standard', 'automotive_design', 1998, #262 ) ;
#342 = FACE_OUTER_BOUND ( 'NONE', #324, .T. ) ;
#343 = DIRECTION ( 'NONE',  ( 0.7071067811865489050, 0.0000000000000000000, 0.7071067811865461294 ) ) ;
#344 = CIRCLE ( 'NONE', #235, 0.03100000000000001713 ) ;
#345 = CONICAL_SURFACE ( 'NONE', #336, 0.03100000000000001713, 0.7853981633974502774 ) ;
#346 = AXIS2_PLACEMENT_3D ( 'NONE', #306, #241, #280 ) ;
#347 = DIRECTION ( 'NONE',  ( -0.0000000000000000000, -0.0000000000000000000, -1.000000000000000000 ) ) ;
#348 = DIRECTION ( 'NONE',  ( -0.0000000000000000000, -0.0000000000000000000, -1.000000000000000000 ) ) ;
#349 = DIRECTION ( 'NONE',  ( 0.0000000000000000000, 0.0000000000000000000, 1.000000000000000000 ) ) ;
#350 = EDGE_CURVE ( 'NONE', #158, #367, #72, .T. ) ;
#351 = CARTESIAN_POINT ( 'NONE',  ( 0.0000000000000000000, 0.0000000000000000000, 0.1899999999999999745 ) ) ;
#352 = CYLINDRICAL_SURFACE ( 'NONE', #265, 0.03100000000000000672 ) ;
#353 = CARTESIAN_POINT ( 'NONE',  ( 0.0000000000000000000, 0.0000000000000000000, 0.04000000000000000083 ) ) ;
#354 = ORIENTED_EDGE ( 'NONE', *, *, #59, .F. ) ;
#355 = DIRECTION ( 'NONE',  ( -1.000000000000000000, 0.0000000000000000000, 0.0000000000000000000 ) ) ;
#356 = ORIENTED_EDGE ( 'NONE', *, *, #339, .F. ) ;
#357 = AXIS2_PLACEMENT_3D ( 'NONE', #119, #349, #118 ) ;
#358 = DIRECTION ( 'NONE',  ( -1.000000000000000000, 0.0000000000000000000, 0.0000000000000000000 ) ) ;
#359 = DIRECTION ( 'NONE',  ( 0.0000000000000000000, 0.0000000000000000000, -1.000000000000000000 ) ) ;
#360 = ADVANCED_FACE ( 'NONE', ( #162 ), #98, .T. ) ;
#361 = MECHANICAL_DESIGN_GEOMETRIC_PRESENTATION_REPRESENTATION (  '', ( #258 ), #43 ) ;
#362 =( NAMED_UNIT ( * ) PLANE_ANGLE_UNIT ( ) SI_UNIT ( $, .RADIAN. ) );
#363 = ORIENTED_EDGE ( 'NONE', *, *, #32, .T. ) ;
#364 = EDGE_CURVE ( 'NONE', #38, #229, #313, .T. ) ;
#365 = AXIS2_PLACEMENT_3D ( 'NONE', #320, #294, #30 ) ;
#366 = ORIENTED_EDGE ( 'NONE', *, *, #71, .T. ) ;
#367 = VERTEX_POINT ( 'NONE', #332 ) ;
#368 = ORIENTED_EDGE ( 'NONE', *, *, #71, .F. ) ;
#369 = ADVANCED_FACE ( 'NONE', ( #70 ), #352, .T. ) ;
#370 = VECTOR ( 'NONE', #126, 39.37007874015748143 ) ;
#371 = DIRECTION ( 'NONE',  ( 1.000000000000000000, 0.0000000000000000000, 0.0000000000000000000 ) ) ;
#372 = LINE ( 'NONE', #121, #205 ) ;
#373 = ADVANCED_FACE ( 'NONE', ( #96 ), #33, .T. ) ;
#374 = LINE ( 'NONE', #55, #316 ) ;
#375 = CIRCLE ( 'NONE', #253, 0.03100000000000001713 ) ;
#376 = CARTESIAN_POINT ( 'NONE',  ( 0.0000000000000000000, 0.0000000000000000000, 0.04000000000000000083 ) ) ;
#377 = DIRECTION ( 'NONE',  ( -1.000000000000000000, 0.0000000000000000000, 0.0000000000000000000 ) ) ;
#378 = CARTESIAN_POINT ( 'NONE',  ( -0.06250000000000000000, 0.0000000000000000000, 0.0000000000000000000 ) ) ;
#379 = EDGE_CURVE ( 'NONE', #223, #165, #247, .T. ) ;
ENDSEC;
END-ISO-10303-21;
