ISO-10303-21;
HEADER;
FILE_DESCRIPTION (( 'STEP AP214' ),
    '1' );
FILE_NAME ('Micro_BMSM-003-2.STEP',
    '2021-09-03T15:23:24',
    ( '' ),
    ( '' ),
    'SwSTEP 2.0',
    'SolidWorks 2020',
    '' );
FILE_SCHEMA (( 'AUTOMOTIVE_DESIGN' ));
ENDSEC;

DATA;
#1 = CARTESIAN_POINT ( 'NONE',  ( 0.0000000000000000000, 0.0000000000000000000, 1.496062999999999921 ) ) ;
#2 = DIRECTION ( 'NONE',  ( -1.224646799147353207E-16, -0.0000000000000000000, -1.000000000000000000 ) ) ;
#3 = CARTESIAN_POINT ( 'NONE',  ( 0.0000000000000000000, 0.0000000000000000000, 1.496062999999999921 ) ) ;
#4 = APPLICATION_CONTEXT ( 'automotive_design' ) ;
#5 = CARTESIAN_POINT ( 'NONE',  ( 0.005899594500000004266, 7.224919520692334311E-19, 0.005899594499999999062 ) ) ;
#6 = DIMENSIONAL_EXPONENTS ( 1.000000000000000000, 0.0000000000000000000, 0.0000000000000000000, 0.0000000000000000000, 0.0000000000000000000, 0.0000000000000000000, 0.0000000000000000000 ) ;
#7 = CARTESIAN_POINT ( 'NONE',  ( 0.0000000000000000000, 0.0000000000000000000, 1.496062999999999921 ) ) ;
#8 = CARTESIAN_POINT ( 'NONE',  ( 0.0000000000000000000, 0.0000000000000000000, 0.0000000000000000000 ) ) ;
#9 = FACE_OUTER_BOUND ( 'NONE', #259, .T. ) ;
#10 = DIRECTION ( 'NONE',  ( 1.000000000000000000, 0.0000000000000000000, 0.0000000000000000000 ) ) ;
#11 = CARTESIAN_POINT ( 'NONE',  ( -0.005899594499999999062, 7.224919520692331422E-19, 0.01968499999999999764 ) ) ;
#12 = EDGE_LOOP ( 'NONE', ( #123, #202, #70, #267 ) ) ;
#13 = DIRECTION ( 'NONE',  ( 0.0000000000000000000, 1.000000000000000000, 0.0000000000000000000 ) ) ;
#14 = ADVANCED_FACE ( 'NONE', ( #64 ), #159, .T. ) ;
#15 = VECTOR ( 'NONE', #59, 39.37007874015748143 ) ;
#16 = SURFACE_SIDE_STYLE ('',( #237 ) ) ;
#17 = FILL_AREA_STYLE ('',( #297 ) ) ;
#18 = ADVANCED_FACE ( 'NONE', ( #214 ), #227, .T. ) ;
#19 = CARTESIAN_POINT ( 'NONE',  ( 2.410717224121564242E-18, 0.0000000000000000000, 0.01968499999999999764 ) ) ;
#20 = CIRCLE ( 'NONE', #154, 0.05905500000000000332 ) ;
#21 = CARTESIAN_POINT ( 'NONE',  ( 7.224919520692330459E-19, 0.0000000000000000000, 0.005899594499999999929 ) ) ;
#22 = VECTOR ( 'NONE', #60, 39.37007874015748143 ) ;
#23 = UNCERTAINTY_MEASURE_WITH_UNIT (LENGTH_MEASURE( 1.000000000000000082E-05 ), #177, 'distance_accuracy_value', 'NONE');
#24 = ORIENTED_EDGE ( 'NONE', *, *, #241, .T. ) ;
#25 =( NAMED_UNIT ( * ) PLANE_ANGLE_UNIT ( ) SI_UNIT ( $, .RADIAN. ) );
#26 = EDGE_CURVE ( 'NONE', #314, #46, #282, .T. ) ;
#27 = AXIS2_PLACEMENT_3D ( 'NONE', #211, #160, #133 ) ;
#28 = DIRECTION ( 'NONE',  ( -1.000000000000000000, 0.0000000000000000000, 1.224646799147353207E-16 ) ) ;
#29 = CARTESIAN_POINT ( 'NONE',  ( 0.0000000000000000000, 0.0000000000000000000, 1.496062999999999921 ) ) ;
#30 = CARTESIAN_POINT ( 'NONE',  ( -0.05905500000000000332, 0.0000000000000000000, 1.496062999999999921 ) ) ;
#31 = CONICAL_SURFACE ( 'NONE', #295, 0.005899594500000001664, 0.1745329251994338637 ) ;
#32 = AXIS2_PLACEMENT_3D ( 'NONE', #1, #95, #200 ) ;
#33 = CARTESIAN_POINT ( 'NONE',  ( 0.05905500000000004496, 7.232151672364700045E-18, 0.3211442848265556038 ) ) ;
#34 = PRODUCT ( 'Micro_BMSM-003-2', 'Micro_BMSM-003-2', '', ( #268 ) ) ;
#35 = SPHERICAL_SURFACE ( 'NONE', #222, 0.005899594499999999929 ) ;
#36 = PRESENTATION_STYLE_ASSIGNMENT (( #265 ) ) ;
#37 = DIRECTION ( 'NONE',  ( -0.0000000000000000000, -0.0000000000000000000, -1.000000000000000000 ) ) ;
#38 = ORIENTED_EDGE ( 'NONE', *, *, #221, .F. ) ;
#39 =( LENGTH_UNIT ( ) NAMED_UNIT ( * ) SI_UNIT ( $, .METRE. ) );
#40 = DIRECTION ( 'NONE',  ( 1.224646799147353207E-16, 0.0000000000000000000, 1.000000000000000000 ) ) ;
#41 = PRESENTATION_LAYER_ASSIGNMENT (  '', '', ( #223 ) ) ;
#42 = APPLICATION_PROTOCOL_DEFINITION ( 'draft international standard', 'automotive_design', 1998, #291 ) ;
#43 = EDGE_LOOP ( 'NONE', ( #84, #264, #246, #253 ) ) ;
#44 =( LENGTH_UNIT ( ) NAMED_UNIT ( * ) SI_UNIT ( $, .METRE. ) );
#45 =( LENGTH_UNIT ( ) NAMED_UNIT ( * ) SI_UNIT ( $, .METRE. ) );
#46 = VERTEX_POINT ( 'NONE', #257 ) ;
#47 = CARTESIAN_POINT ( 'NONE',  ( 7.224919520692330459E-19, 0.0000000000000000000, 0.005899594499999999929 ) ) ;
#48 = EDGE_CURVE ( 'NONE', #314, #92, #288, .T. ) ;
#49 = EDGE_LOOP ( 'NONE', ( #215, #164, #174, #157 ) ) ;
#50 = EDGE_CURVE ( 'NONE', #273, #92, #77, .T. ) ;
#51 = VERTEX_POINT ( 'NONE', #5 ) ;
#52 = AXIS2_PLACEMENT_3D ( 'NONE', #263, #107, #210 ) ;
#53 = PLANE ( 'NONE',  #250 ) ;
#54 = EDGE_CURVE ( 'NONE', #196, #106, #56, .T. ) ;
#55 = FACE_OUTER_BOUND ( 'NONE', #180, .T. ) ;
#56 = LINE ( 'NONE', #79, #217 ) ;
#57 = DIRECTION ( 'NONE',  ( 1.000000000000000000, 0.0000000000000000000, 0.0000000000000000000 ) ) ;
#58 = CIRCLE ( 'NONE', #185, 0.05905500000000000332 ) ;
#59 = DIRECTION ( 'NONE',  ( -0.0000000000000000000, -0.0000000000000000000, -1.000000000000000000 ) ) ;
#60 = DIRECTION ( 'NONE',  ( 0.1736481776669313581, 0.0000000000000000000, 0.9848077530122077983 ) ) ;
#61 = CARTESIAN_POINT ( 'NONE',  ( 0.05905500000000000332, 7.232151672364695422E-18, 1.496062999999999921 ) ) ;
#62 = MECHANICAL_DESIGN_GEOMETRIC_PRESENTATION_REPRESENTATION (  '', ( #98 ), #146 ) ;
#63 = DIRECTION ( 'NONE',  ( 1.000000000000000000, 0.0000000000000000000, 0.0000000000000000000 ) ) ;
#64 = FACE_OUTER_BOUND ( 'NONE', #232, .T. ) ;
#65 = DIRECTION ( 'NONE',  ( 1.000000000000000000, 0.0000000000000000000, 0.0000000000000000000 ) ) ;
#66 = ORIENTED_EDGE ( 'NONE', *, *, #286, .F. ) ;
#67 = CARTESIAN_POINT ( 'NONE',  ( 0.0000000000000000000, 0.0000000000000000000, 1.496062999999999921 ) ) ;
#68 = AXIS2_PLACEMENT_3D ( 'NONE', #166, #278, #57 ) ;
#69 = ADVANCED_FACE ( 'NONE', ( #55 ), #53, .T. ) ;
#70 = ORIENTED_EDGE ( 'NONE', *, *, #86, .T. ) ;
#71 = PRESENTATION_STYLE_ASSIGNMENT (( #220 ) ) ;
#72 = ADVANCED_FACE ( 'NONE', ( #279 ), #251, .T. ) ;
#73 = VECTOR ( 'NONE', #2, 39.37007874015748143 ) ;
#74 = LENGTH_MEASURE_WITH_UNIT ( LENGTH_MEASURE( 0.02539999999999999897 ), #44 );
#75 = APPLICATION_PROTOCOL_DEFINITION ( 'draft international standard', 'automotive_design', 1998, #4 ) ;
#76 = EDGE_CURVE ( 'NONE', #46, #102, #275, .T. ) ;
#77 = LINE ( 'NONE', #230, #234 ) ;
#78 = DIRECTION ( 'NONE',  ( 0.0000000000000000000, 0.0000000000000000000, 1.000000000000000000 ) ) ;
#79 = CARTESIAN_POINT ( 'NONE',  ( -0.005899594500000003398, 0.0000000000000000000, 7.224919520692334311E-19 ) ) ;
#80 = CARTESIAN_POINT ( 'NONE',  ( 0.0000000000000000000, 0.0000000000000000000, 0.0000000000000000000 ) ) ;
#81 = FACE_OUTER_BOUND ( 'NONE', #12, .T. ) ;
#82 = CIRCLE ( 'NONE', #195, 0.005899594500000003398 ) ;
#83 = ORIENTED_EDGE ( 'NONE', *, *, #50, .T. ) ;
#84 = ORIENTED_EDGE ( 'NONE', *, *, #48, .T. ) ;
#85 = CARTESIAN_POINT ( 'NONE',  ( 7.224919520692330459E-19, 0.0000000000000000000, 0.005899594499999999929 ) ) ;
#86 = EDGE_CURVE ( 'NONE', #176, #314, #254, .T. ) ;
#87 = AXIS2_PLACEMENT_3D ( 'NONE', #8, #308, #28 ) ;
#88 = FILL_AREA_STYLE_COLOUR ( '', #203 ) ;
#89 = DIRECTION ( 'NONE',  ( -0.1736481776669311639, 2.126576849575783008E-17, 0.9848077530122080203 ) ) ;
#90 = ADVANCED_FACE ( 'NONE', ( #81 ), #238, .T. ) ;
#91 = DIRECTION ( 'NONE',  ( 1.000000000000000000, 0.0000000000000000000, 0.0000000000000000000 ) ) ;
#92 = VERTEX_POINT ( 'NONE', #147 ) ;
#93 = DIRECTION ( 'NONE',  ( 1.000000000000000000, 0.0000000000000000000, 0.0000000000000000000 ) ) ;
#94 = ORIENTED_EDGE ( 'NONE', *, *, #301, .F. ) ;
#95 = DIRECTION ( 'NONE',  ( -0.0000000000000000000, -0.0000000000000000000, -1.000000000000000000 ) ) ;
#96 = ORIENTED_EDGE ( 'NONE', *, *, #170, .T. ) ;
#97 = AXIS2_PLACEMENT_3D ( 'NONE', #105, #120, #100 ) ;
#98 = STYLED_ITEM ( 'NONE', ( #36 ), #261 ) ;
#99 = DIRECTION ( 'NONE',  ( -0.7071067811865482389, 0.0000000000000000000, -0.7071067811865469066 ) ) ;
#100 = DIRECTION ( 'NONE',  ( -1.000000000000000000, 0.0000000000000000000, 0.0000000000000000000 ) ) ;
#101 = DIRECTION ( 'NONE',  ( 1.000000000000000000, 0.0000000000000000000, 0.0000000000000000000 ) ) ;
#102 = VERTEX_POINT ( 'NONE', #33 ) ;
#103 = DIRECTION ( 'NONE',  ( 1.000000000000000000, 0.0000000000000000000, 0.0000000000000000000 ) ) ;
#104 = ADVANCED_FACE ( 'NONE', ( #225 ), #316, .T. ) ;
#105 = CARTESIAN_POINT ( 'NONE',  ( 0.0000000000000000000, 0.0000000000000000000, 1.496062999999999921 ) ) ;
#106 = VERTEX_POINT ( 'NONE', #122 ) ;
#107 = DIRECTION ( 'NONE',  ( -1.224646799147353207E-16, -0.0000000000000000000, -1.000000000000000000 ) ) ;
#108 = VECTOR ( 'NONE', #89, 39.37007874015747433 ) ;
#109 = CIRCLE ( 'NONE', #126, 0.005899594499999999929 ) ;
#110 = EDGE_CURVE ( 'NONE', #235, #51, #204, .T. ) ;
#111 = DIRECTION ( 'NONE',  ( -1.000000000000000000, 0.0000000000000000000, 0.0000000000000000000 ) ) ;
#112 = CARTESIAN_POINT ( 'NONE',  ( 0.005899594500000003398, 0.0000000000000000000, 0.01968499999999999764 ) ) ;
#113 =( CONVERSION_BASED_UNIT ( 'INCH', #134 ) LENGTH_UNIT ( ) NAMED_UNIT ( #280 ) );
#114 = AXIS2_PLACEMENT_3D ( 'NONE', #67, #192, #10 ) ;
#115 = EDGE_LOOP ( 'NONE', ( #323, #299, #309, #206 ) ) ;
#116 = DIRECTION ( 'NONE',  ( 0.0000000000000000000, -1.000000000000000000, 0.0000000000000000000 ) ) ;
#117 = ORIENTED_EDGE ( 'NONE', *, *, #310, .F. ) ;
#118 = CIRCLE ( 'NONE', #312, 0.005899594500000001664 ) ;
#119 = DIRECTION ( 'NONE',  ( 0.0000000000000000000, 0.0000000000000000000, -1.000000000000000000 ) ) ;
#120 = DIRECTION ( 'NONE',  ( 0.0000000000000000000, 0.0000000000000000000, -1.000000000000000000 ) ) ;
#121 = PRODUCT_DEFINITION ( 'UNKNOWN', '', #239, #249 ) ;
#122 = CARTESIAN_POINT ( 'NONE',  ( -0.005899594500000002531, 0.0000000000000000000, 0.005899594500000001664 ) ) ;
#123 = ORIENTED_EDGE ( 'NONE', *, *, #50, .F. ) ;
#124 = VECTOR ( 'NONE', #99, 39.37007874015748143 ) ;
#125 = DIRECTION ( 'NONE',  ( -1.224646799147353207E-16, -0.0000000000000000000, -1.000000000000000000 ) ) ;
#126 = AXIS2_PLACEMENT_3D ( 'NONE', #21, #116, #138 ) ;
#127 = ORIENTED_EDGE ( 'NONE', *, *, #110, .T. ) ;
#128 = ORIENTED_EDGE ( 'NONE', *, *, #191, .T. ) ;
#129 = DIRECTION ( 'NONE',  ( 0.0000000000000000000, 0.0000000000000000000, -1.000000000000000000 ) ) ;
#130 =( NAMED_UNIT ( * ) SI_UNIT ( $, .STERADIAN. ) SOLID_ANGLE_UNIT ( ) );
#131 = AXIS2_PLACEMENT_3D ( 'NONE', #7, #179, #311 ) ;
#132 = ORIENTED_EDGE ( 'NONE', *, *, #86, .F. ) ;
#133 = DIRECTION ( 'NONE',  ( -1.000000000000000000, 1.224646799147353454E-16, 0.0000000000000000000 ) ) ;
#134 = LENGTH_MEASURE_WITH_UNIT ( LENGTH_MEASURE( 0.02539999999999999897 ), #39 );
#135 = CARTESIAN_POINT ( 'NONE',  ( 1.083737928103849761E-18, 0.0000000000000000000, 0.0000000000000000000 ) ) ;
#136 = EDGE_CURVE ( 'NONE', #273, #176, #262, .T. ) ;
#137 = AXIS2_PLACEMENT_3D ( 'NONE', #29, #284, #155 ) ;
#138 = DIRECTION ( 'NONE',  ( 0.0000000000000000000, 0.0000000000000000000, -1.000000000000000000 ) ) ;
#139 = ORIENTED_EDGE ( 'NONE', *, *, #212, .F. ) ;
#140 =( CONVERSION_BASED_UNIT ( 'INCH', #144 ) LENGTH_UNIT ( ) NAMED_UNIT ( #306 ) );
#141 = AXIS2_PLACEMENT_3D ( 'NONE', #207, #129, #305 ) ;
#142 =( GEOMETRIC_REPRESENTATION_CONTEXT ( 3 ) GLOBAL_UNCERTAINTY_ASSIGNED_CONTEXT ( ( #23 ) ) GLOBAL_UNIT_ASSIGNED_CONTEXT ( ( #177, #25, #321 ) ) REPRESENTATION_CONTEXT ( 'NONE', 'WORKASPACE' ) );
#143 =( NAMED_UNIT ( * ) PLANE_ANGLE_UNIT ( ) SI_UNIT ( $, .RADIAN. ) );
#144 = LENGTH_MEASURE_WITH_UNIT ( LENGTH_MEASURE( 0.02539999999999999897 ), #45 );
#145 = CIRCLE ( 'NONE', #114, 0.04405499999999973326 ) ;
#146 =( GEOMETRIC_REPRESENTATION_CONTEXT ( 3 ) GLOBAL_UNCERTAINTY_ASSIGNED_CONTEXT ( ( #216 ) ) GLOBAL_UNIT_ASSIGNED_CONTEXT ( ( #113, #193, #130 ) ) REPRESENTATION_CONTEXT ( 'NONE', 'WORKASPACE' ) );
#147 = CARTESIAN_POINT ( 'NONE',  ( 0.05905500000000000332, 7.232151672364695422E-18, 1.481062999999999574 ) ) ;
#148 = CYLINDRICAL_SURFACE ( 'NONE', #137, 0.05905500000000000332 ) ;
#149 = ADVANCED_FACE ( 'NONE', ( #205 ), #277, .T. ) ;
#150 = DIRECTION ( 'NONE',  ( 0.0000000000000000000, 0.0000000000000000000, 1.000000000000000000 ) ) ;
#151 = ADVANCED_BREP_SHAPE_REPRESENTATION ( 'Micro_BMSM-003-2', ( #261, #296 ), #228 ) ;
#152 = ORIENTED_EDGE ( 'NONE', *, *, #310, .T. ) ;
#153 = DIRECTION ( 'NONE',  ( -1.224646799147353207E-16, -0.0000000000000000000, -1.000000000000000000 ) ) ;
#154 = AXIS2_PLACEMENT_3D ( 'NONE', #290, #162, #65 ) ;
#155 = DIRECTION ( 'NONE',  ( -1.000000000000000000, 0.0000000000000000000, 0.0000000000000000000 ) ) ;
#156 = PRODUCT_DEFINITION_SHAPE ( 'NONE', 'NONE',  #121 ) ;
#157 = ORIENTED_EDGE ( 'NONE', *, *, #281, .F. ) ;
#158 = CARTESIAN_POINT ( 'NONE',  ( 0.04405499999999973326, 6.313666573004162521E-18, 1.496062999999999921 ) ) ;
#159 = CYLINDRICAL_SURFACE ( 'NONE', #32, 0.05905500000000000332 ) ;
#160 = DIRECTION ( 'NONE',  ( 1.224646799147353207E-16, 1.000000000000000000, -0.0000000000000000000 ) ) ;
#161 = AXIS2_PLACEMENT_3D ( 'NONE', #85, #190, #188 ) ;
#162 = DIRECTION ( 'NONE',  ( -1.224646799147353207E-16, -0.0000000000000000000, -1.000000000000000000 ) ) ;
#163 = FILL_AREA_STYLE ('',( #88 ) ) ;
#164 = ORIENTED_EDGE ( 'NONE', *, *, #187, .T. ) ;
#165 = ADVANCED_FACE ( 'NONE', ( #182 ), #148, .T. ) ;
#166 = CARTESIAN_POINT ( 'NONE',  ( 2.410717224121564242E-18, 0.0000000000000000000, 0.01968499999999999764 ) ) ;
#167 = CIRCLE ( 'NONE', #27, 0.005899594499999999929 ) ;
#168 = ORIENTED_EDGE ( 'NONE', *, *, #256, .T. ) ;
#169 = ORIENTED_EDGE ( 'NONE', *, *, #231, .T. ) ;
#170 = EDGE_CURVE ( 'NONE', #92, #314, #58, .T. ) ;
#171 =( NAMED_UNIT ( * ) SI_UNIT ( $, .STERADIAN. ) SOLID_ANGLE_UNIT ( ) );
#172 = ORIENTED_EDGE ( 'NONE', *, *, #54, .F. ) ;
#173 = AXIS2_PLACEMENT_3D ( 'NONE', #3, #78, #103 ) ;
#174 = ORIENTED_EDGE ( 'NONE', *, *, #76, .T. ) ;
#175 = UNCERTAINTY_MEASURE_WITH_UNIT (LENGTH_MEASURE( 1.000000000000000082E-05 ), #140, 'distance_accuracy_value', 'NONE');
#176 = VERTEX_POINT ( 'NONE', #224 ) ;
#177 =( CONVERSION_BASED_UNIT ( 'INCH', #74 ) LENGTH_UNIT ( ) NAMED_UNIT ( #6 ) );
#178 = ADVANCED_FACE ( 'NONE', ( #302 ), #35, .T. ) ;
#179 = DIRECTION ( 'NONE',  ( 0.0000000000000000000, 0.0000000000000000000, -1.000000000000000000 ) ) ;
#180 = EDGE_LOOP ( 'NONE', ( #128, #324 ) ) ;
#181 = CLOSED_SHELL ( 'NONE', ( #270, #72, #293, #104, #165, #14, #69, #90, #18, #149, #178 ) ) ;
#182 = FACE_OUTER_BOUND ( 'NONE', #43, .T. ) ;
#183 = DIRECTION ( 'NONE',  ( 0.7071067811865482389, 8.659560562354941486E-17, -0.7071067811865469066 ) ) ;
#184 = DIRECTION ( 'NONE',  ( 1.000000000000000000, 0.0000000000000000000, -0.0000000000000000000 ) ) ;
#185 = AXIS2_PLACEMENT_3D ( 'NONE', #252, #119, #101 ) ;
#186 = CARTESIAN_POINT ( 'NONE',  ( 0.005899594500000003398, 7.224919520692334311E-19, -7.224919520692334311E-19 ) ) ;
#187 = EDGE_CURVE ( 'NONE', #196, #46, #318, .T. ) ;
#188 = DIRECTION ( 'NONE',  ( 1.000000000000000000, 0.0000000000000000000, 0.0000000000000000000 ) ) ;
#189 = SPHERICAL_SURFACE ( 'NONE', #161, 0.005899594499999999929 ) ;
#190 = DIRECTION ( 'NONE',  ( 0.0000000000000000000, 1.000000000000000000, 0.0000000000000000000 ) ) ;
#191 = EDGE_CURVE ( 'NONE', #176, #273, #145, .T. ) ;
#192 = DIRECTION ( 'NONE',  ( 0.0000000000000000000, 0.0000000000000000000, 1.000000000000000000 ) ) ;
#193 =( NAMED_UNIT ( * ) PLANE_ANGLE_UNIT ( ) SI_UNIT ( $, .RADIAN. ) );
#194 = SHAPE_DEFINITION_REPRESENTATION ( #156, #151 ) ;
#195 = AXIS2_PLACEMENT_3D ( 'NONE', #313, #40, #317 ) ;
#196 = VERTEX_POINT ( 'NONE', #236 ) ;
#197 = FACE_OUTER_BOUND ( 'NONE', #49, .T. ) ;
#198 = DIRECTION ( 'NONE',  ( 1.224646799147353207E-16, 0.0000000000000000000, 1.000000000000000000 ) ) ;
#199 = CARTESIAN_POINT ( 'NONE',  ( 3.932883204773071895E-17, 0.0000000000000000000, 0.3211442848265556038 ) ) ;
#200 = DIRECTION ( 'NONE',  ( -1.000000000000000000, 0.0000000000000000000, 0.0000000000000000000 ) ) ;
#201 = DIRECTION ( 'NONE',  ( -1.000000000000000000, 0.0000000000000000000, 1.224646799147353207E-16 ) ) ;
#202 = ORIENTED_EDGE ( 'NONE', *, *, #191, .F. ) ;
#203 = COLOUR_RGB ( '',0.7921568627450980005, 0.8196078431372548767, 0.9333333333333333481 ) ;
#204 = LINE ( 'NONE', #186, #73 ) ;
#205 = FACE_OUTER_BOUND ( 'NONE', #115, .T. ) ;
#206 = ORIENTED_EDGE ( 'NONE', *, *, #301, .T. ) ;
#207 = CARTESIAN_POINT ( 'NONE',  ( 0.0000000000000000000, 0.0000000000000000000, 1.481062999999999574 ) ) ;
#208 = CIRCLE ( 'NONE', #52, 0.005899594500000001664 ) ;
#209 = LINE ( 'NONE', #285, #22 ) ;
#210 = DIRECTION ( 'NONE',  ( -1.000000000000000000, 0.0000000000000000000, 0.0000000000000000000 ) ) ;
#211 = CARTESIAN_POINT ( 'NONE',  ( 7.224919520692330459E-19, 0.0000000000000000000, 0.005899594499999999929 ) ) ;
#212 = EDGE_CURVE ( 'NONE', #51, #106, #82, .T. ) ;
#213 = CARTESIAN_POINT ( 'NONE',  ( 7.224919520692330459E-19, 0.0000000000000000000, 0.005899594499999999929 ) ) ;
#214 = FACE_OUTER_BOUND ( 'NONE', #322, .T. ) ;
#215 = ORIENTED_EDGE ( 'NONE', *, *, #241, .F. ) ;
#216 = UNCERTAINTY_MEASURE_WITH_UNIT (LENGTH_MEASURE( 1.000000000000000082E-05 ), #113, 'distance_accuracy_value', 'NONE');
#217 = VECTOR ( 'NONE', #153, 39.37007874015748143 ) ;
#218 = CIRCLE ( 'NONE', #289, 0.005899594500000003398 ) ;
#219 = ORIENTED_EDGE ( 'NONE', *, *, #256, .F. ) ;
#220 = SURFACE_STYLE_USAGE ( .BOTH. , #247 ) ;
#221 = EDGE_CURVE ( 'NONE', #235, #196, #118, .T. ) ;
#222 = AXIS2_PLACEMENT_3D ( 'NONE', #213, #13, #63 ) ;
#223 = STYLED_ITEM ( 'NONE', ( #71 ), #151 ) ;
#224 = CARTESIAN_POINT ( 'NONE',  ( -0.04405499999999973326, 0.0000000000000000000, 1.496062999999999921 ) ) ;
#225 = FACE_OUTER_BOUND ( 'NONE', #266, .T. ) ;
#226 = DIRECTION ( 'NONE',  ( 1.000000000000000000, 0.0000000000000000000, 0.0000000000000000000 ) ) ;
#227 = CONICAL_SURFACE ( 'NONE', #68, 0.005899594500000001664, 0.1745329251994338637 ) ;
#228 =( GEOMETRIC_REPRESENTATION_CONTEXT ( 3 ) GLOBAL_UNCERTAINTY_ASSIGNED_CONTEXT ( ( #175 ) ) GLOBAL_UNIT_ASSIGNED_CONTEXT ( ( #140, #143, #171 ) ) REPRESENTATION_CONTEXT ( 'NONE', 'WORKASPACE' ) );
#229 = CARTESIAN_POINT ( 'NONE',  ( -0.04405499999999973326, 0.0000000000000000000, 1.496062999999999921 ) ) ;
#230 = CARTESIAN_POINT ( 'NONE',  ( 0.04405499999999973326, 5.395181473643630390E-18, 1.496062999999999921 ) ) ;
#231 = EDGE_CURVE ( 'NONE', #233, #106, #167, .T. ) ;
#232 = EDGE_LOOP ( 'NONE', ( #66, #96, #276, #219 ) ) ;
#233 = VERTEX_POINT ( 'NONE', #135 ) ;
#234 = VECTOR ( 'NONE', #183, 39.37007874015748143 ) ;
#235 = VERTEX_POINT ( 'NONE', #112 ) ;
#236 = CARTESIAN_POINT ( 'NONE',  ( -0.005899594499999999062, 3.977321812216963656E-18, 0.01968499999999999764 ) ) ;
#237 = SURFACE_STYLE_FILL_AREA ( #163 ) ;
#238 = CONICAL_SURFACE ( 'NONE', #97, 0.04405499999999973326, 0.7853981633974491672 ) ;
#239 = PRODUCT_DEFINITION_FORMATION_WITH_SPECIFIED_SOURCE ( 'ANY', '', #34, .NOT_KNOWN. ) ;
#240 = CARTESIAN_POINT ( 'NONE',  ( -0.05905500000000000332, 0.0000000000000000000, 1.481062999999999574 ) ) ;
#241 = EDGE_CURVE ( 'NONE', #196, #235, #208, .T. ) ;
#242 = EDGE_LOOP ( 'NONE', ( #243, #152, #94 ) ) ;
#243 = ORIENTED_EDGE ( 'NONE', *, *, #231, .F. ) ;
#244 = SURFACE_STYLE_FILL_AREA ( #17 ) ;
#245 = VECTOR ( 'NONE', #37, 39.37007874015748143 ) ;
#246 = ORIENTED_EDGE ( 'NONE', *, *, #76, .F. ) ;
#247 = SURFACE_SIDE_STYLE ('',( #244 ) ) ;
#248 = EDGE_LOOP ( 'NONE', ( #24, #127, #320, #172 ) ) ;
#249 = PRODUCT_DEFINITION_CONTEXT ( 'detailed design', #291, 'design' ) ;
#250 = AXIS2_PLACEMENT_3D ( 'NONE', #303, #150, #184 ) ;
#251 = CYLINDRICAL_SURFACE ( 'NONE', #87, 0.005899594500000003398 ) ;
#252 = CARTESIAN_POINT ( 'NONE',  ( 0.0000000000000000000, 0.0000000000000000000, 1.481062999999999574 ) ) ;
#253 = ORIENTED_EDGE ( 'NONE', *, *, #26, .F. ) ;
#254 = LINE ( 'NONE', #229, #124 ) ;
#255 = MECHANICAL_DESIGN_GEOMETRIC_PRESENTATION_REPRESENTATION (  '', ( #223 ), #142 ) ;
#256 = EDGE_CURVE ( 'NONE', #102, #46, #20, .T. ) ;
#257 = CARTESIAN_POINT ( 'NONE',  ( -0.05905499999999996169, 0.0000000000000000000, 0.3211442848265556038 ) ) ;
#258 = DIRECTION ( 'NONE',  ( -1.224646799147353207E-16, -0.0000000000000000000, -1.000000000000000000 ) ) ;
#259 = EDGE_LOOP ( 'NONE', ( #117, #169, #139 ) ) ;
#260 = ORIENTED_EDGE ( 'NONE', *, *, #48, .F. ) ;
#261 = MANIFOLD_SOLID_BREP ( 'Fillet1', #181 ) ;
#262 = CIRCLE ( 'NONE', #173, 0.04405499999999973326 ) ;
#263 = CARTESIAN_POINT ( 'NONE',  ( 2.410717224121564242E-18, 0.0000000000000000000, 0.01968499999999999764 ) ) ;
#264 = ORIENTED_EDGE ( 'NONE', *, *, #286, .T. ) ;
#265 = SURFACE_STYLE_USAGE ( .BOTH. , #16 ) ;
#266 = EDGE_LOOP ( 'NONE', ( #271, #83, #260, #132 ) ) ;
#267 = ORIENTED_EDGE ( 'NONE', *, *, #170, .F. ) ;
#268 = PRODUCT_CONTEXT ( 'NONE', #4, 'mechanical' ) ;
#269 = AXIS2_PLACEMENT_3D ( 'NONE', #199, #125, #226 ) ;
#270 = ADVANCED_FACE ( 'NONE', ( #9 ), #189, .T. ) ;
#271 = ORIENTED_EDGE ( 'NONE', *, *, #136, .F. ) ;
#272 = DIRECTION ( 'NONE',  ( -1.000000000000000000, 0.0000000000000000000, 1.808816050874517144E-16 ) ) ;
#273 = VERTEX_POINT ( 'NONE', #158 ) ;
#274 = DIRECTION ( 'NONE',  ( 1.224646799147353207E-16, 0.0000000000000000000, 1.000000000000000000 ) ) ;
#275 = CIRCLE ( 'NONE', #269, 0.05905500000000000332 ) ;
#276 = ORIENTED_EDGE ( 'NONE', *, *, #26, .T. ) ;
#277 = CYLINDRICAL_SURFACE ( 'NONE', #283, 0.005899594500000003398 ) ;
#278 = DIRECTION ( 'NONE',  ( 1.224646799147353207E-16, 0.0000000000000000000, 1.000000000000000000 ) ) ;
#279 = FACE_OUTER_BOUND ( 'NONE', #248, .T. ) ;
#280 = DIMENSIONAL_EXPONENTS ( 1.000000000000000000, 0.0000000000000000000, 0.0000000000000000000, 0.0000000000000000000, 0.0000000000000000000, 0.0000000000000000000, 0.0000000000000000000 ) ;
#281 = EDGE_CURVE ( 'NONE', #235, #102, #209, .T. ) ;
#282 = LINE ( 'NONE', #30, #15 ) ;
#283 = AXIS2_PLACEMENT_3D ( 'NONE', #80, #258, #201 ) ;
#284 = DIRECTION ( 'NONE',  ( -0.0000000000000000000, -0.0000000000000000000, -1.000000000000000000 ) ) ;
#285 = CARTESIAN_POINT ( 'NONE',  ( 0.005899594500000003398, 0.0000000000000000000, 0.01968499999999999764 ) ) ;
#286 = EDGE_CURVE ( 'NONE', #92, #102, #287, .T. ) ;
#287 = LINE ( 'NONE', #61, #245 ) ;
#288 = CIRCLE ( 'NONE', #141, 0.05905500000000000332 ) ;
#289 = AXIS2_PLACEMENT_3D ( 'NONE', #47, #198, #272 ) ;
#290 = CARTESIAN_POINT ( 'NONE',  ( 3.932883204773071895E-17, 0.0000000000000000000, 0.3211442848265556038 ) ) ;
#291 = APPLICATION_CONTEXT ( 'automotive_design' ) ;
#292 = DIRECTION ( 'NONE',  ( -1.224646799147353207E-16, -0.0000000000000000000, -1.000000000000000000 ) ) ;
#293 = ADVANCED_FACE ( 'NONE', ( #197 ), #31, .T. ) ;
#294 = CARTESIAN_POINT ( 'NONE',  ( 0.0000000000000000000, 0.0000000000000000000, 0.0000000000000000000 ) ) ;
#295 = AXIS2_PLACEMENT_3D ( 'NONE', #19, #274, #93 ) ;
#296 = AXIS2_PLACEMENT_3D ( 'NONE', #294, #300, #91 ) ;
#297 = FILL_AREA_STYLE_COLOUR ( '', #325 ) ;
#298 = ORIENTED_EDGE ( 'NONE', *, *, #187, .F. ) ;
#299 = ORIENTED_EDGE ( 'NONE', *, *, #221, .T. ) ;
#300 = DIRECTION ( 'NONE',  ( 0.0000000000000000000, 0.0000000000000000000, 1.000000000000000000 ) ) ;
#301 = EDGE_CURVE ( 'NONE', #106, #51, #218, .T. ) ;
#302 = FACE_OUTER_BOUND ( 'NONE', #242, .T. ) ;
#303 = CARTESIAN_POINT ( 'NONE',  ( 0.0000000000000000000, 0.0000000000000000000, 1.496062999999999921 ) ) ;
#304 = PRESENTATION_LAYER_ASSIGNMENT (  '', '', ( #98 ) ) ;
#305 = DIRECTION ( 'NONE',  ( 1.000000000000000000, 0.0000000000000000000, 0.0000000000000000000 ) ) ;
#306 = DIMENSIONAL_EXPONENTS ( 1.000000000000000000, 0.0000000000000000000, 0.0000000000000000000, 0.0000000000000000000, 0.0000000000000000000, 0.0000000000000000000, 0.0000000000000000000 ) ;
#307 = ORIENTED_EDGE ( 'NONE', *, *, #281, .T. ) ;
#308 = DIRECTION ( 'NONE',  ( -1.224646799147353207E-16, -0.0000000000000000000, -1.000000000000000000 ) ) ;
#309 = ORIENTED_EDGE ( 'NONE', *, *, #54, .T. ) ;
#310 = EDGE_CURVE ( 'NONE', #233, #51, #109, .T. ) ;
#311 = DIRECTION ( 'NONE',  ( -1.000000000000000000, 0.0000000000000000000, 0.0000000000000000000 ) ) ;
#312 = AXIS2_PLACEMENT_3D ( 'NONE', #315, #292, #111 ) ;
#313 = CARTESIAN_POINT ( 'NONE',  ( 7.224919520692330459E-19, 0.0000000000000000000, 0.005899594499999999929 ) ) ;
#314 = VERTEX_POINT ( 'NONE', #240 ) ;
#315 = CARTESIAN_POINT ( 'NONE',  ( 2.410717224121564242E-18, 0.0000000000000000000, 0.01968499999999999764 ) ) ;
#316 = CONICAL_SURFACE ( 'NONE', #131, 0.04405499999999973326, 0.7853981633974491672 ) ;
#317 = DIRECTION ( 'NONE',  ( -1.000000000000000000, 0.0000000000000000000, 1.808816050874517144E-16 ) ) ;
#318 = LINE ( 'NONE', #11, #108 ) ;
#319 = PRODUCT_RELATED_PRODUCT_CATEGORY ( 'part', '', ( #34 ) ) ;
#320 = ORIENTED_EDGE ( 'NONE', *, *, #212, .T. ) ;
#321 =( NAMED_UNIT ( * ) SI_UNIT ( $, .STERADIAN. ) SOLID_ANGLE_UNIT ( ) );
#322 = EDGE_LOOP ( 'NONE', ( #298, #38, #307, #168 ) ) ;
#323 = ORIENTED_EDGE ( 'NONE', *, *, #110, .F. ) ;
#324 = ORIENTED_EDGE ( 'NONE', *, *, #136, .T. ) ;
#325 = COLOUR_RGB ( '',0.7921568627450980005, 0.8196078431372548767, 0.9333333333333333481 ) ;
ENDSEC;
END-ISO-10303-21;
