ISO-10303-21;
HEADER;
FILE_DESCRIPTION (( 'STEP AP214' ),
    '1' );
FILE_NAME ('Micro_RTC-375-24.STEP',
    '2021-09-03T18:16:50',
    ( '' ),
    ( '' ),
    'SwSTEP 2.0',
    'SolidWorks 2020',
    '' );
FILE_SCHEMA (( 'AUTOMOTIVE_DESIGN' ));
ENDSEC;

DATA;
#1 = LINE ( 'NONE', #77, #126 ) ;
#2 = FILL_AREA_STYLE ('',( #98 ) ) ;
#3 = AXIS2_PLACEMENT_3D ( 'NONE', #148, #239, #172 ) ;
#4 = APPLICATION_CONTEXT ( 'automotive_design' ) ;
#5 = PRODUCT_DEFINITION ( 'UNKNOWN', '', #36, #201 ) ;
#6 = PRODUCT ( 'Micro_RTC-375-24', 'Micro_RTC-375-24', '', ( #157 ) ) ;
#7 = VERTEX_POINT ( 'NONE', #82 ) ;
#8 = VECTOR ( 'NONE', #129, 39.37007874015748143 ) ;
#9 = EDGE_CURVE ( 'NONE', #217, #86, #119, .T. ) ;
#10 = CARTESIAN_POINT ( 'NONE',  ( -0.1875000000000000278, 0.0000000000000000000, 0.6848313231888862873 ) ) ;
#11 = ORIENTED_EDGE ( 'NONE', *, *, #9, .T. ) ;
#12 = ORIENTED_EDGE ( 'NONE', *, *, #227, .T. ) ;
#13 = CIRCLE ( 'NONE', #174, 0.003999999999999999216 ) ;
#14 = CARTESIAN_POINT ( 'NONE',  ( 0.1875000000000000278, 2.296212748401287726E-17, 3.315168676811113269 ) ) ;
#15 = DIRECTION ( 'NONE',  ( 0.0000000000000000000, 0.0000000000000000000, 1.000000000000000000 ) ) ;
#16 = FACE_OUTER_BOUND ( 'NONE', #241, .T. ) ;
#17 = AXIS2_PLACEMENT_3D ( 'NONE', #72, #209, #75 ) ;
#18 = LINE ( 'NONE', #73, #151 ) ;
#19 = CARTESIAN_POINT ( 'NONE',  ( 0.0000000000000000000, 0.0000000000000000000, 4.000000000000000000 ) ) ;
#20 =( CONVERSION_BASED_UNIT ( 'INCH', #150 ) LENGTH_UNIT ( ) NAMED_UNIT ( #97 ) );
#21 = PRESENTATION_LAYER_ASSIGNMENT (  '', '', ( #87 ) ) ;
#22 = CARTESIAN_POINT ( 'NONE',  ( 0.003999999999999999216, 0.0000000000000000000, 0.0000000000000000000 ) ) ;
#23 = AXIS2_PLACEMENT_3D ( 'NONE', #184, #144, #164 ) ;
#24 = ADVANCED_FACE ( 'NONE', ( #124 ), #190, .T. ) ;
#25 = ORIENTED_EDGE ( 'NONE', *, *, #227, .F. ) ;
#26 = EDGE_CURVE ( 'NONE', #7, #30, #91, .T. ) ;
#27 = ORIENTED_EDGE ( 'NONE', *, *, #58, .F. ) ;
#28 = AXIS2_PLACEMENT_3D ( 'NONE', #248, #222, #185 ) ;
#29 = ORIENTED_EDGE ( 'NONE', *, *, #223, .T. ) ;
#30 = VERTEX_POINT ( 'NONE', #10 ) ;
#31 = ORIENTED_EDGE ( 'NONE', *, *, #188, .T. ) ;
#32 = CIRCLE ( 'NONE', #28, 0.1875000000000000278 ) ;
#33 = CARTESIAN_POINT ( 'NONE',  ( 0.003999999999999999216, 0.0000000000000000000, 4.000000000000000000 ) ) ;
#34 = CARTESIAN_POINT ( 'NONE',  ( 0.0000000000000000000, 0.0000000000000000000, 0.0000000000000000000 ) ) ;
#35 = DIRECTION ( 'NONE',  ( 1.000000000000000000, 0.0000000000000000000, 0.0000000000000000000 ) ) ;
#36 = PRODUCT_DEFINITION_FORMATION_WITH_SPECIFIED_SOURCE ( 'ANY', '', #6, .NOT_KNOWN. ) ;
#37 = DIRECTION ( 'NONE',  ( -0.0000000000000000000, -0.0000000000000000000, -1.000000000000000000 ) ) ;
#38 = DIRECTION ( 'NONE',  ( -0.0000000000000000000, -0.0000000000000000000, -1.000000000000000000 ) ) ;
#39 = CONICAL_SURFACE ( 'NONE', #23, 0.003999999999999999216, 0.2617993877991502960 ) ;
#40 =( LENGTH_UNIT ( ) NAMED_UNIT ( * ) SI_UNIT ( $, .METRE. ) );
#41 = LINE ( 'NONE', #22, #115 ) ;
#42 = COLOUR_RGB ( '',0.7921568627450980005, 0.8196078431372548767, 0.9333333333333333481 ) ;
#43 = EDGE_LOOP ( 'NONE', ( #194, #103, #218, #106 ) ) ;
#44 = SHAPE_DEFINITION_REPRESENTATION ( #101, #83 ) ;
#45 = ORIENTED_EDGE ( 'NONE', *, *, #210, .F. ) ;
#46 = EDGE_LOOP ( 'NONE', ( #177, #27, #104, #99 ) ) ;
#47 =( GEOMETRIC_REPRESENTATION_CONTEXT ( 3 ) GLOBAL_UNCERTAINTY_ASSIGNED_CONTEXT ( ( #196 ) ) GLOBAL_UNIT_ASSIGNED_CONTEXT ( ( #212, #215, #153 ) ) REPRESENTATION_CONTEXT ( 'NONE', 'WORKASPACE' ) );
#48 = DIRECTION ( 'NONE',  ( -1.000000000000000000, 0.0000000000000000000, 0.0000000000000000000 ) ) ;
#49 = FACE_OUTER_BOUND ( 'NONE', #173, .T. ) ;
#50 = CLOSED_SHELL ( 'NONE', ( #63, #24, #74, #175, #94, #138, #204, #140 ) ) ;
#51 = DIRECTION ( 'NONE',  ( 1.000000000000000000, 0.0000000000000000000, 0.0000000000000000000 ) ) ;
#52 = DIRECTION ( 'NONE',  ( -0.0000000000000000000, -0.0000000000000000000, -1.000000000000000000 ) ) ;
#53 = DIRECTION ( 'NONE',  ( -1.000000000000000000, 0.0000000000000000000, 0.0000000000000000000 ) ) ;
#54 = AXIS2_PLACEMENT_3D ( 'NONE', #143, #110, #35 ) ;
#55 = DIRECTION ( 'NONE',  ( -0.0000000000000000000, -0.0000000000000000000, -1.000000000000000000 ) ) ;
#56 = SURFACE_STYLE_FILL_AREA ( #118 ) ;
#57 = PRESENTATION_STYLE_ASSIGNMENT (( #236 ) ) ;
#58 = EDGE_CURVE ( 'NONE', #195, #199, #13, .T. ) ;
#59 = FILL_AREA_STYLE_COLOUR ( '', #135 ) ;
#60 = CIRCLE ( 'NONE', #102, 0.003999999999999999216 ) ;
#61 = CARTESIAN_POINT ( 'NONE',  ( 0.0000000000000000000, 0.0000000000000000000, 0.6848313231888862873 ) ) ;
#62 = EDGE_LOOP ( 'NONE', ( #161, #31, #240, #45 ) ) ;
#63 = ADVANCED_FACE ( 'NONE', ( #16 ), #155, .T. ) ;
#64 = ORIENTED_EDGE ( 'NONE', *, *, #26, .F. ) ;
#65 = CONICAL_SURFACE ( 'NONE', #54, 0.003999999999999999216, 0.2617993877991502960 ) ;
#66 = APPLICATION_PROTOCOL_DEFINITION ( 'draft international standard', 'automotive_design', 1998, #100 ) ;
#67 = EDGE_LOOP ( 'NONE', ( #121, #202 ) ) ;
#68 = CARTESIAN_POINT ( 'NONE',  ( -0.003999999999999999216, -1.172599310183591027E-17, 4.000000000000000000 ) ) ;
#69 = LINE ( 'NONE', #205, #8 ) ;
#70 = EDGE_CURVE ( 'NONE', #199, #195, #130, .T. ) ;
#71 =( GEOMETRIC_REPRESENTATION_CONTEXT ( 3 ) GLOBAL_UNCERTAINTY_ASSIGNED_CONTEXT ( ( #125 ) ) GLOBAL_UNIT_ASSIGNED_CONTEXT ( ( #20, #117, #78 ) ) REPRESENTATION_CONTEXT ( 'NONE', 'WORKASPACE' ) );
#72 = CARTESIAN_POINT ( 'NONE',  ( 0.0000000000000000000, 0.0000000000000000000, 4.000000000000000000 ) ) ;
#73 = CARTESIAN_POINT ( 'NONE',  ( 0.1875000000000000278, 2.296212748401287726E-17, 4.000000000000000000 ) ) ;
#74 = ADVANCED_FACE ( 'NONE', ( #108 ), #203, .T. ) ;
#75 = DIRECTION ( 'NONE',  ( 1.000000000000000000, 0.0000000000000000000, -0.0000000000000000000 ) ) ;
#76 = PRODUCT_RELATED_PRODUCT_CATEGORY ( 'part', '', ( #6 ) ) ;
#77 = CARTESIAN_POINT ( 'NONE',  ( -0.1875000000000000278, 0.0000000000000000000, 4.000000000000000000 ) ) ;
#78 =( NAMED_UNIT ( * ) SI_UNIT ( $, .STERADIAN. ) SOLID_ANGLE_UNIT ( ) );
#79 = VECTOR ( 'NONE', #93, 39.37007874015748143 ) ;
#80 = SURFACE_STYLE_FILL_AREA ( #2 ) ;
#81 = DIRECTION ( 'NONE',  ( 0.0000000000000000000, 0.0000000000000000000, 1.000000000000000000 ) ) ;
#82 = CARTESIAN_POINT ( 'NONE',  ( 0.1875000000000000278, 2.296212748401287726E-17, 0.6848313231888862873 ) ) ;
#83 = ADVANCED_BREP_SHAPE_REPRESENTATION ( 'Micro_RTC-375-24', ( #245, #3 ), #47 ) ;
#84 = CARTESIAN_POINT ( 'NONE',  ( 0.0000000000000000000, 0.0000000000000000000, 0.0000000000000000000 ) ) ;
#85 = EDGE_LOOP ( 'NONE', ( #180, #12, #29, #64 ) ) ;
#86 = VERTEX_POINT ( 'NONE', #68 ) ;
#87 = STYLED_ITEM ( 'NONE', ( #170 ), #245 ) ;
#88 = CYLINDRICAL_SURFACE ( 'NONE', #231, 0.1875000000000000278 ) ;
#89 = DIRECTION ( 'NONE',  ( 1.000000000000000000, 0.0000000000000000000, -0.0000000000000000000 ) ) ;
#90 = DIRECTION ( 'NONE',  ( -0.0000000000000000000, -0.0000000000000000000, -1.000000000000000000 ) ) ;
#91 = CIRCLE ( 'NONE', #193, 0.1875000000000000278 ) ;
#92 = FACE_OUTER_BOUND ( 'NONE', #67, .T. ) ;
#93 = DIRECTION ( 'NONE',  ( 0.2588190451025216832, 0.0000000000000000000, -0.9659258262890679791 ) ) ;
#94 = ADVANCED_FACE ( 'NONE', ( #147 ), #39, .T. ) ;
#95 = VECTOR ( 'NONE', #112, 39.37007874015748143 ) ;
#96 =( LENGTH_UNIT ( ) NAMED_UNIT ( * ) SI_UNIT ( $, .METRE. ) );
#97 = DIMENSIONAL_EXPONENTS ( 1.000000000000000000, 0.0000000000000000000, 0.0000000000000000000, 0.0000000000000000000, 0.0000000000000000000, 0.0000000000000000000, 0.0000000000000000000 ) ;
#98 = FILL_AREA_STYLE_COLOUR ( '', #42 ) ;
#99 = ORIENTED_EDGE ( 'NONE', *, *, #26, .T. ) ;
#100 = APPLICATION_CONTEXT ( 'automotive_design' ) ;
#101 = PRODUCT_DEFINITION_SHAPE ( 'NONE', 'NONE',  #5 ) ;
#102 = AXIS2_PLACEMENT_3D ( 'NONE', #128, #162, #53 ) ;
#103 = ORIENTED_EDGE ( 'NONE', *, *, #214, .T. ) ;
#104 = ORIENTED_EDGE ( 'NONE', *, *, #242, .T. ) ;
#105 = ORIENTED_EDGE ( 'NONE', *, *, #58, .T. ) ;
#106 = ORIENTED_EDGE ( 'NONE', *, *, #223, .F. ) ;
#107 = AXIS2_PLACEMENT_3D ( 'NONE', #34, #90, #229 ) ;
#108 = FACE_OUTER_BOUND ( 'NONE', #43, .T. ) ;
#109 = CARTESIAN_POINT ( 'NONE',  ( -0.003999999999999999216, 1.172599310183590411E-17, 0.0000000000000000000 ) ) ;
#110 = DIRECTION ( 'NONE',  ( 0.0000000000000000000, 0.0000000000000000000, -1.000000000000000000 ) ) ;
#111 =( GEOMETRIC_REPRESENTATION_CONTEXT ( 3 ) GLOBAL_UNCERTAINTY_ASSIGNED_CONTEXT ( ( #178 ) ) GLOBAL_UNIT_ASSIGNED_CONTEXT ( ( #139, #179, #142 ) ) REPRESENTATION_CONTEXT ( 'NONE', 'WORKASPACE' ) );
#112 = DIRECTION ( 'NONE',  ( -0.2588190451025216832, -3.169619151431776035E-17, -0.9659258262890679791 ) ) ;
#113 = LINE ( 'NONE', #33, #79 ) ;
#114 = SURFACE_STYLE_USAGE ( .BOTH. , #134 ) ;
#115 = VECTOR ( 'NONE', #234, 39.37007874015748143 ) ;
#116 = EDGE_CURVE ( 'NONE', #217, #158, #113, .T. ) ;
#117 =( NAMED_UNIT ( * ) PLANE_ANGLE_UNIT ( ) SI_UNIT ( $, .RADIAN. ) );
#118 = FILL_AREA_STYLE ('',( #59 ) ) ;
#119 = CIRCLE ( 'NONE', #225, 0.003999999999999999216 ) ;
#120 = EDGE_LOOP ( 'NONE', ( #238, #243, #200, #159 ) ) ;
#121 = ORIENTED_EDGE ( 'NONE', *, *, #9, .F. ) ;
#122 = AXIS2_PLACEMENT_3D ( 'NONE', #186, #52, #247 ) ;
#123 = ORIENTED_EDGE ( 'NONE', *, *, #70, .T. ) ;
#124 = FACE_OUTER_BOUND ( 'NONE', #120, .T. ) ;
#125 = UNCERTAINTY_MEASURE_WITH_UNIT (LENGTH_MEASURE( 1.000000000000000082E-05 ), #20, 'distance_accuracy_value', 'NONE');
#126 = VECTOR ( 'NONE', #169, 39.37007874015748143 ) ;
#127 = DIRECTION ( 'NONE',  ( -0.0000000000000000000, -0.0000000000000000000, -1.000000000000000000 ) ) ;
#128 = CARTESIAN_POINT ( 'NONE',  ( 0.0000000000000000000, 0.0000000000000000000, 4.000000000000000000 ) ) ;
#129 = DIRECTION ( 'NONE',  ( -0.2588190451025216832, 3.169619151431776035E-17, 0.9659258262890679791 ) ) ;
#130 = CIRCLE ( 'NONE', #107, 0.003999999999999999216 ) ;
#131 = DIRECTION ( 'NONE',  ( -1.000000000000000000, 0.0000000000000000000, 0.0000000000000000000 ) ) ;
#132 = EDGE_CURVE ( 'NONE', #30, #7, #235, .T. ) ;
#133 = STYLED_ITEM ( 'NONE', ( #57 ), #83 ) ;
#134 = SURFACE_SIDE_STYLE ('',( #56 ) ) ;
#135 = COLOUR_RGB ( '',0.7921568627450980005, 0.8196078431372548767, 0.9333333333333333481 ) ;
#136 = DIRECTION ( 'NONE',  ( -0.0000000000000000000, -0.0000000000000000000, -1.000000000000000000 ) ) ;
#137 = ORIENTED_EDGE ( 'NONE', *, *, #116, .F. ) ;
#138 = ADVANCED_FACE ( 'NONE', ( #49 ), #206, .F. ) ;
#139 =( CONVERSION_BASED_UNIT ( 'INCH', #198 ) LENGTH_UNIT ( ) NAMED_UNIT ( #228 ) );
#140 = ADVANCED_FACE ( 'NONE', ( #92 ), #166, .T. ) ;
#141 = ORIENTED_EDGE ( 'NONE', *, *, #187, .T. ) ;
#142 =( NAMED_UNIT ( * ) SI_UNIT ( $, .STERADIAN. ) SOLID_ANGLE_UNIT ( ) );
#143 = CARTESIAN_POINT ( 'NONE',  ( 0.0000000000000000000, 0.0000000000000000000, 4.000000000000000000 ) ) ;
#144 = DIRECTION ( 'NONE',  ( 0.0000000000000000000, 0.0000000000000000000, 1.000000000000000000 ) ) ;
#145 = CARTESIAN_POINT ( 'NONE',  ( -0.003999999999999999216, -4.898587196589411612E-19, 4.000000000000000000 ) ) ;
#146 = CARTESIAN_POINT ( 'NONE',  ( 0.003999999999999999216, 0.0000000000000000000, 4.000000000000000000 ) ) ;
#147 = FACE_OUTER_BOUND ( 'NONE', #46, .T. ) ;
#148 = CARTESIAN_POINT ( 'NONE',  ( 0.0000000000000000000, 0.0000000000000000000, 0.0000000000000000000 ) ) ;
#149 =( LENGTH_UNIT ( ) NAMED_UNIT ( * ) SI_UNIT ( $, .METRE. ) );
#150 = LENGTH_MEASURE_WITH_UNIT ( LENGTH_MEASURE( 0.02539999999999999897 ), #96 );
#151 = VECTOR ( 'NONE', #37, 39.37007874015748143 ) ;
#152 = SURFACE_SIDE_STYLE ('',( #80 ) ) ;
#153 =( NAMED_UNIT ( * ) SI_UNIT ( $, .STERADIAN. ) SOLID_ANGLE_UNIT ( ) );
#154 = DIRECTION ( 'NONE',  ( 1.000000000000000000, 0.0000000000000000000, 0.0000000000000000000 ) ) ;
#155 = CONICAL_SURFACE ( 'NONE', #197, 0.003999999999999999216, 0.2617993877991502960 ) ;
#156 = CARTESIAN_POINT ( 'NONE',  ( 0.0000000000000000000, 0.0000000000000000000, 4.000000000000000000 ) ) ;
#157 = PRODUCT_CONTEXT ( 'NONE', #4, 'mechanical' ) ;
#158 = VERTEX_POINT ( 'NONE', #14 ) ;
#159 = ORIENTED_EDGE ( 'NONE', *, *, #242, .F. ) ;
#160 = AXIS2_PLACEMENT_3D ( 'NONE', #182, #81, #154 ) ;
#161 = ORIENTED_EDGE ( 'NONE', *, *, #187, .F. ) ;
#162 = DIRECTION ( 'NONE',  ( 0.0000000000000000000, 0.0000000000000000000, -1.000000000000000000 ) ) ;
#163 = LINE ( 'NONE', #145, #95 ) ;
#164 = DIRECTION ( 'NONE',  ( 1.000000000000000000, 0.0000000000000000000, 0.0000000000000000000 ) ) ;
#165 = AXIS2_PLACEMENT_3D ( 'NONE', #237, #211, #171 ) ;
#166 = PLANE ( 'NONE',  #17 ) ;
#167 = DIRECTION ( 'NONE',  ( -1.000000000000000000, 0.0000000000000000000, 0.0000000000000000000 ) ) ;
#168 = AXIS2_PLACEMENT_3D ( 'NONE', #226, #38, #167 ) ;
#169 = DIRECTION ( 'NONE',  ( -0.0000000000000000000, -0.0000000000000000000, -1.000000000000000000 ) ) ;
#170 = PRESENTATION_STYLE_ASSIGNMENT (( #114 ) ) ;
#171 = DIRECTION ( 'NONE',  ( -1.000000000000000000, 0.0000000000000000000, 0.0000000000000000000 ) ) ;
#172 = DIRECTION ( 'NONE',  ( 1.000000000000000000, 0.0000000000000000000, 0.0000000000000000000 ) ) ;
#173 = EDGE_LOOP ( 'NONE', ( #105, #123 ) ) ;
#174 = AXIS2_PLACEMENT_3D ( 'NONE', #84, #127, #246 ) ;
#175 = ADVANCED_FACE ( 'NONE', ( #230 ), #88, .T. ) ;
#176 = DIRECTION ( 'NONE',  ( -1.000000000000000000, 0.0000000000000000000, 0.0000000000000000000 ) ) ;
#177 = ORIENTED_EDGE ( 'NONE', *, *, #192, .F. ) ;
#178 = UNCERTAINTY_MEASURE_WITH_UNIT (LENGTH_MEASURE( 1.000000000000000082E-05 ), #139, 'distance_accuracy_value', 'NONE');
#179 =( NAMED_UNIT ( * ) PLANE_ANGLE_UNIT ( ) SI_UNIT ( $, .RADIAN. ) );
#180 = ORIENTED_EDGE ( 'NONE', *, *, #214, .F. ) ;
#181 = PRESENTATION_LAYER_ASSIGNMENT (  '', '', ( #133 ) ) ;
#182 = CARTESIAN_POINT ( 'NONE',  ( 0.0000000000000000000, 0.0000000000000000000, 0.0000000000000000000 ) ) ;
#183 = CARTESIAN_POINT ( 'NONE',  ( 0.0000000000000000000, 0.0000000000000000000, 0.0000000000000000000 ) ) ;
#184 = CARTESIAN_POINT ( 'NONE',  ( 0.0000000000000000000, 0.0000000000000000000, 0.0000000000000000000 ) ) ;
#185 = DIRECTION ( 'NONE',  ( -1.000000000000000000, 0.0000000000000000000, 0.0000000000000000000 ) ) ;
#186 = CARTESIAN_POINT ( 'NONE',  ( 0.0000000000000000000, 0.0000000000000000000, 4.000000000000000000 ) ) ;
#187 = EDGE_CURVE ( 'NONE', #86, #219, #163, .T. ) ;
#188 = EDGE_CURVE ( 'NONE', #86, #217, #60, .T. ) ;
#189 = LENGTH_MEASURE_WITH_UNIT ( LENGTH_MEASURE( 0.02539999999999999897 ), #149 );
#190 = CONICAL_SURFACE ( 'NONE', #160, 0.003999999999999999216, 0.2617993877991502960 ) ;
#191 = CARTESIAN_POINT ( 'NONE',  ( -0.1875000000000000278, 0.0000000000000000000, 3.315168676811113269 ) ) ;
#192 = EDGE_CURVE ( 'NONE', #199, #30, #69, .T. ) ;
#193 = AXIS2_PLACEMENT_3D ( 'NONE', #61, #136, #176 ) ;
#194 = ORIENTED_EDGE ( 'NONE', *, *, #210, .T. ) ;
#195 = VERTEX_POINT ( 'NONE', #208 ) ;
#196 = UNCERTAINTY_MEASURE_WITH_UNIT (LENGTH_MEASURE( 1.000000000000000082E-05 ), #212, 'distance_accuracy_value', 'NONE');
#197 = AXIS2_PLACEMENT_3D ( 'NONE', #232, #249, #51 ) ;
#198 = LENGTH_MEASURE_WITH_UNIT ( LENGTH_MEASURE( 0.02539999999999999897 ), #40 );
#199 = VERTEX_POINT ( 'NONE', #109 ) ;
#200 = ORIENTED_EDGE ( 'NONE', *, *, #132, .T. ) ;
#201 = PRODUCT_DEFINITION_CONTEXT ( 'detailed design', #100, 'design' ) ;
#202 = ORIENTED_EDGE ( 'NONE', *, *, #188, .F. ) ;
#203 = CYLINDRICAL_SURFACE ( 'NONE', #122, 0.1875000000000000278 ) ;
#204 = ADVANCED_FACE ( 'NONE', ( #244 ), #65, .T. ) ;
#205 = CARTESIAN_POINT ( 'NONE',  ( -0.003999999999999999216, 4.898587196589411612E-19, 0.0000000000000000000 ) ) ;
#206 = PLANE ( 'NONE',  #213 ) ;
#207 = MECHANICAL_DESIGN_GEOMETRIC_PRESENTATION_REPRESENTATION (  '', ( #87 ), #71 ) ;
#208 = CARTESIAN_POINT ( 'NONE',  ( 0.003999999999999999216, 0.0000000000000000000, 0.0000000000000000000 ) ) ;
#209 = DIRECTION ( 'NONE',  ( 0.0000000000000000000, 0.0000000000000000000, 1.000000000000000000 ) ) ;
#210 = EDGE_CURVE ( 'NONE', #219, #158, #32, .T. ) ;
#211 = DIRECTION ( 'NONE',  ( 0.0000000000000000000, 0.0000000000000000000, -1.000000000000000000 ) ) ;
#212 =( CONVERSION_BASED_UNIT ( 'INCH', #189 ) LENGTH_UNIT ( ) NAMED_UNIT ( #224 ) );
#213 = AXIS2_PLACEMENT_3D ( 'NONE', #183, #15, #89 ) ;
#214 = EDGE_CURVE ( 'NONE', #158, #7, #18, .T. ) ;
#215 =( NAMED_UNIT ( * ) PLANE_ANGLE_UNIT ( ) SI_UNIT ( $, .RADIAN. ) );
#216 = CIRCLE ( 'NONE', #165, 0.1875000000000000278 ) ;
#217 = VERTEX_POINT ( 'NONE', #146 ) ;
#218 = ORIENTED_EDGE ( 'NONE', *, *, #132, .F. ) ;
#219 = VERTEX_POINT ( 'NONE', #191 ) ;
#220 = MECHANICAL_DESIGN_GEOMETRIC_PRESENTATION_REPRESENTATION (  '', ( #133 ), #111 ) ;
#221 = DIRECTION ( 'NONE',  ( 0.0000000000000000000, 0.0000000000000000000, -1.000000000000000000 ) ) ;
#222 = DIRECTION ( 'NONE',  ( 0.0000000000000000000, 0.0000000000000000000, -1.000000000000000000 ) ) ;
#223 = EDGE_CURVE ( 'NONE', #219, #30, #1, .T. ) ;
#224 = DIMENSIONAL_EXPONENTS ( 1.000000000000000000, 0.0000000000000000000, 0.0000000000000000000, 0.0000000000000000000, 0.0000000000000000000, 0.0000000000000000000, 0.0000000000000000000 ) ;
#225 = AXIS2_PLACEMENT_3D ( 'NONE', #156, #221, #48 ) ;
#226 = CARTESIAN_POINT ( 'NONE',  ( 0.0000000000000000000, 0.0000000000000000000, 0.6848313231888862873 ) ) ;
#227 = EDGE_CURVE ( 'NONE', #158, #219, #216, .T. ) ;
#228 = DIMENSIONAL_EXPONENTS ( 1.000000000000000000, 0.0000000000000000000, 0.0000000000000000000, 0.0000000000000000000, 0.0000000000000000000, 0.0000000000000000000, 0.0000000000000000000 ) ;
#229 = DIRECTION ( 'NONE',  ( -1.000000000000000000, 0.0000000000000000000, 0.0000000000000000000 ) ) ;
#230 = FACE_OUTER_BOUND ( 'NONE', #85, .T. ) ;
#231 = AXIS2_PLACEMENT_3D ( 'NONE', #19, #55, #131 ) ;
#232 = CARTESIAN_POINT ( 'NONE',  ( 0.0000000000000000000, 0.0000000000000000000, 4.000000000000000000 ) ) ;
#233 = APPLICATION_PROTOCOL_DEFINITION ( 'draft international standard', 'automotive_design', 1998, #4 ) ;
#234 = DIRECTION ( 'NONE',  ( 0.2588190451025216832, 0.0000000000000000000, 0.9659258262890679791 ) ) ;
#235 = CIRCLE ( 'NONE', #168, 0.1875000000000000278 ) ;
#236 = SURFACE_STYLE_USAGE ( .BOTH. , #152 ) ;
#237 = CARTESIAN_POINT ( 'NONE',  ( 0.0000000000000000000, 0.0000000000000000000, 3.315168676811113269 ) ) ;
#238 = ORIENTED_EDGE ( 'NONE', *, *, #70, .F. ) ;
#239 = DIRECTION ( 'NONE',  ( 0.0000000000000000000, 0.0000000000000000000, 1.000000000000000000 ) ) ;
#240 = ORIENTED_EDGE ( 'NONE', *, *, #116, .T. ) ;
#241 = EDGE_LOOP ( 'NONE', ( #11, #141, #25, #137 ) ) ;
#242 = EDGE_CURVE ( 'NONE', #195, #7, #41, .T. ) ;
#243 = ORIENTED_EDGE ( 'NONE', *, *, #192, .T. ) ;
#244 = FACE_OUTER_BOUND ( 'NONE', #62, .T. ) ;
#245 = MANIFOLD_SOLID_BREP ( 'Mirror1', #50 ) ;
#246 = DIRECTION ( 'NONE',  ( -1.000000000000000000, 0.0000000000000000000, 0.0000000000000000000 ) ) ;
#247 = DIRECTION ( 'NONE',  ( -1.000000000000000000, 0.0000000000000000000, 0.0000000000000000000 ) ) ;
#248 = CARTESIAN_POINT ( 'NONE',  ( 0.0000000000000000000, 0.0000000000000000000, 3.315168676811113269 ) ) ;
#249 = DIRECTION ( 'NONE',  ( 0.0000000000000000000, 0.0000000000000000000, -1.000000000000000000 ) ) ;
ENDSEC;
END-ISO-10303-21;
