ISO-10303-21;
HEADER;
FILE_DESCRIPTION (( 'STEP AP214' ),
    '1' );
FILE_NAME ('Micro_SFP-187-44.STEP',
    '2021-09-02T06:14:49',
    ( '' ),
    ( '' ),
    'SwSTEP 2.0',
    'SolidWorks 2020',
    '' );
FILE_SCHEMA (( 'AUTOMOTIVE_DESIGN' ));
ENDSEC;

DATA;
#1 = EDGE_CURVE ( 'NONE', #118, #63, #145, .T. ) ;
#2 = ORIENTED_EDGE ( 'NONE', *, *, #74, .F. ) ;
#3 = CARTESIAN_POINT ( 'NONE',  ( -0.1249999999999999167, 0.0000000000000000000, 0.6777592395336415887 ) ) ;
#4 = CARTESIAN_POINT ( 'NONE',  ( -0.1250000000000000000, 0.0000000000000000000, 2.000000000000000000 ) ) ;
#5 = ORIENTED_EDGE ( 'NONE', *, *, #279, .F. ) ;
#6 = CARTESIAN_POINT ( 'NONE',  ( 1.404618771449245766E-33, 0.0000000000000000000, 1.146958267826442798E-17 ) ) ;
#7 = CIRCLE ( 'NONE', #293, 0.1099999999999996397 ) ;
#8 = UNCERTAINTY_MEASURE_WITH_UNIT (LENGTH_MEASURE( 1.000000000000000082E-05 ), #190, 'distance_accuracy_value', 'NONE');
#9 = VECTOR ( 'NONE', #96, 39.37007874015747433 ) ;
#10 = CIRCLE ( 'NONE', #112, 0.1250000000000000000 ) ;
#11 = EDGE_CURVE ( 'NONE', #70, #220, #57, .T. ) ;
#12 = DIRECTION ( 'NONE',  ( -1.224646799147353207E-16, -0.0000000000000000000, -1.000000000000000000 ) ) ;
#13 = CARTESIAN_POINT ( 'NONE',  ( 0.09365624999999999645, 1.146958267826442798E-17, -1.146958267826442798E-17 ) ) ;
#14 = MECHANICAL_DESIGN_GEOMETRIC_PRESENTATION_REPRESENTATION (  '', ( #128 ), #248 ) ;
#15 = DIRECTION ( 'NONE',  ( -1.000000000000000000, 0.0000000000000000000, 1.224646799147352961E-16 ) ) ;
#16 = ADVANCED_FACE ( 'NONE', ( #182 ), #60, .T. ) ;
#17 = CARTESIAN_POINT ( 'NONE',  ( 0.1099999999999996397, 1.347111479062084158E-17, 2.000000000000000000 ) ) ;
#18 = DIRECTION ( 'NONE',  ( 0.0000000000000000000, 0.0000000000000000000, -1.000000000000000000 ) ) ;
#19 = CARTESIAN_POINT ( 'NONE',  ( 0.0000000000000000000, 0.0000000000000000000, 2.000000000000000000 ) ) ;
#20 = ORIENTED_EDGE ( 'NONE', *, *, #189, .T. ) ;
#21 = PRODUCT_DEFINITION ( 'UNKNOWN', '', #198, #55 ) ;
#22 = DIMENSIONAL_EXPONENTS ( 1.000000000000000000, 0.0000000000000000000, 0.0000000000000000000, 0.0000000000000000000, 0.0000000000000000000, 0.0000000000000000000, 0.0000000000000000000 ) ;
#23 = DIRECTION ( 'NONE',  ( -0.0000000000000000000, -0.0000000000000000000, -1.000000000000000000 ) ) ;
#24 = ORIENTED_EDGE ( 'NONE', *, *, #11, .F. ) ;
#25 = DIRECTION ( 'NONE',  ( -1.000000000000000000, 0.0000000000000000000, 0.0000000000000000000 ) ) ;
#26 = VECTOR ( 'NONE', #126, 39.37007874015748143 ) ;
#27 = ORIENTED_EDGE ( 'NONE', *, *, #199, .F. ) ;
#28 = DIRECTION ( 'NONE',  ( 1.224646799147353207E-16, 0.0000000000000000000, 1.000000000000000000 ) ) ;
#29 = EDGE_LOOP ( 'NONE', ( #2, #256, #274, #228 ) ) ;
#30 = CYLINDRICAL_SURFACE ( 'NONE', #82, 0.1250000000000000000 ) ;
#31 = AXIS2_PLACEMENT_3D ( 'NONE', #155, #131, #193 ) ;
#32 = CARTESIAN_POINT ( 'NONE',  ( -0.09365624999999992706, 1.338883383380317076E-17, 0.5000000000000000000 ) ) ;
#33 = VECTOR ( 'NONE', #115, 39.37007874015748143 ) ;
#34 = SHAPE_DEFINITION_REPRESENTATION ( #154, #39 ) ;
#35 = EDGE_CURVE ( 'NONE', #233, #63, #177, .T. ) ;
#36 = ORIENTED_EDGE ( 'NONE', *, *, #224, .T. ) ;
#37 = PRODUCT ( 'Micro_SFP-187-44', 'Micro_SFP-187-44', '', ( #148 ) ) ;
#38 = EDGE_CURVE ( 'NONE', #233, #110, #64, .T. ) ;
#39 = ADVANCED_BREP_SHAPE_REPRESENTATION ( 'Micro_SFP-187-44', ( #254, #287 ), #242 ) ;
#40 = FACE_OUTER_BOUND ( 'NONE', #132, .T. ) ;
#41 = ORIENTED_EDGE ( 'NONE', *, *, #229, .T. ) ;
#42 = CONICAL_SURFACE ( 'NONE', #92, 0.09365624999999999645, 0.1745329251994338637 ) ;
#43 = EDGE_CURVE ( 'NONE', #110, #48, #49, .T. ) ;
#44 = ORIENTED_EDGE ( 'NONE', *, *, #62, .T. ) ;
#45 = FACE_OUTER_BOUND ( 'NONE', #46, .T. ) ;
#46 = EDGE_LOOP ( 'NONE', ( #206, #296, #181, #24 ) ) ;
#47 = DIRECTION ( 'NONE',  ( 1.000000000000000000, 0.0000000000000000000, 0.0000000000000000000 ) ) ;
#48 = VERTEX_POINT ( 'NONE', #3 ) ;
#49 = LINE ( 'NONE', #215, #9 ) ;
#50 = CARTESIAN_POINT ( 'NONE',  ( 6.123233995736766036E-17, 0.0000000000000000000, 0.5000000000000000000 ) ) ;
#51 = CARTESIAN_POINT ( 'NONE',  ( 0.0000000000000000000, 0.0000000000000000000, 2.000000000000000000 ) ) ;
#52 = ORIENTED_EDGE ( 'NONE', *, *, #224, .F. ) ;
#53 = CARTESIAN_POINT ( 'NONE',  ( 0.09365625000000006584, 0.0000000000000000000, 0.5000000000000000000 ) ) ;
#54 = FILL_AREA_STYLE_COLOUR ( '', #120 ) ;
#55 = PRODUCT_DEFINITION_CONTEXT ( 'detailed design', #219, 'design' ) ;
#56 = CARTESIAN_POINT ( 'NONE',  ( 0.0000000000000000000, 0.0000000000000000000, 2.000000000000000000 ) ) ;
#57 = CIRCLE ( 'NONE', #135, 0.09365624999999999645 ) ;
#58 = CIRCLE ( 'NONE', #240, 0.09365624999999999645 ) ;
#59 = CARTESIAN_POINT ( 'NONE',  ( 0.1250000000000000833, 1.530808498934192433E-17, 0.6777592395336415887 ) ) ;
#60 = CYLINDRICAL_SURFACE ( 'NONE', #197, 0.1250000000000000000 ) ;
#61 = CARTESIAN_POINT ( 'NONE',  ( 1.404618771449245766E-33, 0.0000000000000000000, 1.146958267826442798E-17 ) ) ;
#62 = EDGE_CURVE ( 'NONE', #208, #88, #195, .T. ) ;
#63 = VERTEX_POINT ( 'NONE', #59 ) ;
#64 = CIRCLE ( 'NONE', #103, 0.09365624999999999645 ) ;
#65 = CONICAL_SURFACE ( 'NONE', #73, 0.1099999999999996397, 0.7853981633974426169 ) ;
#66 = EDGE_LOOP ( 'NONE', ( #194, #172 ) ) ;
#67 = AXIS2_PLACEMENT_3D ( 'NONE', #51, #227, #180 ) ;
#68 = SURFACE_STYLE_USAGE ( .BOTH. , #101 ) ;
#69 = EDGE_LOOP ( 'NONE', ( #214, #262, #27, #251 ) ) ;
#70 = VERTEX_POINT ( 'NONE', #105 ) ;
#71 = DIRECTION ( 'NONE',  ( -0.7071067811865434649, 0.0000000000000000000, -0.7071067811865515695 ) ) ;
#72 = DIRECTION ( 'NONE',  ( -1.224646799147353207E-16, -0.0000000000000000000, -1.000000000000000000 ) ) ;
#73 = AXIS2_PLACEMENT_3D ( 'NONE', #85, #86, #250 ) ;
#74 = EDGE_CURVE ( 'NONE', #260, #208, #144, .T. ) ;
#75 = SURFACE_STYLE_USAGE ( .BOTH. , #127 ) ;
#76 = PLANE ( 'NONE',  #232 ) ;
#77 = PRESENTATION_STYLE_ASSIGNMENT (( #75 ) ) ;
#78 = VECTOR ( 'NONE', #231, 39.37007874015748143 ) ;
#79 = DIRECTION ( 'NONE',  ( -0.0000000000000000000, -0.0000000000000000000, -1.000000000000000000 ) ) ;
#80 = LENGTH_MEASURE_WITH_UNIT ( LENGTH_MEASURE( 0.02539999999999999897 ), #178 );
#81 = DIRECTION ( 'NONE',  ( -1.000000000000000000, 0.0000000000000000000, 1.224646799147352961E-16 ) ) ;
#82 = AXIS2_PLACEMENT_3D ( 'NONE', #188, #23, #25 ) ;
#83 = DIRECTION ( 'NONE',  ( -1.000000000000000000, 0.0000000000000000000, 1.224646799147352961E-16 ) ) ;
#84 = DIRECTION ( 'NONE',  ( 0.0000000000000000000, 0.0000000000000000000, 1.000000000000000000 ) ) ;
#85 = CARTESIAN_POINT ( 'NONE',  ( 0.0000000000000000000, 0.0000000000000000000, 2.000000000000000000 ) ) ;
#86 = DIRECTION ( 'NONE',  ( 0.0000000000000000000, 0.0000000000000000000, -1.000000000000000000 ) ) ;
#87 = CARTESIAN_POINT ( 'NONE',  ( 0.1099999999999996397, 1.438959988998137757E-17, 2.000000000000000000 ) ) ;
#88 = VERTEX_POINT ( 'NONE', #265 ) ;
#89 = ORIENTED_EDGE ( 'NONE', *, *, #169, .T. ) ;
#90 = CARTESIAN_POINT ( 'NONE',  ( -0.1099999999999996397, 0.0000000000000000000, 2.000000000000000000 ) ) ;
#91 = DIMENSIONAL_EXPONENTS ( 1.000000000000000000, 0.0000000000000000000, 0.0000000000000000000, 0.0000000000000000000, 0.0000000000000000000, 0.0000000000000000000, 0.0000000000000000000 ) ;
#92 = AXIS2_PLACEMENT_3D ( 'NONE', #237, #168, #47 ) ;
#93 =( NAMED_UNIT ( * ) PLANE_ANGLE_UNIT ( ) SI_UNIT ( $, .RADIAN. ) );
#94 = ORIENTED_EDGE ( 'NONE', *, *, #156, .F. ) ;
#95 = CARTESIAN_POINT ( 'NONE',  ( 0.0000000000000000000, 0.0000000000000000000, 1.984999999999999432 ) ) ;
#96 = DIRECTION ( 'NONE',  ( -0.1736481776669311639, 2.126576849575783008E-17, 0.9848077530122080203 ) ) ;
#97 = CARTESIAN_POINT ( 'NONE',  ( 0.0000000000000000000, 0.0000000000000000000, 2.000000000000000000 ) ) ;
#98 = SURFACE_STYLE_FILL_AREA ( #218 ) ;
#99 = CARTESIAN_POINT ( 'NONE',  ( 0.1250000000000000000, 1.530808498934191509E-17, 2.000000000000000000 ) ) ;
#100 = AXIS2_PLACEMENT_3D ( 'NONE', #50, #72, #175 ) ;
#101 = SURFACE_SIDE_STYLE ('',( #222 ) ) ;
#102 = CARTESIAN_POINT ( 'NONE',  ( 0.1250000000000000000, 1.530808498934191509E-17, 1.984999999999999432 ) ) ;
#103 = AXIS2_PLACEMENT_3D ( 'NONE', #298, #119, #171 ) ;
#104 = FACE_OUTER_BOUND ( 'NONE', #66, .T. ) ;
#105 = CARTESIAN_POINT ( 'NONE',  ( 0.09365624999999999645, 1.146958267826442798E-17, 0.0000000000000000000 ) ) ;
#106 = CARTESIAN_POINT ( 'NONE',  ( 0.0000000000000000000, 0.0000000000000000000, 2.000000000000000000 ) ) ;
#107 = VECTOR ( 'NONE', #79, 39.37007874015748143 ) ;
#108 = PRESENTATION_LAYER_ASSIGNMENT (  '', '', ( #128 ) ) ;
#109 =( CONVERSION_BASED_UNIT ( 'INCH', #80 ) LENGTH_UNIT ( ) NAMED_UNIT ( #22 ) );
#110 = VERTEX_POINT ( 'NONE', #32 ) ;
#111 = FACE_OUTER_BOUND ( 'NONE', #282, .T. ) ;
#112 = AXIS2_PLACEMENT_3D ( 'NONE', #209, #255, #204 ) ;
#113 =( NAMED_UNIT ( * ) SI_UNIT ( $, .STERADIAN. ) SOLID_ANGLE_UNIT ( ) );
#114 =( NAMED_UNIT ( * ) SI_UNIT ( $, .STERADIAN. ) SOLID_ANGLE_UNIT ( ) );
#115 = DIRECTION ( 'NONE',  ( 0.7071067811865434649, 8.659560562354883554E-17, -0.7071067811865515695 ) ) ;
#116 = DIRECTION ( 'NONE',  ( 0.0000000000000000000, 0.0000000000000000000, 1.000000000000000000 ) ) ;
#117 =( LENGTH_UNIT ( ) NAMED_UNIT ( * ) SI_UNIT ( $, .METRE. ) );
#118 = VERTEX_POINT ( 'NONE', #102 ) ;
#119 = DIRECTION ( 'NONE',  ( -1.224646799147353207E-16, -0.0000000000000000000, -1.000000000000000000 ) ) ;
#120 = COLOUR_RGB ( '',0.7921568627450980005, 0.8196078431372548767, 0.9333333333333333481 ) ;
#121 = CARTESIAN_POINT ( 'NONE',  ( 6.123233995736766036E-17, 0.0000000000000000000, 0.5000000000000000000 ) ) ;
#122 = ORIENTED_EDGE ( 'NONE', *, *, #243, .T. ) ;
#123 = DIMENSIONAL_EXPONENTS ( 1.000000000000000000, 0.0000000000000000000, 0.0000000000000000000, 0.0000000000000000000, 0.0000000000000000000, 0.0000000000000000000, 0.0000000000000000000 ) ;
#124 = UNCERTAINTY_MEASURE_WITH_UNIT (LENGTH_MEASURE( 1.000000000000000082E-05 ), #246, 'distance_accuracy_value', 'NONE');
#125 = ORIENTED_EDGE ( 'NONE', *, *, #229, .F. ) ;
#126 = DIRECTION ( 'NONE',  ( -1.224646799147353207E-16, -0.0000000000000000000, -1.000000000000000000 ) ) ;
#127 = SURFACE_SIDE_STYLE ('',( #98 ) ) ;
#128 = STYLED_ITEM ( 'NONE', ( #259 ), #39 ) ;
#129 = DIRECTION ( 'NONE',  ( 0.0000000000000000000, 0.0000000000000000000, 1.000000000000000000 ) ) ;
#130 = CIRCLE ( 'NONE', #264, 0.1250000000000000000 ) ;
#131 = DIRECTION ( 'NONE',  ( -1.224646799147353207E-16, -0.0000000000000000000, -1.000000000000000000 ) ) ;
#132 = EDGE_LOOP ( 'NONE', ( #94, #138, #44, #52 ) ) ;
#133 = CONICAL_SURFACE ( 'NONE', #67, 0.1099999999999996397, 0.7853981633974426169 ) ;
#134 = ORIENTED_EDGE ( 'NONE', *, *, #38, .F. ) ;
#135 = AXIS2_PLACEMENT_3D ( 'NONE', #61, #12, #81 ) ;
#136 = AXIS2_PLACEMENT_3D ( 'NONE', #230, #186, #83 ) ;
#137 = CARTESIAN_POINT ( 'NONE',  ( 0.0000000000000000000, 0.0000000000000000000, 1.984999999999999432 ) ) ;
#138 = ORIENTED_EDGE ( 'NONE', *, *, #169, .F. ) ;
#139 = DIRECTION ( 'NONE',  ( -1.224646799147353207E-16, -0.0000000000000000000, -1.000000000000000000 ) ) ;
#140 = CYLINDRICAL_SURFACE ( 'NONE', #196, 0.09365624999999999645 ) ;
#141 = ADVANCED_FACE ( 'NONE', ( #104 ), #76, .F. ) ;
#142 = EDGE_LOOP ( 'NONE', ( #89, #167 ) ) ;
#143 = DIRECTION ( 'NONE',  ( 1.000000000000000000, 0.0000000000000000000, 0.0000000000000000000 ) ) ;
#144 = CIRCLE ( 'NONE', #221, 0.1099999999999996397 ) ;
#145 = LINE ( 'NONE', #99, #107 ) ;
#146 = EDGE_CURVE ( 'NONE', #233, #70, #270, .T. ) ;
#147 = CARTESIAN_POINT ( 'NONE',  ( 0.09365625000000006584, 0.0000000000000000000, 0.5000000000000000000 ) ) ;
#148 = PRODUCT_CONTEXT ( 'NONE', #281, 'mechanical' ) ;
#149 = ADVANCED_FACE ( 'NONE', ( #40 ), #65, .T. ) ;
#150 = STYLED_ITEM ( 'NONE', ( #77 ), #254 ) ;
#151 = DIRECTION ( 'NONE',  ( 1.000000000000000000, 0.0000000000000000000, 0.0000000000000000000 ) ) ;
#152 = ORIENTED_EDGE ( 'NONE', *, *, #35, .F. ) ;
#153 =( LENGTH_UNIT ( ) NAMED_UNIT ( * ) SI_UNIT ( $, .METRE. ) );
#154 = PRODUCT_DEFINITION_SHAPE ( 'NONE', 'NONE',  #21 ) ;
#155 = CARTESIAN_POINT ( 'NONE',  ( 8.300156832874184869E-17, 0.0000000000000000000, 0.6777592395336415887 ) ) ;
#156 = EDGE_CURVE ( 'NONE', #260, #118, #234, .T. ) ;
#157 = ADVANCED_FACE ( 'NONE', ( #275 ), #30, .T. ) ;
#158 =( NAMED_UNIT ( * ) PLANE_ANGLE_UNIT ( ) SI_UNIT ( $, .RADIAN. ) );
#159 = ORIENTED_EDGE ( 'NONE', *, *, #35, .T. ) ;
#160 = CLOSED_SHELL ( 'NONE', ( #291, #166, #269, #157, #16, #205, #149, #212, #202, #141 ) ) ;
#161 = FACE_OUTER_BOUND ( 'NONE', #142, .T. ) ;
#162 = ORIENTED_EDGE ( 'NONE', *, *, #43, .T. ) ;
#163 = AXIS2_PLACEMENT_3D ( 'NONE', #121, #28, #217 ) ;
#164 = DIRECTION ( 'NONE',  ( 1.000000000000000000, 0.0000000000000000000, -0.0000000000000000000 ) ) ;
#165 = FACE_OUTER_BOUND ( 'NONE', #191, .T. ) ;
#166 = ADVANCED_FACE ( 'NONE', ( #165 ), #276, .T. ) ;
#167 = ORIENTED_EDGE ( 'NONE', *, *, #74, .T. ) ;
#168 = DIRECTION ( 'NONE',  ( 1.224646799147353207E-16, 0.0000000000000000000, 1.000000000000000000 ) ) ;
#169 = EDGE_CURVE ( 'NONE', #208, #260, #7, .T. ) ;
#170 = ORIENTED_EDGE ( 'NONE', *, *, #1, .F. ) ;
#171 = DIRECTION ( 'NONE',  ( -1.000000000000000000, 0.0000000000000000000, 0.0000000000000000000 ) ) ;
#172 = ORIENTED_EDGE ( 'NONE', *, *, #11, .T. ) ;
#173 = EDGE_CURVE ( 'NONE', #88, #118, #289, .T. ) ;
#174 = AXIS2_PLACEMENT_3D ( 'NONE', #95, #213, #207 ) ;
#175 = DIRECTION ( 'NONE',  ( -1.000000000000000000, 0.0000000000000000000, 0.0000000000000000000 ) ) ;
#176 = CIRCLE ( 'NONE', #31, 0.1250000000000000000 ) ;
#177 = LINE ( 'NONE', #147, #247 ) ;
#178 =( LENGTH_UNIT ( ) NAMED_UNIT ( * ) SI_UNIT ( $, .METRE. ) );
#179 = APPLICATION_PROTOCOL_DEFINITION ( 'draft international standard', 'automotive_design', 1998, #219 ) ;
#180 = DIRECTION ( 'NONE',  ( -1.000000000000000000, 0.0000000000000000000, 0.0000000000000000000 ) ) ;
#181 = ORIENTED_EDGE ( 'NONE', *, *, #226, .T. ) ;
#182 = FACE_OUTER_BOUND ( 'NONE', #272, .T. ) ;
#183 = CYLINDRICAL_SURFACE ( 'NONE', #136, 0.09365624999999999645 ) ;
#184 = CARTESIAN_POINT ( 'NONE',  ( 0.0000000000000000000, 0.0000000000000000000, 0.0000000000000000000 ) ) ;
#185 = MECHANICAL_DESIGN_GEOMETRIC_PRESENTATION_REPRESENTATION (  '', ( #150 ), #284 ) ;
#186 = DIRECTION ( 'NONE',  ( -1.224646799147353207E-16, -0.0000000000000000000, -1.000000000000000000 ) ) ;
#187 = ORIENTED_EDGE ( 'NONE', *, *, #43, .F. ) ;
#188 = CARTESIAN_POINT ( 'NONE',  ( 0.0000000000000000000, 0.0000000000000000000, 2.000000000000000000 ) ) ;
#189 = EDGE_CURVE ( 'NONE', #88, #48, #297, .T. ) ;
#190 =( CONVERSION_BASED_UNIT ( 'INCH', #210 ) LENGTH_UNIT ( ) NAMED_UNIT ( #91 ) );
#191 = EDGE_LOOP ( 'NONE', ( #125, #162, #277, #152 ) ) ;
#192 = ORIENTED_EDGE ( 'NONE', *, *, #226, .F. ) ;
#193 = DIRECTION ( 'NONE',  ( 1.000000000000000000, 0.0000000000000000000, 0.0000000000000000000 ) ) ;
#194 = ORIENTED_EDGE ( 'NONE', *, *, #279, .T. ) ;
#195 = LINE ( 'NONE', #283, #225 ) ;
#196 = AXIS2_PLACEMENT_3D ( 'NONE', #238, #139, #216 ) ;
#197 = AXIS2_PLACEMENT_3D ( 'NONE', #106, #285, #223 ) ;
#198 = PRODUCT_DEFINITION_FORMATION_WITH_SPECIFIED_SOURCE ( 'ANY', '', #37, .NOT_KNOWN. ) ;
#199 = EDGE_CURVE ( 'NONE', #48, #63, #10, .T. ) ;
#200 = CARTESIAN_POINT ( 'NONE',  ( 0.0000000000000000000, 0.0000000000000000000, 0.0000000000000000000 ) ) ;
#201 = ORIENTED_EDGE ( 'NONE', *, *, #146, .T. ) ;
#202 = ADVANCED_FACE ( 'NONE', ( #45 ), #140, .T. ) ;
#203 = DIRECTION ( 'NONE',  ( 0.1736481776669313581, 0.0000000000000000000, 0.9848077530122077983 ) ) ;
#204 = DIRECTION ( 'NONE',  ( 1.000000000000000000, 0.0000000000000000000, 0.0000000000000000000 ) ) ;
#205 = ADVANCED_FACE ( 'NONE', ( #161 ), #257, .T. ) ;
#206 = ORIENTED_EDGE ( 'NONE', *, *, #146, .F. ) ;
#207 = DIRECTION ( 'NONE',  ( 1.000000000000000000, 0.0000000000000000000, 0.0000000000000000000 ) ) ;
#208 = VERTEX_POINT ( 'NONE', #90 ) ;
#209 = CARTESIAN_POINT ( 'NONE',  ( 8.300156832874184869E-17, 0.0000000000000000000, 0.6777592395336415887 ) ) ;
#210 = LENGTH_MEASURE_WITH_UNIT ( LENGTH_MEASURE( 0.02539999999999999897 ), #117 );
#211 = EDGE_LOOP ( 'NONE', ( #187, #134, #159, #122 ) ) ;
#212 = ADVANCED_FACE ( 'NONE', ( #278 ), #42, .T. ) ;
#213 = DIRECTION ( 'NONE',  ( 0.0000000000000000000, 0.0000000000000000000, -1.000000000000000000 ) ) ;
#214 = ORIENTED_EDGE ( 'NONE', *, *, #173, .T. ) ;
#215 = CARTESIAN_POINT ( 'NONE',  ( -0.09365624999999992706, 1.146958267826442798E-17, 0.5000000000000000000 ) ) ;
#216 = DIRECTION ( 'NONE',  ( -1.000000000000000000, 0.0000000000000000000, 1.224646799147352961E-16 ) ) ;
#217 = DIRECTION ( 'NONE',  ( 1.000000000000000000, 0.0000000000000000000, 0.0000000000000000000 ) ) ;
#218 = FILL_AREA_STYLE ('',( #54 ) ) ;
#219 = APPLICATION_CONTEXT ( 'automotive_design' ) ;
#220 = VERTEX_POINT ( 'NONE', #235 ) ;
#221 = AXIS2_PLACEMENT_3D ( 'NONE', #56, #129, #151 ) ;
#222 = SURFACE_STYLE_FILL_AREA ( #241 ) ;
#223 = DIRECTION ( 'NONE',  ( -1.000000000000000000, 0.0000000000000000000, 0.0000000000000000000 ) ) ;
#224 = EDGE_CURVE ( 'NONE', #118, #88, #130, .T. ) ;
#225 = VECTOR ( 'NONE', #71, 39.37007874015748143 ) ;
#226 = EDGE_CURVE ( 'NONE', #110, #220, #261, .T. ) ;
#227 = DIRECTION ( 'NONE',  ( 0.0000000000000000000, 0.0000000000000000000, -1.000000000000000000 ) ) ;
#228 = ORIENTED_EDGE ( 'NONE', *, *, #62, .F. ) ;
#229 = EDGE_CURVE ( 'NONE', #110, #233, #267, .T. ) ;
#230 = CARTESIAN_POINT ( 'NONE',  ( 0.0000000000000000000, 0.0000000000000000000, 0.0000000000000000000 ) ) ;
#231 = DIRECTION ( 'NONE',  ( -0.0000000000000000000, -0.0000000000000000000, -1.000000000000000000 ) ) ;
#232 = AXIS2_PLACEMENT_3D ( 'NONE', #200, #266, #286 ) ;
#233 = VERTEX_POINT ( 'NONE', #53 ) ;
#234 = LINE ( 'NONE', #17, #33 ) ;
#235 = CARTESIAN_POINT ( 'NONE',  ( -0.09365624999999999645, 0.0000000000000000000, 2.293916535652885596E-17 ) ) ;
#236 = ORIENTED_EDGE ( 'NONE', *, *, #243, .F. ) ;
#237 = CARTESIAN_POINT ( 'NONE',  ( 6.123233995736766036E-17, 0.0000000000000000000, 0.5000000000000000000 ) ) ;
#238 = CARTESIAN_POINT ( 'NONE',  ( 0.0000000000000000000, 0.0000000000000000000, 0.0000000000000000000 ) ) ;
#239 = CARTESIAN_POINT ( 'NONE',  ( -0.09365624999999999645, 0.0000000000000000000, 1.146958267826442798E-17 ) ) ;
#240 = AXIS2_PLACEMENT_3D ( 'NONE', #6, #245, #15 ) ;
#241 = FILL_AREA_STYLE ('',( #263 ) ) ;
#242 =( GEOMETRIC_REPRESENTATION_CONTEXT ( 3 ) GLOBAL_UNCERTAINTY_ASSIGNED_CONTEXT ( ( #124 ) ) GLOBAL_UNIT_ASSIGNED_CONTEXT ( ( #246, #158, #113 ) ) REPRESENTATION_CONTEXT ( 'NONE', 'WORKASPACE' ) );
#243 = EDGE_CURVE ( 'NONE', #63, #48, #176, .T. ) ;
#244 = APPLICATION_PROTOCOL_DEFINITION ( 'draft international standard', 'automotive_design', 1998, #281 ) ;
#245 = DIRECTION ( 'NONE',  ( -1.224646799147353207E-16, -0.0000000000000000000, -1.000000000000000000 ) ) ;
#246 =( CONVERSION_BASED_UNIT ( 'INCH', #249 ) LENGTH_UNIT ( ) NAMED_UNIT ( #123 ) );
#247 = VECTOR ( 'NONE', #203, 39.37007874015748143 ) ;
#248 =( GEOMETRIC_REPRESENTATION_CONTEXT ( 3 ) GLOBAL_UNCERTAINTY_ASSIGNED_CONTEXT ( ( #8 ) ) GLOBAL_UNIT_ASSIGNED_CONTEXT ( ( #190, #93, #258 ) ) REPRESENTATION_CONTEXT ( 'NONE', 'WORKASPACE' ) );
#249 = LENGTH_MEASURE_WITH_UNIT ( LENGTH_MEASURE( 0.02539999999999999897 ), #153 );
#250 = DIRECTION ( 'NONE',  ( -1.000000000000000000, 0.0000000000000000000, 0.0000000000000000000 ) ) ;
#251 = ORIENTED_EDGE ( 'NONE', *, *, #189, .F. ) ;
#252 = DIRECTION ( 'NONE',  ( 1.000000000000000000, 0.0000000000000000000, 0.0000000000000000000 ) ) ;
#253 = COLOUR_RGB ( '',0.7921568627450980005, 0.8196078431372548767, 0.9333333333333333481 ) ;
#254 = MANIFOLD_SOLID_BREP ( 'Cut-Revolve1', #160 ) ;
#255 = DIRECTION ( 'NONE',  ( -1.224646799147353207E-16, -0.0000000000000000000, -1.000000000000000000 ) ) ;
#256 = ORIENTED_EDGE ( 'NONE', *, *, #156, .T. ) ;
#257 = PLANE ( 'NONE',  #294 ) ;
#258 =( NAMED_UNIT ( * ) SI_UNIT ( $, .STERADIAN. ) SOLID_ANGLE_UNIT ( ) );
#259 = PRESENTATION_STYLE_ASSIGNMENT (( #68 ) ) ;
#260 = VERTEX_POINT ( 'NONE', #87 ) ;
#261 = LINE ( 'NONE', #239, #26 ) ;
#262 = ORIENTED_EDGE ( 'NONE', *, *, #1, .T. ) ;
#263 = FILL_AREA_STYLE_COLOUR ( '', #253 ) ;
#264 = AXIS2_PLACEMENT_3D ( 'NONE', #137, #18, #143 ) ;
#265 = CARTESIAN_POINT ( 'NONE',  ( -0.1250000000000000000, 0.0000000000000000000, 1.984999999999999432 ) ) ;
#266 = DIRECTION ( 'NONE',  ( 0.0000000000000000000, 0.0000000000000000000, 1.000000000000000000 ) ) ;
#267 = CIRCLE ( 'NONE', #100, 0.09365624999999999645 ) ;
#268 = DIRECTION ( 'NONE',  ( 1.000000000000000000, 0.0000000000000000000, 0.0000000000000000000 ) ) ;
#269 = ADVANCED_FACE ( 'NONE', ( #273 ), #133, .T. ) ;
#270 = LINE ( 'NONE', #13, #271 ) ;
#271 = VECTOR ( 'NONE', #290, 39.37007874015748143 ) ;
#272 = EDGE_LOOP ( 'NONE', ( #170, #36, #20, #236 ) ) ;
#273 = FACE_OUTER_BOUND ( 'NONE', #29, .T. ) ;
#274 = ORIENTED_EDGE ( 'NONE', *, *, #173, .F. ) ;
#275 = FACE_OUTER_BOUND ( 'NONE', #69, .T. ) ;
#276 = CONICAL_SURFACE ( 'NONE', #163, 0.09365624999999999645, 0.1745329251994338637 ) ;
#277 = ORIENTED_EDGE ( 'NONE', *, *, #199, .T. ) ;
#278 = FACE_OUTER_BOUND ( 'NONE', #211, .T. ) ;
#279 = EDGE_CURVE ( 'NONE', #220, #70, #58, .T. ) ;
#280 = DIRECTION ( 'NONE',  ( 0.0000000000000000000, 0.0000000000000000000, 1.000000000000000000 ) ) ;
#281 = APPLICATION_CONTEXT ( 'automotive_design' ) ;
#282 = EDGE_LOOP ( 'NONE', ( #41, #201, #5, #192 ) ) ;
#283 = CARTESIAN_POINT ( 'NONE',  ( -0.1099999999999996397, 0.0000000000000000000, 2.000000000000000000 ) ) ;
#284 =( GEOMETRIC_REPRESENTATION_CONTEXT ( 3 ) GLOBAL_UNCERTAINTY_ASSIGNED_CONTEXT ( ( #288 ) ) GLOBAL_UNIT_ASSIGNED_CONTEXT ( ( #109, #292, #114 ) ) REPRESENTATION_CONTEXT ( 'NONE', 'WORKASPACE' ) );
#285 = DIRECTION ( 'NONE',  ( -0.0000000000000000000, -0.0000000000000000000, -1.000000000000000000 ) ) ;
#286 = DIRECTION ( 'NONE',  ( 1.000000000000000000, 0.0000000000000000000, -0.0000000000000000000 ) ) ;
#287 = AXIS2_PLACEMENT_3D ( 'NONE', #184, #84, #268 ) ;
#288 = UNCERTAINTY_MEASURE_WITH_UNIT (LENGTH_MEASURE( 1.000000000000000082E-05 ), #109, 'distance_accuracy_value', 'NONE');
#289 = CIRCLE ( 'NONE', #174, 0.1250000000000000000 ) ;
#290 = DIRECTION ( 'NONE',  ( -1.224646799147353207E-16, -0.0000000000000000000, -1.000000000000000000 ) ) ;
#291 = ADVANCED_FACE ( 'NONE', ( #111 ), #183, .T. ) ;
#292 =( NAMED_UNIT ( * ) PLANE_ANGLE_UNIT ( ) SI_UNIT ( $, .RADIAN. ) );
#293 = AXIS2_PLACEMENT_3D ( 'NONE', #19, #116, #252 ) ;
#294 = AXIS2_PLACEMENT_3D ( 'NONE', #97, #280, #164 ) ;
#295 = PRODUCT_RELATED_PRODUCT_CATEGORY ( 'part', '', ( #37 ) ) ;
#296 = ORIENTED_EDGE ( 'NONE', *, *, #38, .T. ) ;
#297 = LINE ( 'NONE', #4, #78 ) ;
#298 = CARTESIAN_POINT ( 'NONE',  ( 6.123233995736766036E-17, 0.0000000000000000000, 0.5000000000000000000 ) ) ;
#299 = PRESENTATION_LAYER_ASSIGNMENT (  '', '', ( #150 ) ) ;
ENDSEC;
END-ISO-10303-21;
