ISO-10303-21;
HEADER;
FILE_DESCRIPTION (( 'STEP AP214' ),
    '1' );
FILE_NAME ('82268W.STEP',
    '2023-06-23T04:59:49',
    ( '' ),
    ( '' ),
    'SwSTEP 2.0',
    'SolidWorks 2023',
    '' );
FILE_SCHEMA (( 'AUTOMOTIVE_DESIGN' ));
ENDSEC;

DATA;
#1 =( CONVERSION_BASED_UNIT ( 'INCH', #67 ) LENGTH_UNIT ( ) NAMED_UNIT ( #51 ) );
#2 = VECTOR ( 'NONE', #269, 39.37007874015748143 ) ;
#3 = APPLICATION_CONTEXT ( 'automotive_design' ) ;
#4 = FILL_AREA_STYLE ('',( #180 ) ) ;
#5 = ORIENTED_EDGE ( 'NONE', *, *, #73, .T. ) ;
#6 = SURFACE_STYLE_FILL_AREA ( #29 ) ;
#7 = FILL_AREA_STYLE ('',( #155 ) ) ;
#8 = EDGE_CURVE ( 'NONE', #245, #125, #54, .T. ) ;
#9 = DIRECTION ( 'NONE',  ( 0.000000000000000000, 0.000000000000000000, 1.000000000000000000 ) ) ;
#10 = DIRECTION ( 'NONE',  ( 1.000000000000000000, 6.123233995736769734E-17, 0.000000000000000000 ) ) ;
#11 = SURFACE_STYLE_USAGE ( .BOTH. , #249 ) ;
#12 = DIRECTION ( 'NONE',  ( -1.000000000000000000, 0.000000000000000000, 0.000000000000000000 ) ) ;
#13 = ORIENTED_EDGE ( 'NONE', *, *, #94, .T. ) ;
#14 = AXIS2_PLACEMENT_3D ( 'NONE', #79, #177, #107 ) ;
#15 = AXIS2_PLACEMENT_3D ( 'NONE', #284, #119, #92 ) ;
#16 = LINE ( 'NONE', #186, #161 ) ;
#17 = SURFACE_SIDE_STYLE ('',( #295 ) ) ;
#18 = VERTEX_POINT ( 'NONE', #45 ) ;
#19 = VERTEX_POINT ( 'NONE', #142 ) ;
#20 = COLOUR_RGB ( '',0.7921568627450980005, 0.8196078431372548767, 0.9333333333333333481 ) ;
#21 = FACE_OUTER_BOUND ( 'NONE', #303, .T. ) ;
#22 = AXIS2_PLACEMENT_3D ( 'NONE', #116, #211, #88 ) ;
#23 = UNCERTAINTY_MEASURE_WITH_UNIT (LENGTH_MEASURE( 1.000000000000000082E-05 ), #223, 'distance_accuracy_value', 'NONE');
#24 = CARTESIAN_POINT ( 'NONE',  ( 0.000000000000000000, 0.000000000000000000, 0.000000000000000000 ) ) ;
#25 = EDGE_CURVE ( 'NONE', #125, #245, #32, .T. ) ;
#26 = UNCERTAINTY_MEASURE_WITH_UNIT (LENGTH_MEASURE( 1.000000000000000082E-05 ), #262, 'distance_accuracy_value', 'NONE');
#27 = CARTESIAN_POINT ( 'NONE',  ( 0.000000000000000000, 1.000000000000000000, 0.000000000000000000 ) ) ;
#28 = CIRCLE ( 'NONE', #22, 0.1875000000000000278 ) ;
#29 = FILL_AREA_STYLE ('',( #260 ) ) ;
#30 =( CONVERSION_BASED_UNIT ( 'INCH', #137 ) LENGTH_UNIT ( ) NAMED_UNIT ( #93 ) );
#31 = SURFACE_STYLE_USAGE ( .BOTH. , #126 ) ;
#32 = CIRCLE ( 'NONE', #207, 0.1875000000000000278 ) ;
#33 = LENGTH_MEASURE_WITH_UNIT ( LENGTH_MEASURE( 0.02539999999999999897 ), #122 );
#34 =( LENGTH_UNIT ( ) NAMED_UNIT ( * ) SI_UNIT ( $, .METRE. ) );
#35 =( NAMED_UNIT ( * ) PLANE_ANGLE_UNIT ( ) SI_UNIT ( $, .RADIAN. ) );
#36 = LENGTH_MEASURE_WITH_UNIT ( LENGTH_MEASURE( 0.02539999999999999897 ), #226 );
#37 = MECHANICAL_DESIGN_GEOMETRIC_PRESENTATION_REPRESENTATION (  '', ( #229 ), #183 ) ;
#38 = SURFACE_STYLE_FILL_AREA ( #7 ) ;
#39 = VERTEX_POINT ( 'NONE', #163 ) ;
#40 = DIRECTION ( 'NONE',  ( -0.000000000000000000, -1.000000000000000000, -0.000000000000000000 ) ) ;
#41 = PRESENTATION_LAYER_ASSIGNMENT (  '', '', ( #308 ) ) ;
#42 =( LENGTH_UNIT ( ) NAMED_UNIT ( * ) SI_UNIT ( $, .METRE. ) );
#43 =( LENGTH_UNIT ( ) NAMED_UNIT ( * ) SI_UNIT ( $, .METRE. ) );
#44 = ADVANCED_FACE ( 'NONE', ( #21 ), #272, .T. ) ;
#45 = CARTESIAN_POINT ( 'NONE',  ( 2.296212748401287726E-17, 0.000000000000000000, 0.1875000000000000278 ) ) ;
#46 = PRESENTATION_STYLE_ASSIGNMENT (( #210 ) ) ;
#47 = STYLED_ITEM ( 'NONE', ( #296 ), #182 ) ;
#48 = DIRECTION ( 'NONE',  ( -6.123233995736769734E-17, 1.000000000000000000, -0.000000000000000000 ) ) ;
#49 = CYLINDRICAL_SURFACE ( 'NONE', #82, 0.1875000000000000833 ) ;
#50 = CARTESIAN_POINT ( 'NONE',  ( -0.1875000000000000278, 1.000000000000000000, 0.000000000000000000 ) ) ;
#51 = DIMENSIONAL_EXPONENTS ( 1.000000000000000000, 0.000000000000000000, 0.000000000000000000, 0.000000000000000000, 0.000000000000000000, 0.000000000000000000, 0.000000000000000000 ) ;
#52 = PRODUCT_DEFINITION_CONTEXT ( 'detailed design', #3, 'design' ) ;
#53 = CARTESIAN_POINT ( 'NONE',  ( -1.224646799147353700E-16, 3.000000000000000444, 0.000000000000000000 ) ) ;
#54 = CIRCLE ( 'NONE', #280, 0.1875000000000000278 ) ;
#55 =( GEOMETRIC_REPRESENTATION_CONTEXT ( 3 ) GLOBAL_UNCERTAINTY_ASSIGNED_CONTEXT ( ( #68 ) ) GLOBAL_UNIT_ASSIGNED_CONTEXT ( ( #1, #185, #89 ) ) REPRESENTATION_CONTEXT ( 'NONE', 'WORKASPACE' ) );
#56 =( GEOMETRIC_REPRESENTATION_CONTEXT ( 3 ) GLOBAL_UNCERTAINTY_ASSIGNED_CONTEXT ( ( #255 ) ) GLOBAL_UNIT_ASSIGNED_CONTEXT ( ( #184, #159, #141 ) ) REPRESENTATION_CONTEXT ( 'NONE', 'WORKASPACE' ) );
#57 = CARTESIAN_POINT ( 'NONE',  ( 0.1875000000000000278, 3.000000000000000444, 0.000000000000000000 ) ) ;
#58 = VERTEX_POINT ( 'NONE', #289 ) ;
#59 = FACE_OUTER_BOUND ( 'NONE', #304, .T. ) ;
#60 = CARTESIAN_POINT ( 'NONE',  ( -0.1875000000000002220, 3.000000000000000444, 0.000000000000000000 ) ) ;
#61 = FILL_AREA_STYLE ('',( #263 ) ) ;
#62 = CARTESIAN_POINT ( 'NONE',  ( 0.1875000000000000278, 1.000000000000000000, 2.296212748401288650E-17 ) ) ;
#63 = MECHANICAL_DESIGN_GEOMETRIC_PRESENTATION_REPRESENTATION (  '', ( #308 ), #56 ) ;
#64 = CARTESIAN_POINT ( 'NONE',  ( 3.032960542342103792E-32, 1.000000000000000000, 0.000000000000000000 ) ) ;
#65 = EDGE_CURVE ( 'NONE', #134, #58, #217, .T. ) ;
#66 = DIRECTION ( 'NONE',  ( -0.000000000000000000, -1.000000000000000000, -0.000000000000000000 ) ) ;
#67 = LENGTH_MEASURE_WITH_UNIT ( LENGTH_MEASURE( 0.02539999999999999897 ), #148 );
#68 = UNCERTAINTY_MEASURE_WITH_UNIT (LENGTH_MEASURE( 1.000000000000000082E-05 ), #1, 'distance_accuracy_value', 'NONE');
#69 = CYLINDRICAL_SURFACE ( 'NONE', #264, 0.1875000000000000833 ) ;
#70 = DIMENSIONAL_EXPONENTS ( 1.000000000000000000, 0.000000000000000000, 0.000000000000000000, 0.000000000000000000, 0.000000000000000000, 0.000000000000000000, 0.000000000000000000 ) ;
#71 = PRESENTATION_LAYER_ASSIGNMENT (  '', '', ( #115 ) ) ;
#72 =( NAMED_UNIT ( * ) PLANE_ANGLE_UNIT ( ) SI_UNIT ( $, .RADIAN. ) );
#73 = EDGE_CURVE ( 'NONE', #39, #209, #252, .T. ) ;
#74 = ORIENTED_EDGE ( 'NONE', *, *, #273, .T. ) ;
#75 = CLOSED_SHELL ( 'NONE', ( #182, #106, #225, #44 ) ) ;
#76 = CIRCLE ( 'NONE', #233, 0.1875000000000000278 ) ;
#77 = SURFACE_STYLE_USAGE ( .BOTH. , #290 ) ;
#78 = ORIENTED_EDGE ( 'NONE', *, *, #273, .F. ) ;
#79 = CARTESIAN_POINT ( 'NONE',  ( -1.224646799147353700E-16, 3.000000000000000444, 0.000000000000000000 ) ) ;
#80 = ORIENTED_EDGE ( 'NONE', *, *, #65, .T. ) ;
#81 = DIRECTION ( 'NONE',  ( -6.123233995736769734E-17, 1.000000000000000000, -0.000000000000000000 ) ) ;
#82 = AXIS2_PLACEMENT_3D ( 'NONE', #307, #81, #12 ) ;
#83 = ORIENTED_EDGE ( 'NONE', *, *, #285, .T. ) ;
#84 = ORIENTED_EDGE ( 'NONE', *, *, #25, .T. ) ;
#85 = DIRECTION ( 'NONE',  ( -6.123233995736769734E-17, 1.000000000000000000, -0.000000000000000000 ) ) ;
#86 = DIRECTION ( 'NONE',  ( -1.000000000000000000, 0.000000000000000000, 0.000000000000000000 ) ) ;
#87 = UNCERTAINTY_MEASURE_WITH_UNIT (LENGTH_MEASURE( 1.000000000000000082E-05 ), #153, 'distance_accuracy_value', 'NONE');
#88 = DIRECTION ( 'NONE',  ( 0.000000000000000000, 0.000000000000000000, -1.000000000000000000 ) ) ;
#89 =( NAMED_UNIT ( * ) SI_UNIT ( $, .STERADIAN. ) SOLID_ANGLE_UNIT ( ) );
#90 = VECTOR ( 'NONE', #268, 39.37007874015748143 ) ;
#91 = MECHANICAL_DESIGN_GEOMETRIC_PRESENTATION_REPRESENTATION (  '', ( #110 ), #130 ) ;
#92 = DIRECTION ( 'NONE',  ( -1.000000000000000000, 0.000000000000000000, 0.000000000000000000 ) ) ;
#93 = DIMENSIONAL_EXPONENTS ( 1.000000000000000000, 0.000000000000000000, 0.000000000000000000, 0.000000000000000000, 0.000000000000000000, 0.000000000000000000, 0.000000000000000000 ) ;
#94 = EDGE_CURVE ( 'NONE', #245, #39, #205, .T. ) ;
#95 = DIRECTION ( 'NONE',  ( -6.123233995736769734E-17, 1.000000000000000000, 0.000000000000000000 ) ) ;
#96 = CIRCLE ( 'NONE', #121, 0.1875000000000000278 ) ;
#97 = DIRECTION ( 'NONE',  ( 1.000000000000000000, 0.000000000000000000, 0.000000000000000000 ) ) ;
#98 = PRESENTATION_STYLE_ASSIGNMENT (( #31 ) ) ;
#99 = FACE_OUTER_BOUND ( 'NONE', #109, .T. ) ;
#100 =( NAMED_UNIT ( * ) SI_UNIT ( $, .STERADIAN. ) SOLID_ANGLE_UNIT ( ) );
#101 = SURFACE_STYLE_USAGE ( .BOTH. , #128 ) ;
#102 = EDGE_LOOP ( 'NONE', ( #244, #140 ) ) ;
#103 = ORIENTED_EDGE ( 'NONE', *, *, #129, .F. ) ;
#104 = PRESENTATION_STYLE_ASSIGNMENT (( #11 ) ) ;
#105 = EDGE_LOOP ( 'NONE', ( #103, #84, #13, #162 ) ) ;
#106 = ADVANCED_FACE ( 'NONE', ( #59 ), #246, .T. ) ;
#107 = DIRECTION ( 'NONE',  ( -1.000000000000000000, 0.000000000000000000, 0.000000000000000000 ) ) ;
#108 = SURFACE_STYLE_FILL_AREA ( #61 ) ;
#109 = EDGE_LOOP ( 'NONE', ( #5, #291 ) ) ;
#110 = STYLED_ITEM ( 'NONE', ( #160 ), #225 ) ;
#111 = EDGE_CURVE ( 'NONE', #18, #58, #146, .T. ) ;
#112 = EDGE_LOOP ( 'NONE', ( #219, #250, #80, #156 ) ) ;
#113 = ORIENTED_EDGE ( 'NONE', *, *, #73, .F. ) ;
#114 = CLOSED_SHELL ( 'NONE', ( #175, #259, #234, #187 ) ) ;
#115 = STYLED_ITEM ( 'NONE', ( #98 ), #300 ) ;
#116 = CARTESIAN_POINT ( 'NONE',  ( 0.000000000000000000, 1.000000000000000000, 0.000000000000000000 ) ) ;
#117 = DIRECTION ( 'NONE',  ( -0.000000000000000000, -1.000000000000000000, -0.000000000000000000 ) ) ;
#118 = COLOUR_RGB ( '',0.7921568627450980005, 0.8196078431372548767, 0.9333333333333333481 ) ;
#119 = DIRECTION ( 'NONE',  ( -6.123233995736769734E-17, 1.000000000000000000, -0.000000000000000000 ) ) ;
#120 =( NAMED_UNIT ( * ) SI_UNIT ( $, .STERADIAN. ) SOLID_ANGLE_UNIT ( ) );
#121 = AXIS2_PLACEMENT_3D ( 'NONE', #27, #239, #261 ) ;
#122 =( LENGTH_UNIT ( ) NAMED_UNIT ( * ) SI_UNIT ( $, .METRE. ) );
#123 = ORIENTED_EDGE ( 'NONE', *, *, #111, .T. ) ;
#124 =( NAMED_UNIT ( * ) SI_UNIT ( $, .STERADIAN. ) SOLID_ANGLE_UNIT ( ) );
#125 = VERTEX_POINT ( 'NONE', #62 ) ;
#126 = SURFACE_SIDE_STYLE ('',( #6 ) ) ;
#127 = ADVANCED_BREP_SHAPE_REPRESENTATION ( '82268W', ( #300, #197, #208 ), #222 ) ;
#128 = SURFACE_SIDE_STYLE ('',( #108 ) ) ;
#129 = EDGE_CURVE ( 'NONE', #125, #209, #16, .T. ) ;
#130 =( GEOMETRIC_REPRESENTATION_CONTEXT ( 3 ) GLOBAL_UNCERTAINTY_ASSIGNED_CONTEXT ( ( #26 ) ) GLOBAL_UNIT_ASSIGNED_CONTEXT ( ( #262, #168, #120 ) ) REPRESENTATION_CONTEXT ( 'NONE', 'WORKASPACE' ) );
#131 = FILL_AREA_STYLE_COLOUR ( '', #172 ) ;
#132 = SURFACE_STYLE_USAGE ( .BOTH. , #218 ) ;
#133 =( LENGTH_UNIT ( ) NAMED_UNIT ( * ) SI_UNIT ( $, .METRE. ) );
#134 = VERTEX_POINT ( 'NONE', #143 ) ;
#135 = EDGE_CURVE ( 'NONE', #19, #18, #274, .T. ) ;
#136 = PRODUCT_DEFINITION_SHAPE ( 'NONE', 'NONE',  #309 ) ;
#137 = LENGTH_MEASURE_WITH_UNIT ( LENGTH_MEASURE( 0.02539999999999999897 ), #34 );
#138 = COLOUR_RGB ( '',1.000000000000000000, 0.000000000000000000, 0.000000000000000000 ) ;
#139 = DIRECTION ( 'NONE',  ( 0.000000000000000000, -0.000000000000000000, 1.000000000000000000 ) ) ;
#140 = ORIENTED_EDGE ( 'NONE', *, *, #25, .F. ) ;
#141 =( NAMED_UNIT ( * ) SI_UNIT ( $, .STERADIAN. ) SOLID_ANGLE_UNIT ( ) );
#142 = CARTESIAN_POINT ( 'NONE',  ( 2.296212748401287726E-17, 1.000000000000000000, 0.1875000000000000278 ) ) ;
#143 = CARTESIAN_POINT ( 'NONE',  ( 0.000000000000000000, 1.000000000000000000, -0.1875000000000000278 ) ) ;
#144 = UNCERTAINTY_MEASURE_WITH_UNIT (LENGTH_MEASURE( 1.000000000000000082E-05 ), #30, 'distance_accuracy_value', 'NONE');
#145 = CARTESIAN_POINT ( 'NONE',  ( 3.515061990613733472E-34, 1.000000000000000000, 0.000000000000000000 ) ) ;
#146 = CIRCLE ( 'NONE', #201, 0.1875000000000000278 ) ;
#147 = DIRECTION ( 'NONE',  ( -6.123233995736769734E-17, 1.000000000000000000, -0.000000000000000000 ) ) ;
#148 =( LENGTH_UNIT ( ) NAMED_UNIT ( * ) SI_UNIT ( $, .METRE. ) );
#149 = AXIS2_PLACEMENT_3D ( 'NONE', #220, #200, #203 ) ;
#150 = SURFACE_STYLE_FILL_AREA ( #152 ) ;
#151 = DIRECTION ( 'NONE',  ( -0.000000000000000000, -1.000000000000000000, -0.000000000000000000 ) ) ;
#152 = FILL_AREA_STYLE ('',( #191 ) ) ;
#153 =( CONVERSION_BASED_UNIT ( 'INCH', #33 ) LENGTH_UNIT ( ) NAMED_UNIT ( #238 ) );
#154 =( NAMED_UNIT ( * ) PLANE_ANGLE_UNIT ( ) SI_UNIT ( $, .RADIAN. ) );
#155 = FILL_AREA_STYLE_COLOUR ( '', #276 ) ;
#156 = ORIENTED_EDGE ( 'NONE', *, *, #111, .F. ) ;
#157 = AXIS2_PLACEMENT_3D ( 'NONE', #189, #213, #169 ) ;
#158 = CYLINDRICAL_SURFACE ( 'NONE', #157, 0.1875000000000000278 ) ;
#159 =( NAMED_UNIT ( * ) PLANE_ANGLE_UNIT ( ) SI_UNIT ( $, .RADIAN. ) );
#160 = PRESENTATION_STYLE_ASSIGNMENT (( #77 ) ) ;
#161 = VECTOR ( 'NONE', #237, 39.37007874015748143 ) ;
#162 = ORIENTED_EDGE ( 'NONE', *, *, #299, .F. ) ;
#163 = CARTESIAN_POINT ( 'NONE',  ( -0.1875000000000002776, 3.000000000000000444, 0.000000000000000000 ) ) ;
#164 = FACE_OUTER_BOUND ( 'NONE', #294, .T. ) ;
#165 = EDGE_CURVE ( 'NONE', #19, #134, #28, .T. ) ;
#166 = DIRECTION ( 'NONE',  ( -1.000000000000000000, 0.000000000000000000, 0.000000000000000000 ) ) ;
#167 = MECHANICAL_DESIGN_GEOMETRIC_PRESENTATION_REPRESENTATION (  '', ( #47 ), #212 ) ;
#168 =( NAMED_UNIT ( * ) PLANE_ANGLE_UNIT ( ) SI_UNIT ( $, .RADIAN. ) );
#169 = DIRECTION ( 'NONE',  ( 0.000000000000000000, 0.000000000000000000, -1.000000000000000000 ) ) ;
#170 =( CONVERSION_BASED_UNIT ( 'INCH', #265 ) LENGTH_UNIT ( ) NAMED_UNIT ( #70 ) );
#171 = PRODUCT_CONTEXT ( 'NONE', #279, 'mechanical' ) ;
#172 = COLOUR_RGB ( '',1.000000000000000000, 0.000000000000000000, 0.000000000000000000 ) ;
#173 = AXIS2_PLACEMENT_3D ( 'NONE', #235, #251, #139 ) ;
#174 = PRESENTATION_STYLE_ASSIGNMENT (( #101 ) ) ;
#175 = ADVANCED_FACE ( 'NONE', ( #164 ), #49, .T. ) ;
#176 = CYLINDRICAL_SURFACE ( 'NONE', #194, 0.1875000000000000278 ) ;
#177 = DIRECTION ( 'NONE',  ( -6.123233995736769734E-17, 1.000000000000000000, -0.000000000000000000 ) ) ;
#178 = PLANE ( 'NONE',  #257 ) ;
#179 = ORIENTED_EDGE ( 'NONE', *, *, #65, .F. ) ;
#180 = FILL_AREA_STYLE_COLOUR ( '', #138 ) ;
#181 = ORIENTED_EDGE ( 'NONE', *, *, #8, .T. ) ;
#182 = ADVANCED_FACE ( 'NONE', ( #243 ), #176, .T. ) ;
#183 =( GEOMETRIC_REPRESENTATION_CONTEXT ( 3 ) GLOBAL_UNCERTAINTY_ASSIGNED_CONTEXT ( ( #87 ) ) GLOBAL_UNIT_ASSIGNED_CONTEXT ( ( #153, #72, #124 ) ) REPRESENTATION_CONTEXT ( 'NONE', 'WORKASPACE' ) );
#184 =( CONVERSION_BASED_UNIT ( 'INCH', #301 ) LENGTH_UNIT ( ) NAMED_UNIT ( #195 ) );
#185 =( NAMED_UNIT ( * ) PLANE_ANGLE_UNIT ( ) SI_UNIT ( $, .RADIAN. ) );
#186 = CARTESIAN_POINT ( 'NONE',  ( 0.1874999999999999445, 3.000000000000000444, 2.296212748401288342E-17 ) ) ;
#187 = ADVANCED_FACE ( 'NONE', ( #99 ), #178, .F. ) ;
#188 = PRODUCT_DEFINITION_FORMATION_WITH_SPECIFIED_SOURCE ( 'ANY', '', #242, .NOT_KNOWN. ) ;
#189 = CARTESIAN_POINT ( 'NONE',  ( 0.000000000000000000, 0.000000000000000000, 0.000000000000000000 ) ) ;
#190 = DIRECTION ( 'NONE',  ( -1.000000000000000000, -6.123233995736769734E-17, 0.000000000000000000 ) ) ;
#191 = FILL_AREA_STYLE_COLOUR ( '', #281 ) ;
#192 = DIRECTION ( 'NONE',  ( 0.000000000000000000, 0.000000000000000000, -1.000000000000000000 ) ) ;
#193 = APPLICATION_PROTOCOL_DEFINITION ( 'draft international standard', 'automotive_design', 1998, #3 ) ;
#194 = AXIS2_PLACEMENT_3D ( 'NONE', #267, #151, #248 ) ;
#195 = DIMENSIONAL_EXPONENTS ( 1.000000000000000000, 0.000000000000000000, 0.000000000000000000, 0.000000000000000000, 0.000000000000000000, 0.000000000000000000, 0.000000000000000000 ) ;
#196 = PLANE ( 'NONE',  #305 ) ;
#197 = MANIFOLD_SOLID_BREP ( 'Revolve - Tool Body (Straight Shanked)', #114 ) ;
#198 =( NAMED_UNIT ( * ) PLANE_ANGLE_UNIT ( ) SI_UNIT ( $, .RADIAN. ) );
#199 = CARTESIAN_POINT ( 'NONE',  ( 0.000000000000000000, 0.000000000000000000, 0.000000000000000000 ) ) ;
#200 = DIRECTION ( 'NONE',  ( 0.000000000000000000, -1.000000000000000000, -0.000000000000000000 ) ) ;
#201 = AXIS2_PLACEMENT_3D ( 'NONE', #24, #40, #227 ) ;
#202 = EDGE_LOOP ( 'NONE', ( #83, #230, #78, #179 ) ) ;
#203 = DIRECTION ( 'NONE',  ( 0.000000000000000000, 0.000000000000000000, -1.000000000000000000 ) ) ;
#204 =( NAMED_UNIT ( * ) SI_UNIT ( $, .STERADIAN. ) SOLID_ANGLE_UNIT ( ) );
#205 = LINE ( 'NONE', #60, #90 ) ;
#206 = CARTESIAN_POINT ( 'NONE',  ( 0.1875000000000000278, 3.000000000000000444, 2.296212748401288650E-17 ) ) ;
#207 = AXIS2_PLACEMENT_3D ( 'NONE', #232, #48, #86 ) ;
#208 = AXIS2_PLACEMENT_3D ( 'NONE', #199, #9, #97 ) ;
#209 = VERTEX_POINT ( 'NONE', #206 ) ;
#210 = SURFACE_STYLE_USAGE ( .BOTH. , #17 ) ;
#211 = DIRECTION ( 'NONE',  ( -0.000000000000000000, -1.000000000000000000, -0.000000000000000000 ) ) ;
#212 =( GEOMETRIC_REPRESENTATION_CONTEXT ( 3 ) GLOBAL_UNCERTAINTY_ASSIGNED_CONTEXT ( ( #23 ) ) GLOBAL_UNIT_ASSIGNED_CONTEXT ( ( #223, #198, #204 ) ) REPRESENTATION_CONTEXT ( 'NONE', 'WORKASPACE' ) );
#213 = DIRECTION ( 'NONE',  ( -0.000000000000000000, -1.000000000000000000, -0.000000000000000000 ) ) ;
#214 = FACE_OUTER_BOUND ( 'NONE', #102, .T. ) ;
#215 = STYLED_ITEM ( 'NONE', ( #104 ), #44 ) ;
#216 = PRESENTATION_LAYER_ASSIGNMENT (  '', '', ( #47 ) ) ;
#217 = LINE ( 'NONE', #293, #2 ) ;
#218 = SURFACE_SIDE_STYLE ('',( #266 ) ) ;
#219 = ORIENTED_EDGE ( 'NONE', *, *, #135, .F. ) ;
#220 = CARTESIAN_POINT ( 'NONE',  ( 0.000000000000000000, 0.000000000000000000, 0.000000000000000000 ) ) ;
#221 =( NAMED_UNIT ( * ) SI_UNIT ( $, .STERADIAN. ) SOLID_ANGLE_UNIT ( ) );
#222 =( GEOMETRIC_REPRESENTATION_CONTEXT ( 3 ) GLOBAL_UNCERTAINTY_ASSIGNED_CONTEXT ( ( #144 ) ) GLOBAL_UNIT_ASSIGNED_CONTEXT ( ( #30, #154, #221 ) ) REPRESENTATION_CONTEXT ( 'NONE', 'WORKASPACE' ) );
#223 =( CONVERSION_BASED_UNIT ( 'INCH', #36 ) LENGTH_UNIT ( ) NAMED_UNIT ( #240 ) );
#224 = FILL_AREA_STYLE ('',( #131 ) ) ;
#225 = ADVANCED_FACE ( 'NONE', ( #270 ), #158, .T. ) ;
#226 =( LENGTH_UNIT ( ) NAMED_UNIT ( * ) SI_UNIT ( $, .METRE. ) );
#227 = DIRECTION ( 'NONE',  ( 0.000000000000000000, 0.000000000000000000, -1.000000000000000000 ) ) ;
#228 =( GEOMETRIC_REPRESENTATION_CONTEXT ( 3 ) GLOBAL_UNCERTAINTY_ASSIGNED_CONTEXT ( ( #231 ) ) GLOBAL_UNIT_ASSIGNED_CONTEXT ( ( #170, #35, #100 ) ) REPRESENTATION_CONTEXT ( 'NONE', 'WORKASPACE' ) );
#229 = STYLED_ITEM ( 'NONE', ( #174 ), #197 ) ;
#230 = ORIENTED_EDGE ( 'NONE', *, *, #135, .T. ) ;
#231 = UNCERTAINTY_MEASURE_WITH_UNIT (LENGTH_MEASURE( 1.000000000000000082E-05 ), #170, 'distance_accuracy_value', 'NONE');
#232 = CARTESIAN_POINT ( 'NONE',  ( 3.032960542342103792E-32, 1.000000000000000000, 0.000000000000000000 ) ) ;
#233 = AXIS2_PLACEMENT_3D ( 'NONE', #236, #117, #192 ) ;
#234 = ADVANCED_FACE ( 'NONE', ( #277 ), #69, .T. ) ;
#235 = CARTESIAN_POINT ( 'NONE',  ( 0.000000000000000000, 1.000000000000000000, 0.000000000000000000 ) ) ;
#236 = CARTESIAN_POINT ( 'NONE',  ( 0.000000000000000000, 0.000000000000000000, 0.000000000000000000 ) ) ;
#237 = DIRECTION ( 'NONE',  ( -6.123233995736769734E-17, 1.000000000000000000, -0.000000000000000000 ) ) ;
#238 = DIMENSIONAL_EXPONENTS ( 1.000000000000000000, 0.000000000000000000, 0.000000000000000000, 0.000000000000000000, 0.000000000000000000, 0.000000000000000000, 0.000000000000000000 ) ;
#239 = DIRECTION ( 'NONE',  ( -0.000000000000000000, -1.000000000000000000, -0.000000000000000000 ) ) ;
#240 = DIMENSIONAL_EXPONENTS ( 1.000000000000000000, 0.000000000000000000, 0.000000000000000000, 0.000000000000000000, 0.000000000000000000, 0.000000000000000000, 0.000000000000000000 ) ;
#241 = PRESENTATION_LAYER_ASSIGNMENT (  '', '', ( #215 ) ) ;
#242 = PRODUCT ( '82268W', '82268W', '', ( #171 ) ) ;
#243 = FACE_OUTER_BOUND ( 'NONE', #202, .T. ) ;
#244 = ORIENTED_EDGE ( 'NONE', *, *, #8, .F. ) ;
#245 = VERTEX_POINT ( 'NONE', #50 ) ;
#246 = PLANE ( 'NONE',  #173 ) ;
#247 = VECTOR ( 'NONE', #66, 39.37007874015748143 ) ;
#248 = DIRECTION ( 'NONE',  ( 0.000000000000000000, 0.000000000000000000, -1.000000000000000000 ) ) ;
#249 = SURFACE_SIDE_STYLE ('',( #150 ) ) ;
#250 = ORIENTED_EDGE ( 'NONE', *, *, #165, .T. ) ;
#251 = DIRECTION ( 'NONE',  ( 0.000000000000000000, 1.000000000000000000, 0.000000000000000000 ) ) ;
#252 = CIRCLE ( 'NONE', #14, 0.1875000000000001388 ) ;
#253 = CIRCLE ( 'NONE', #15, 0.1875000000000001388 ) ;
#254 = DIRECTION ( 'NONE',  ( -1.000000000000000000, 0.000000000000000000, 0.000000000000000000 ) ) ;
#255 = UNCERTAINTY_MEASURE_WITH_UNIT (LENGTH_MEASURE( 1.000000000000000082E-05 ), #184, 'distance_accuracy_value', 'NONE');
#256 = ORIENTED_EDGE ( 'NONE', *, *, #285, .F. ) ;
#257 = AXIS2_PLACEMENT_3D ( 'NONE', #57, #286, #10 ) ;
#258 = CARTESIAN_POINT ( 'NONE',  ( 2.296212748401287726E-17, 0.000000000000000000, 0.1875000000000000278 ) ) ;
#259 = ADVANCED_FACE ( 'NONE', ( #214 ), #196, .F. ) ;
#260 = FILL_AREA_STYLE_COLOUR ( '', #118 ) ;
#261 = DIRECTION ( 'NONE',  ( 0.000000000000000000, 0.000000000000000000, -1.000000000000000000 ) ) ;
#262 =( CONVERSION_BASED_UNIT ( 'INCH', #302 ) LENGTH_UNIT ( ) NAMED_UNIT ( #278 ) );
#263 = FILL_AREA_STYLE_COLOUR ( '', #20 ) ;
#264 = AXIS2_PLACEMENT_3D ( 'NONE', #53, #147, #166 ) ;
#265 = LENGTH_MEASURE_WITH_UNIT ( LENGTH_MEASURE( 0.02539999999999999897 ), #133 );
#266 = SURFACE_STYLE_FILL_AREA ( #4 ) ;
#267 = CARTESIAN_POINT ( 'NONE',  ( 0.000000000000000000, 0.000000000000000000, 0.000000000000000000 ) ) ;
#268 = DIRECTION ( 'NONE',  ( -6.123233995736769734E-17, 1.000000000000000000, -0.000000000000000000 ) ) ;
#269 = DIRECTION ( 'NONE',  ( -0.000000000000000000, -1.000000000000000000, -0.000000000000000000 ) ) ;
#270 = FACE_OUTER_BOUND ( 'NONE', #112, .T. ) ;
#271 = ORIENTED_EDGE ( 'NONE', *, *, #165, .F. ) ;
#272 = PLANE ( 'NONE',  #149 ) ;
#273 = EDGE_CURVE ( 'NONE', #58, #18, #76, .T. ) ;
#274 = LINE ( 'NONE', #258, #247 ) ;
#275 = MECHANICAL_DESIGN_GEOMETRIC_PRESENTATION_REPRESENTATION (  '', ( #215 ), #228 ) ;
#276 = COLOUR_RGB ( '',1.000000000000000000, 0.000000000000000000, 0.000000000000000000 ) ;
#277 = FACE_OUTER_BOUND ( 'NONE', #105, .T. ) ;
#278 = DIMENSIONAL_EXPONENTS ( 1.000000000000000000, 0.000000000000000000, 0.000000000000000000, 0.000000000000000000, 0.000000000000000000, 0.000000000000000000, 0.000000000000000000 ) ;
#279 = APPLICATION_CONTEXT ( 'automotive_design' ) ;
#280 = AXIS2_PLACEMENT_3D ( 'NONE', #64, #85, #254 ) ;
#281 = COLOUR_RGB ( '',1.000000000000000000, 0.000000000000000000, 0.000000000000000000 ) ;
#282 = PRESENTATION_LAYER_ASSIGNMENT (  '', '', ( #229 ) ) ;
#283 = SHAPE_DEFINITION_REPRESENTATION ( #136, #127 ) ;
#284 = CARTESIAN_POINT ( 'NONE',  ( -1.224646799147353700E-16, 3.000000000000000444, 0.000000000000000000 ) ) ;
#285 = EDGE_CURVE ( 'NONE', #134, #19, #96, .T. ) ;
#286 = DIRECTION ( 'NONE',  ( 6.123233995736769734E-17, -1.000000000000000000, 0.000000000000000000 ) ) ;
#287 = APPLICATION_PROTOCOL_DEFINITION ( 'draft international standard', 'automotive_design', 1998, #279 ) ;
#288 = PRESENTATION_LAYER_ASSIGNMENT (  '', '', ( #110 ) ) ;
#289 = CARTESIAN_POINT ( 'NONE',  ( 0.000000000000000000, 0.000000000000000000, -0.1875000000000000278 ) ) ;
#290 = SURFACE_SIDE_STYLE ('',( #38 ) ) ;
#291 = ORIENTED_EDGE ( 'NONE', *, *, #299, .T. ) ;
#292 = PRODUCT_RELATED_PRODUCT_CATEGORY ( 'part', '', ( #242 ) ) ;
#293 = CARTESIAN_POINT ( 'NONE',  ( 0.000000000000000000, 0.000000000000000000, -0.1875000000000000278 ) ) ;
#294 = EDGE_LOOP ( 'NONE', ( #181, #298, #113, #306 ) ) ;
#295 = SURFACE_STYLE_FILL_AREA ( #224 ) ;
#296 = PRESENTATION_STYLE_ASSIGNMENT (( #132 ) ) ;
#297 = MECHANICAL_DESIGN_GEOMETRIC_PRESENTATION_REPRESENTATION (  '', ( #115 ), #55 ) ;
#298 = ORIENTED_EDGE ( 'NONE', *, *, #129, .T. ) ;
#299 = EDGE_CURVE ( 'NONE', #209, #39, #253, .T. ) ;
#300 = MANIFOLD_SOLID_BREP ( 'Revolve - Cutting Edge', #75 ) ;
#301 = LENGTH_MEASURE_WITH_UNIT ( LENGTH_MEASURE( 0.02539999999999999897 ), #42 );
#302 = LENGTH_MEASURE_WITH_UNIT ( LENGTH_MEASURE( 0.02539999999999999897 ), #43 );
#303 = EDGE_LOOP ( 'NONE', ( #74, #123 ) ) ;
#304 = EDGE_LOOP ( 'NONE', ( #256, #271 ) ) ;
#305 = AXIS2_PLACEMENT_3D ( 'NONE', #145, #95, #190 ) ;
#306 = ORIENTED_EDGE ( 'NONE', *, *, #94, .F. ) ;
#307 = CARTESIAN_POINT ( 'NONE',  ( -1.224646799147353700E-16, 3.000000000000000444, 0.000000000000000000 ) ) ;
#308 = STYLED_ITEM ( 'NONE', ( #46 ), #106 ) ;
#309 = PRODUCT_DEFINITION ( 'UNKNOWN', '', #188, #52 ) ;
ENDSEC;
END-ISO-10303-21;
