ISO-10303-21;
HEADER;
FILE_DESCRIPTION (( 'STEP AP214' ),
    '1' );
FILE_NAME ('Micro_DM-500-4120X.STEP',
    '2021-09-02T16:07:48',
    ( '' ),
    ( '' ),
    'SwSTEP 2.0',
    'SolidWorks 2020',
    '' );
FILE_SCHEMA (( 'AUTOMOTIVE_DESIGN' ));
ENDSEC;

DATA;
#1 = DIRECTION ( 'NONE',  ( 0.8660254037844400399, 0.0000000000000000000, 0.4999999999999976685 ) ) ;
#2 = FACE_OUTER_BOUND ( 'NONE', #38, .T. ) ;
#3 = AXIS2_PLACEMENT_3D ( 'NONE', #292, #189, #164 ) ;
#4 = DIMENSIONAL_EXPONENTS ( 1.000000000000000000, 0.0000000000000000000, 0.0000000000000000000, 0.0000000000000000000, 0.0000000000000000000, 0.0000000000000000000, 0.0000000000000000000 ) ;
#5 = LINE ( 'NONE', #286, #47 ) ;
#6 = CARTESIAN_POINT ( 'NONE',  ( 0.0000000000000000000, 0.0000000000000000000, 1.000000000000000000 ) ) ;
#7 = APPLICATION_CONTEXT ( 'automotive_design' ) ;
#8 = CARTESIAN_POINT ( 'NONE',  ( 0.0000000000000000000, 0.0000000000000000000, 3.000000000000000444 ) ) ;
#9 = AXIS2_PLACEMENT_3D ( 'NONE', #111, #270, #242 ) ;
#10 = CARTESIAN_POINT ( 'NONE',  ( 0.007499999999999999722, 0.0000000000000000000, 1.707404996040164512E-17 ) ) ;
#11 = ORIENTED_EDGE ( 'NONE', *, *, #83, .T. ) ;
#12 = CARTESIAN_POINT ( 'NONE',  ( 0.0000000000000000000, 0.0000000000000000000, 2.985000000000001208 ) ) ;
#13 = DIRECTION ( 'NONE',  ( 1.000000000000000000, 0.0000000000000000000, 0.0000000000000000000 ) ) ;
#14 = ORIENTED_EDGE ( 'NONE', *, *, #322, .F. ) ;
#15 = DIRECTION ( 'NONE',  ( 1.000000000000000000, 0.0000000000000000000, 0.0000000000000000000 ) ) ;
#16 = ORIENTED_EDGE ( 'NONE', *, *, #46, .F. ) ;
#17 = EDGE_LOOP ( 'NONE', ( #122, #65, #109, #252 ) ) ;
#18 = AXIS2_PLACEMENT_3D ( 'NONE', #320, #114, #194 ) ;
#19 = PRESENTATION_STYLE_ASSIGNMENT (( #134 ) ) ;
#20 = DIRECTION ( 'NONE',  ( -0.0000000000000000000, -0.0000000000000000000, -1.000000000000000000 ) ) ;
#21 = FACE_OUTER_BOUND ( 'NONE', #226, .T. ) ;
#22 = COLOUR_RGB ( '',0.7921568627450980005, 0.8196078431372548767, 0.9333333333333333481 ) ;
#23 = CIRCLE ( 'NONE', #202, 0.007499999999999999722 ) ;
#24 = CARTESIAN_POINT ( 'NONE',  ( 0.0000000000000000000, 0.0000000000000000000, 0.0000000000000000000 ) ) ;
#25 =( CONVERSION_BASED_UNIT ( 'INCH', #42 ) LENGTH_UNIT ( ) NAMED_UNIT ( #129 ) );
#26 = CARTESIAN_POINT ( 'NONE',  ( 0.0000000000000000000, 0.0000000000000000000, 0.0000000000000000000 ) ) ;
#27 = DIRECTION ( 'NONE',  ( -0.0000000000000000000, -0.0000000000000000000, -1.000000000000000000 ) ) ;
#28 = AXIS2_PLACEMENT_3D ( 'NONE', #268, #29, #138 ) ;
#29 = DIRECTION ( 'NONE',  ( -0.0000000000000000000, -0.0000000000000000000, -1.000000000000000000 ) ) ;
#30 = EDGE_CURVE ( 'NONE', #40, #61, #234, .T. ) ;
#31 = DIRECTION ( 'NONE',  ( 0.0000000000000000000, 0.0000000000000000000, 1.000000000000000000 ) ) ;
#32 = LINE ( 'NONE', #310, #88 ) ;
#33 = VECTOR ( 'NONE', #151, 39.37007874015748143 ) ;
#34 = LINE ( 'NONE', #249, #308 ) ;
#35 = ORIENTED_EDGE ( 'NONE', *, *, #322, .T. ) ;
#36 = ORIENTED_EDGE ( 'NONE', *, *, #66, .T. ) ;
#37 = DIRECTION ( 'NONE',  ( -1.000000000000000000, 0.0000000000000000000, 0.0000000000000000000 ) ) ;
#38 = EDGE_LOOP ( 'NONE', ( #229, #203, #16, #91 ) ) ;
#39 = CIRCLE ( 'NONE', #228, 0.007499999999999999722 ) ;
#40 = VERTEX_POINT ( 'NONE', #307 ) ;
#41 = ORIENTED_EDGE ( 'NONE', *, *, #30, .F. ) ;
#42 = LENGTH_MEASURE_WITH_UNIT ( LENGTH_MEASURE( 0.02539999999999999897 ), #263 );
#43 = CARTESIAN_POINT ( 'NONE',  ( 0.0000000000000000000, 0.0000000000000000000, 2.985000000000001208 ) ) ;
#44 = LINE ( 'NONE', #192, #150 ) ;
#45 = CYLINDRICAL_SURFACE ( 'NONE', #327, 0.2500000000000000000 ) ;
#46 = EDGE_CURVE ( 'NONE', #147, #195, #227, .T. ) ;
#47 = VECTOR ( 'NONE', #1, 39.37007874015748143 ) ;
#48 = CARTESIAN_POINT ( 'NONE',  ( 0.0000000000000000000, 0.0000000000000000000, 1.707404996040164512E-17 ) ) ;
#49 = FACE_OUTER_BOUND ( 'NONE', #167, .T. ) ;
#50 = DIRECTION ( 'NONE',  ( -1.000000000000000000, 0.0000000000000000000, 0.0000000000000000000 ) ) ;
#51 = ADVANCED_FACE ( 'NONE', ( #68 ), #45, .T. ) ;
#52 = DIRECTION ( 'NONE',  ( 0.0000000000000000000, 0.0000000000000000000, 1.000000000000000000 ) ) ;
#53 = ADVANCED_FACE ( 'NONE', ( #21 ), #208, .T. ) ;
#54 = CARTESIAN_POINT ( 'NONE',  ( 0.0000000000000000000, 0.0000000000000000000, 1.707404996040164512E-17 ) ) ;
#55 = CARTESIAN_POINT ( 'NONE',  ( -0.2499500000000001165, 3.061004674468810760E-17, 0.1399785727650239564 ) ) ;
#56 = VERTEX_POINT ( 'NONE', #328 ) ;
#57 = ORIENTED_EDGE ( 'NONE', *, *, #244, .T. ) ;
#58 = ORIENTED_EDGE ( 'NONE', *, *, #66, .F. ) ;
#59 = EDGE_CURVE ( 'NONE', #87, #147, #261, .T. ) ;
#60 = DIRECTION ( 'NONE',  ( 0.0000000000000000000, 0.0000000000000000000, 1.000000000000000000 ) ) ;
#61 = VERTEX_POINT ( 'NONE', #102 ) ;
#62 = PRESENTATION_LAYER_ASSIGNMENT (  '', '', ( #216 ) ) ;
#63 = PRODUCT_DEFINITION ( 'UNKNOWN', '', #289, #154 ) ;
#64 =( LENGTH_UNIT ( ) NAMED_UNIT ( * ) SI_UNIT ( $, .METRE. ) );
#65 = ORIENTED_EDGE ( 'NONE', *, *, #92, .F. ) ;
#66 = EDGE_CURVE ( 'NONE', #276, #273, #80, .T. ) ;
#67 = DIRECTION ( 'NONE',  ( -0.0000000000000000000, -0.0000000000000000000, -1.000000000000000000 ) ) ;
#68 = FACE_OUTER_BOUND ( 'NONE', #199, .T. ) ;
#69 = AXIS2_PLACEMENT_3D ( 'NONE', #8, #31, #288 ) ;
#70 = DIRECTION ( 'NONE',  ( -1.000000000000000000, 0.0000000000000000000, 0.0000000000000000000 ) ) ;
#71 = APPLICATION_PROTOCOL_DEFINITION ( 'draft international standard', 'automotive_design', 1998, #73 ) ;
#72 = CARTESIAN_POINT ( 'NONE',  ( 0.0000000000000000000, 0.0000000000000000000, 0.1399785727650239564 ) ) ;
#73 = APPLICATION_CONTEXT ( 'automotive_design' ) ;
#74 = LINE ( 'NONE', #304, #33 ) ;
#75 = CIRCLE ( 'NONE', #81, 0.2499500000000000610 ) ;
#76 = CARTESIAN_POINT ( 'NONE',  ( -0.007499999999999999722, 1.576426592202430716E-17, 1.707404996040164512E-17 ) ) ;
#77 = MANIFOLD_SOLID_BREP ( 'Cut-Revolve4', #118 ) ;
#78 = CARTESIAN_POINT ( 'NONE',  ( 0.2499500000000001165, 0.0000000000000000000, 1.000000000000000000 ) ) ;
#79 = CARTESIAN_POINT ( 'NONE',  ( -0.2500000000000000000, 0.0000000000000000000, 2.985000000000001208 ) ) ;
#80 = CIRCLE ( 'NONE', #130, 0.2499500000000000610 ) ;
#81 = AXIS2_PLACEMENT_3D ( 'NONE', #84, #266, #137 ) ;
#82 = DIRECTION ( 'NONE',  ( -1.000000000000000000, 0.0000000000000000000, 0.0000000000000000000 ) ) ;
#83 = EDGE_CURVE ( 'NONE', #172, #273, #74, .T. ) ;
#84 = CARTESIAN_POINT ( 'NONE',  ( 0.0000000000000000000, 0.0000000000000000000, 0.1399785727650239564 ) ) ;
#85 = EDGE_CURVE ( 'NONE', #61, #40, #217, .T. ) ;
#86 = DIRECTION ( 'NONE',  ( 1.000000000000000000, 0.0000000000000000000, -0.0000000000000000000 ) ) ;
#87 = VERTEX_POINT ( 'NONE', #284 ) ;
#88 = VECTOR ( 'NONE', #187, 39.37007874015748143 ) ;
#89 = ORIENTED_EDGE ( 'NONE', *, *, #165, .T. ) ;
#90 =( CONVERSION_BASED_UNIT ( 'INCH', #315 ) LENGTH_UNIT ( ) NAMED_UNIT ( #4 ) );
#91 = ORIENTED_EDGE ( 'NONE', *, *, #59, .F. ) ;
#92 = EDGE_CURVE ( 'NONE', #274, #169, #39, .T. ) ;
#93 =( NAMED_UNIT ( * ) PLANE_ANGLE_UNIT ( ) SI_UNIT ( $, .RADIAN. ) );
#94 = ORIENTED_EDGE ( 'NONE', *, *, #207, .T. ) ;
#95 = ORIENTED_EDGE ( 'NONE', *, *, #83, .F. ) ;
#96 = CIRCLE ( 'NONE', #312, 0.2499500000000001165 ) ;
#97 = CARTESIAN_POINT ( 'NONE',  ( -0.2350000000000011524, 0.0000000000000000000, 3.000000000000000444 ) ) ;
#98 =( NAMED_UNIT ( * ) PLANE_ANGLE_UNIT ( ) SI_UNIT ( $, .RADIAN. ) );
#99 = CIRCLE ( 'NONE', #212, 0.2350000000000011524 ) ;
#100 = PRODUCT_DEFINITION_SHAPE ( 'NONE', 'NONE',  #63 ) ;
#101 = EDGE_CURVE ( 'NONE', #195, #61, #326, .T. ) ;
#102 = CARTESIAN_POINT ( 'NONE',  ( 0.2500000000000000000, 3.061616997868382402E-17, 1.000000000000000000 ) ) ;
#103 = SHAPE_DEFINITION_REPRESENTATION ( #100, #291 ) ;
#104 = DIRECTION ( 'NONE',  ( 0.0000000000000000000, 0.0000000000000000000, -1.000000000000000000 ) ) ;
#105 = CARTESIAN_POINT ( 'NONE',  ( 0.0000000000000000000, 0.0000000000000000000, 1.707404996040164512E-17 ) ) ;
#106 = COLOUR_RGB ( '',0.7921568627450980005, 0.8196078431372548767, 0.9333333333333333481 ) ;
#107 = CARTESIAN_POINT ( 'NONE',  ( 0.2499500000000001443, 3.061004674468811376E-17, 1.000000000000000000 ) ) ;
#108 = FACE_OUTER_BOUND ( 'NONE', #198, .T. ) ;
#109 = ORIENTED_EDGE ( 'NONE', *, *, #176, .T. ) ;
#110 = EDGE_CURVE ( 'NONE', #56, #276, #44, .T. ) ;
#111 = CARTESIAN_POINT ( 'NONE',  ( 0.0000000000000000000, 0.0000000000000000000, 0.0000000000000000000 ) ) ;
#112 =( GEOMETRIC_REPRESENTATION_CONTEXT ( 3 ) GLOBAL_UNCERTAINTY_ASSIGNED_CONTEXT ( ( #188 ) ) GLOBAL_UNIT_ASSIGNED_CONTEXT ( ( #90, #254, #236 ) ) REPRESENTATION_CONTEXT ( 'NONE', 'WORKASPACE' ) );
#113 = CARTESIAN_POINT ( 'NONE',  ( 0.0000000000000000000, 0.0000000000000000000, 1.707404996040164512E-17 ) ) ;
#114 = DIRECTION ( 'NONE',  ( 0.0000000000000000000, 0.0000000000000000000, -1.000000000000000000 ) ) ;
#115 = FACE_OUTER_BOUND ( 'NONE', #255, .T. ) ;
#116 = ORIENTED_EDGE ( 'NONE', *, *, #162, .T. ) ;
#117 = ADVANCED_FACE ( 'NONE', ( #2 ), #178, .T. ) ;
#118 = CLOSED_SHELL ( 'NONE', ( #53, #193, #117, #205, #51, #283, #317, #200, #231, #185, #132 ) ) ;
#119 = EDGE_LOOP ( 'NONE', ( #272, #319 ) ) ;
#120 = DIRECTION ( 'NONE',  ( 0.0000000000000000000, 0.0000000000000000000, 1.000000000000000000 ) ) ;
#121 = EDGE_LOOP ( 'NONE', ( #277, #314 ) ) ;
#122 = ORIENTED_EDGE ( 'NONE', *, *, #165, .F. ) ;
#123 = EDGE_CURVE ( 'NONE', #273, #276, #75, .T. ) ;
#124 = ORIENTED_EDGE ( 'NONE', *, *, #176, .F. ) ;
#125 = AXIS2_PLACEMENT_3D ( 'NONE', #26, #152, #206 ) ;
#126 = AXIS2_PLACEMENT_3D ( 'NONE', #54, #60, #13 ) ;
#127 = DIRECTION ( 'NONE',  ( -1.000000000000000000, 0.0000000000000000000, 0.0000000000000000000 ) ) ;
#128 = DIRECTION ( 'NONE',  ( -1.000000000000000000, 0.0000000000000000000, 0.0000000000000000000 ) ) ;
#129 = DIMENSIONAL_EXPONENTS ( 1.000000000000000000, 0.0000000000000000000, 0.0000000000000000000, 0.0000000000000000000, 0.0000000000000000000, 0.0000000000000000000, 0.0000000000000000000 ) ;
#130 = AXIS2_PLACEMENT_3D ( 'NONE', #72, #232, #127 ) ;
#131 = PRESENTATION_LAYER_ASSIGNMENT (  '', '', ( #295 ) ) ;
#132 = ADVANCED_FACE ( 'NONE', ( #313 ), #238, .F. ) ;
#133 = EDGE_CURVE ( 'NONE', #169, #274, #23, .T. ) ;
#134 = SURFACE_STYLE_USAGE ( .BOTH. , #237 ) ;
#135 = CARTESIAN_POINT ( 'NONE',  ( 0.2500000000000000000, 3.061616997868382402E-17, 2.985000000000001208 ) ) ;
#136 = AXIS2_PLACEMENT_3D ( 'NONE', #260, #20, #128 ) ;
#137 = DIRECTION ( 'NONE',  ( -1.000000000000000000, 0.0000000000000000000, 0.0000000000000000000 ) ) ;
#138 = DIRECTION ( 'NONE',  ( -1.000000000000000000, 0.0000000000000000000, 0.0000000000000000000 ) ) ;
#139 = DIRECTION ( 'NONE',  ( -0.0000000000000000000, 0.0000000000000000000, -1.000000000000000000 ) ) ;
#140 = CONICAL_SURFACE ( 'NONE', #126, 0.007499999999999999722, 1.047197551196600518 ) ;
#141 = FACE_OUTER_BOUND ( 'NONE', #281, .T. ) ;
#142 = ORIENTED_EDGE ( 'NONE', *, *, #110, .T. ) ;
#143 = ORIENTED_EDGE ( 'NONE', *, *, #123, .F. ) ;
#144 =( NAMED_UNIT ( * ) SI_UNIT ( $, .STERADIAN. ) SOLID_ANGLE_UNIT ( ) );
#145 = ORIENTED_EDGE ( 'NONE', *, *, #162, .F. ) ;
#146 = CARTESIAN_POINT ( 'NONE',  ( 0.2499500000000001165, 0.0000000000000000000, 0.1399785727650239564 ) ) ;
#147 = VERTEX_POINT ( 'NONE', #79 ) ;
#148 = ORIENTED_EDGE ( 'NONE', *, *, #133, .T. ) ;
#149 =( NAMED_UNIT ( * ) SI_UNIT ( $, .STERADIAN. ) SOLID_ANGLE_UNIT ( ) );
#150 = VECTOR ( 'NONE', #239, 39.37007874015748143 ) ;
#151 = DIRECTION ( 'NONE',  ( -0.0000000000000000000, -0.0000000000000000000, -1.000000000000000000 ) ) ;
#152 = DIRECTION ( 'NONE',  ( -0.0000000000000000000, -0.0000000000000000000, -1.000000000000000000 ) ) ;
#153 = FILL_AREA_STYLE ('',( #282 ) ) ;
#154 = PRODUCT_DEFINITION_CONTEXT ( 'detailed design', #73, 'design' ) ;
#155 = CIRCLE ( 'NONE', #240, 0.2500000000000000000 ) ;
#156 = DIRECTION ( 'NONE',  ( -0.0000000000000000000, -0.0000000000000000000, -1.000000000000000000 ) ) ;
#157 = DIRECTION ( 'NONE',  ( -0.0000000000000000000, -0.0000000000000000000, -1.000000000000000000 ) ) ;
#158 = UNCERTAINTY_MEASURE_WITH_UNIT (LENGTH_MEASURE( 1.000000000000000082E-05 ), #25, 'distance_accuracy_value', 'NONE');
#159 = MECHANICAL_DESIGN_GEOMETRIC_PRESENTATION_REPRESENTATION (  '', ( #295 ), #112 ) ;
#160 =( GEOMETRIC_REPRESENTATION_CONTEXT ( 3 ) GLOBAL_UNCERTAINTY_ASSIGNED_CONTEXT ( ( #180 ) ) GLOBAL_UNIT_ASSIGNED_CONTEXT ( ( #248, #93, #144 ) ) REPRESENTATION_CONTEXT ( 'NONE', 'WORKASPACE' ) );
#161 = FACE_OUTER_BOUND ( 'NONE', #299, .T. ) ;
#162 = EDGE_CURVE ( 'NONE', #147, #40, #211, .T. ) ;
#163 = DIRECTION ( 'NONE',  ( -0.0000000000000000000, -0.0000000000000000000, -1.000000000000000000 ) ) ;
#164 = DIRECTION ( 'NONE',  ( -1.000000000000000000, 0.0000000000000000000, 0.0000000000000000000 ) ) ;
#165 = EDGE_CURVE ( 'NONE', #169, #276, #32, .T. ) ;
#166 =( LENGTH_UNIT ( ) NAMED_UNIT ( * ) SI_UNIT ( $, .METRE. ) );
#167 = EDGE_LOOP ( 'NONE', ( #170, #89, #36, #124 ) ) ;
#168 = PRESENTATION_STYLE_ASSIGNMENT (( #201 ) ) ;
#169 = VERTEX_POINT ( 'NONE', #76 ) ;
#170 = ORIENTED_EDGE ( 'NONE', *, *, #133, .F. ) ;
#171 = CONICAL_SURFACE ( 'NONE', #18, 0.2350000000000011524, 0.7853981633974380649 ) ;
#172 = VERTEX_POINT ( 'NONE', #107 ) ;
#173 = DIRECTION ( 'NONE',  ( 0.0000000000000000000, 0.0000000000000000000, -1.000000000000000000 ) ) ;
#174 = VERTEX_POINT ( 'NONE', #218 ) ;
#175 = EDGE_CURVE ( 'NONE', #174, #87, #191, .T. ) ;
#176 = EDGE_CURVE ( 'NONE', #274, #273, #5, .T. ) ;
#177 = DIMENSIONAL_EXPONENTS ( 1.000000000000000000, 0.0000000000000000000, 0.0000000000000000000, 0.0000000000000000000, 0.0000000000000000000, 0.0000000000000000000, 0.0000000000000000000 ) ;
#178 = CONICAL_SURFACE ( 'NONE', #3, 0.2350000000000011524, 0.7853981633974380649 ) ;
#179 = DIRECTION ( 'NONE',  ( -0.0000000000000000000, -0.0000000000000000000, -1.000000000000000000 ) ) ;
#180 = UNCERTAINTY_MEASURE_WITH_UNIT (LENGTH_MEASURE( 1.000000000000000082E-05 ), #248, 'distance_accuracy_value', 'NONE');
#181 = CARTESIAN_POINT ( 'NONE',  ( 0.2500000000000000000, 3.061616997868382402E-17, 3.000000000000000444 ) ) ;
#182 = DIRECTION ( 'NONE',  ( 1.000000000000000000, 0.0000000000000000000, 0.0000000000000000000 ) ) ;
#183 = MECHANICAL_DESIGN_GEOMETRIC_PRESENTATION_REPRESENTATION (  '', ( #216 ), #279 ) ;
#184 = AXIS2_PLACEMENT_3D ( 'NONE', #220, #271, #37 ) ;
#185 = ADVANCED_FACE ( 'NONE', ( #161 ), #245, .T. ) ;
#186 = DIRECTION ( 'NONE',  ( -1.000000000000000000, 0.0000000000000000000, 0.0000000000000000000 ) ) ;
#187 = DIRECTION ( 'NONE',  ( -0.8660254037844400399, 1.060575238724908640E-16, 0.4999999999999976685 ) ) ;
#188 = UNCERTAINTY_MEASURE_WITH_UNIT (LENGTH_MEASURE( 1.000000000000000082E-05 ), #90, 'distance_accuracy_value', 'NONE');
#189 = DIRECTION ( 'NONE',  ( 0.0000000000000000000, 0.0000000000000000000, -1.000000000000000000 ) ) ;
#190 = VECTOR ( 'NONE', #280, 39.37007874015748854 ) ;
#191 = CIRCLE ( 'NONE', #69, 0.2350000000000011524 ) ;
#192 = CARTESIAN_POINT ( 'NONE',  ( -0.2499500000000000888, 0.0000000000000000000, 0.0000000000000000000 ) ) ;
#193 = ADVANCED_FACE ( 'NONE', ( #49 ), #196, .T. ) ;
#194 = DIRECTION ( 'NONE',  ( -1.000000000000000000, 0.0000000000000000000, 0.0000000000000000000 ) ) ;
#195 = VERTEX_POINT ( 'NONE', #135 ) ;
#196 = CONICAL_SURFACE ( 'NONE', #275, 0.007499999999999999722, 1.047197551196600518 ) ;
#197 = FILL_AREA_STYLE_COLOUR ( '', #106 ) ;
#198 = EDGE_LOOP ( 'NONE', ( #259, #301, #41, #145 ) ) ;
#199 = EDGE_LOOP ( 'NONE', ( #222, #35, #116, #316 ) ) ;
#200 = ADVANCED_FACE ( 'NONE', ( #213, #287 ), #309, .T. ) ;
#201 = SURFACE_STYLE_USAGE ( .BOTH. , #296 ) ;
#202 = AXIS2_PLACEMENT_3D ( 'NONE', #105, #157, #186 ) ;
#203 = ORIENTED_EDGE ( 'NONE', *, *, #262, .T. ) ;
#204 = CARTESIAN_POINT ( 'NONE',  ( 0.0000000000000000000, 0.0000000000000000000, 3.000000000000000444 ) ) ;
#205 = ADVANCED_FACE ( 'NONE', ( #108 ), #214, .T. ) ;
#206 = DIRECTION ( 'NONE',  ( -1.000000000000000000, 0.0000000000000000000, 0.0000000000000000000 ) ) ;
#207 = EDGE_CURVE ( 'NONE', #56, #172, #96, .T. ) ;
#208 = CYLINDRICAL_SURFACE ( 'NONE', #125, 0.2499500000000000888 ) ;
#209 = VECTOR ( 'NONE', #163, 39.37007874015748143 ) ;
#210 = DIRECTION ( 'NONE',  ( -1.000000000000000000, 0.0000000000000000000, 0.0000000000000000000 ) ) ;
#211 = LINE ( 'NONE', #215, #209 ) ;
#212 = AXIS2_PLACEMENT_3D ( 'NONE', #257, #120, #15 ) ;
#213 = FACE_BOUND ( 'NONE', #119, .T. ) ;
#214 = CYLINDRICAL_SURFACE ( 'NONE', #28, 0.2500000000000000000 ) ;
#215 = CARTESIAN_POINT ( 'NONE',  ( -0.2500000000000000000, 0.0000000000000000000, 3.000000000000000444 ) ) ;
#216 = STYLED_ITEM ( 'NONE', ( #19 ), #77 ) ;
#217 = CIRCLE ( 'NONE', #136, 0.2500000000000000000 ) ;
#218 = CARTESIAN_POINT ( 'NONE',  ( 0.2350000000000011524, 2.969768487932338510E-17, 3.000000000000000444 ) ) ;
#219 = LENGTH_MEASURE_WITH_UNIT ( LENGTH_MEASURE( 0.02539999999999999897 ), #166 );
#220 = CARTESIAN_POINT ( 'NONE',  ( 0.0000000000000000000, 0.0000000000000000000, 1.000000000000000000 ) ) ;
#221 = ORIENTED_EDGE ( 'NONE', *, *, #241, .T. ) ;
#222 = ORIENTED_EDGE ( 'NONE', *, *, #101, .F. ) ;
#223 = DIRECTION ( 'NONE',  ( 0.0000000000000000000, 0.0000000000000000000, 1.000000000000000000 ) ) ;
#224 = ORIENTED_EDGE ( 'NONE', *, *, #241, .F. ) ;
#225 = DIRECTION ( 'NONE',  ( 0.7071067811865402453, 8.659560562354845344E-17, -0.7071067811865546782 ) ) ;
#226 = EDGE_LOOP ( 'NONE', ( #94, #11, #58, #297 ) ) ;
#227 = CIRCLE ( 'NONE', #305, 0.2500000000000000000 ) ;
#228 = AXIS2_PLACEMENT_3D ( 'NONE', #48, #264, #70 ) ;
#229 = ORIENTED_EDGE ( 'NONE', *, *, #175, .F. ) ;
#230 = PRODUCT ( 'Micro_DM-500-4120X', 'Micro_DM-500-4120X', '', ( #303 ) ) ;
#231 = ADVANCED_FACE ( 'NONE', ( #290 ), #140, .T. ) ;
#232 = DIRECTION ( 'NONE',  ( -0.0000000000000000000, -0.0000000000000000000, -1.000000000000000000 ) ) ;
#233 = DIRECTION ( 'NONE',  ( -1.000000000000000000, 0.0000000000000000000, 0.0000000000000000000 ) ) ;
#234 = CIRCLE ( 'NONE', #323, 0.2500000000000000000 ) ;
#235 = CARTESIAN_POINT ( 'NONE',  ( 0.0000000000000000000, 0.0000000000000000000, 1.000000000000000000 ) ) ;
#236 =( NAMED_UNIT ( * ) SI_UNIT ( $, .STERADIAN. ) SOLID_ANGLE_UNIT ( ) );
#237 = SURFACE_SIDE_STYLE ('',( #278 ) ) ;
#238 = PLANE ( 'NONE',  #9 ) ;
#239 = DIRECTION ( 'NONE',  ( -0.0000000000000000000, -0.0000000000000000000, -1.000000000000000000 ) ) ;
#240 = AXIS2_PLACEMENT_3D ( 'NONE', #12, #173, #298 ) ;
#241 = EDGE_CURVE ( 'NONE', #87, #174, #99, .T. ) ;
#242 = DIRECTION ( 'NONE',  ( 1.000000000000000000, 0.0000000000000000000, -0.0000000000000000000 ) ) ;
#243 = ORIENTED_EDGE ( 'NONE', *, *, #92, .T. ) ;
#244 = EDGE_CURVE ( 'NONE', #172, #56, #324, .T. ) ;
#245 = CYLINDRICAL_SURFACE ( 'NONE', #247, 0.2499500000000000888 ) ;
#246 = DIRECTION ( 'NONE',  ( -1.000000000000000000, 0.0000000000000000000, 0.0000000000000000000 ) ) ;
#247 = AXIS2_PLACEMENT_3D ( 'NONE', #269, #27, #246 ) ;
#248 =( CONVERSION_BASED_UNIT ( 'INCH', #219 ) LENGTH_UNIT ( ) NAMED_UNIT ( #177 ) );
#249 = CARTESIAN_POINT ( 'NONE',  ( 0.2350000000000011524, 2.877919977996294002E-17, 3.000000000000000444 ) ) ;
#250 = ORIENTED_EDGE ( 'NONE', *, *, #175, .T. ) ;
#251 = FILL_AREA_STYLE ('',( #197 ) ) ;
#252 = ORIENTED_EDGE ( 'NONE', *, *, #123, .T. ) ;
#253 = AXIS2_PLACEMENT_3D ( 'NONE', #24, #329, #325 ) ;
#254 =( NAMED_UNIT ( * ) PLANE_ANGLE_UNIT ( ) SI_UNIT ( $, .RADIAN. ) );
#255 = EDGE_LOOP ( 'NONE', ( #221, #250 ) ) ;
#256 = PRODUCT_RELATED_PRODUCT_CATEGORY ( 'part', '', ( #230 ) ) ;
#257 = CARTESIAN_POINT ( 'NONE',  ( 0.0000000000000000000, 0.0000000000000000000, 3.000000000000000444 ) ) ;
#258 = ORIENTED_EDGE ( 'NONE', *, *, #262, .F. ) ;
#259 = ORIENTED_EDGE ( 'NONE', *, *, #46, .T. ) ;
#260 = CARTESIAN_POINT ( 'NONE',  ( 0.0000000000000000000, 0.0000000000000000000, 1.000000000000000000 ) ) ;
#261 = LINE ( 'NONE', #97, #190 ) ;
#262 = EDGE_CURVE ( 'NONE', #174, #195, #34, .T. ) ;
#263 =( LENGTH_UNIT ( ) NAMED_UNIT ( * ) SI_UNIT ( $, .METRE. ) );
#264 = DIRECTION ( 'NONE',  ( -0.0000000000000000000, -0.0000000000000000000, -1.000000000000000000 ) ) ;
#265 = DIRECTION ( 'NONE',  ( 1.000000000000000000, 0.0000000000000000000, 0.0000000000000000000 ) ) ;
#266 = DIRECTION ( 'NONE',  ( -0.0000000000000000000, -0.0000000000000000000, -1.000000000000000000 ) ) ;
#267 = VECTOR ( 'NONE', #179, 39.37007874015748143 ) ;
#268 = CARTESIAN_POINT ( 'NONE',  ( 0.0000000000000000000, 0.0000000000000000000, 3.000000000000000444 ) ) ;
#269 = CARTESIAN_POINT ( 'NONE',  ( 0.0000000000000000000, 0.0000000000000000000, 0.0000000000000000000 ) ) ;
#270 = DIRECTION ( 'NONE',  ( 0.0000000000000000000, 0.0000000000000000000, 1.000000000000000000 ) ) ;
#271 = DIRECTION ( 'NONE',  ( -0.0000000000000000000, -0.0000000000000000000, -1.000000000000000000 ) ) ;
#272 = ORIENTED_EDGE ( 'NONE', *, *, #207, .F. ) ;
#273 = VERTEX_POINT ( 'NONE', #146 ) ;
#274 = VERTEX_POINT ( 'NONE', #10 ) ;
#275 = AXIS2_PLACEMENT_3D ( 'NONE', #113, #52, #265 ) ;
#276 = VERTEX_POINT ( 'NONE', #55 ) ;
#277 = ORIENTED_EDGE ( 'NONE', *, *, #30, .T. ) ;
#278 = SURFACE_STYLE_FILL_AREA ( #153 ) ;
#279 =( GEOMETRIC_REPRESENTATION_CONTEXT ( 3 ) GLOBAL_UNCERTAINTY_ASSIGNED_CONTEXT ( ( #158 ) ) GLOBAL_UNIT_ASSIGNED_CONTEXT ( ( #25, #98, #149 ) ) REPRESENTATION_CONTEXT ( 'NONE', 'WORKASPACE' ) );
#280 = DIRECTION ( 'NONE',  ( -0.7071067811865402453, 0.0000000000000000000, -0.7071067811865546782 ) ) ;
#281 = EDGE_LOOP ( 'NONE', ( #258, #224, #294, #14 ) ) ;
#282 = FILL_AREA_STYLE_COLOUR ( '', #22 ) ;
#283 = ADVANCED_FACE ( 'NONE', ( #115 ), #302, .T. ) ;
#284 = CARTESIAN_POINT ( 'NONE',  ( -0.2350000000000011524, 0.0000000000000000000, 3.000000000000000444 ) ) ;
#285 = AXIS2_PLACEMENT_3D ( 'NONE', #78, #139, #50 ) ;
#286 = CARTESIAN_POINT ( 'NONE',  ( 0.007499999999999999722, 0.0000000000000000000, 1.707404996040164512E-17 ) ) ;
#287 = FACE_OUTER_BOUND ( 'NONE', #121, .T. ) ;
#288 = DIRECTION ( 'NONE',  ( 1.000000000000000000, 0.0000000000000000000, 0.0000000000000000000 ) ) ;
#289 = PRODUCT_DEFINITION_FORMATION_WITH_SPECIFIED_SOURCE ( 'ANY', '', #230, .NOT_KNOWN. ) ;
#290 = FACE_OUTER_BOUND ( 'NONE', #17, .T. ) ;
#291 = ADVANCED_BREP_SHAPE_REPRESENTATION ( 'Micro_DM-500-4120X', ( #77, #253 ), #160 ) ;
#292 = CARTESIAN_POINT ( 'NONE',  ( 0.0000000000000000000, 0.0000000000000000000, 3.000000000000000444 ) ) ;
#293 = APPLICATION_PROTOCOL_DEFINITION ( 'draft international standard', 'automotive_design', 1998, #7 ) ;
#294 = ORIENTED_EDGE ( 'NONE', *, *, #59, .T. ) ;
#295 = STYLED_ITEM ( 'NONE', ( #168 ), #291 ) ;
#296 = SURFACE_SIDE_STYLE ('',( #300 ) ) ;
#297 = ORIENTED_EDGE ( 'NONE', *, *, #110, .F. ) ;
#298 = DIRECTION ( 'NONE',  ( 1.000000000000000000, 0.0000000000000000000, 0.0000000000000000000 ) ) ;
#299 = EDGE_LOOP ( 'NONE', ( #95, #57, #142, #143 ) ) ;
#300 = SURFACE_STYLE_FILL_AREA ( #251 ) ;
#301 = ORIENTED_EDGE ( 'NONE', *, *, #101, .T. ) ;
#302 = PLANE ( 'NONE',  #306 ) ;
#303 = PRODUCT_CONTEXT ( 'NONE', #7, 'mechanical' ) ;
#304 = CARTESIAN_POINT ( 'NONE',  ( 0.2499500000000000888, 3.061004674468810760E-17, 0.0000000000000000000 ) ) ;
#305 = AXIS2_PLACEMENT_3D ( 'NONE', #43, #104, #182 ) ;
#306 = AXIS2_PLACEMENT_3D ( 'NONE', #318, #223, #86 ) ;
#307 = CARTESIAN_POINT ( 'NONE',  ( -0.2500000000000000000, 0.0000000000000000000, 1.000000000000000000 ) ) ;
#308 = VECTOR ( 'NONE', #225, 39.37007874015748854 ) ;
#309 = PLANE ( 'NONE',  #285 ) ;
#310 = CARTESIAN_POINT ( 'NONE',  ( -0.007499999999999999722, 9.184850993605147975E-19, 1.707404996040164512E-17 ) ) ;
#311 = DIRECTION ( 'NONE',  ( -0.0000000000000000000, -0.0000000000000000000, -1.000000000000000000 ) ) ;
#312 = AXIS2_PLACEMENT_3D ( 'NONE', #6, #311, #82 ) ;
#313 = FACE_OUTER_BOUND ( 'NONE', #321, .T. ) ;
#314 = ORIENTED_EDGE ( 'NONE', *, *, #85, .T. ) ;
#315 = LENGTH_MEASURE_WITH_UNIT ( LENGTH_MEASURE( 0.02539999999999999897 ), #64 );
#316 = ORIENTED_EDGE ( 'NONE', *, *, #85, .F. ) ;
#317 = ADVANCED_FACE ( 'NONE', ( #141 ), #171, .T. ) ;
#318 = CARTESIAN_POINT ( 'NONE',  ( 0.0000000000000000000, 0.0000000000000000000, 3.000000000000000444 ) ) ;
#319 = ORIENTED_EDGE ( 'NONE', *, *, #244, .F. ) ;
#320 = CARTESIAN_POINT ( 'NONE',  ( 0.0000000000000000000, 0.0000000000000000000, 3.000000000000000444 ) ) ;
#321 = EDGE_LOOP ( 'NONE', ( #243, #148 ) ) ;
#322 = EDGE_CURVE ( 'NONE', #195, #147, #155, .T. ) ;
#323 = AXIS2_PLACEMENT_3D ( 'NONE', #235, #156, #210 ) ;
#324 = CIRCLE ( 'NONE', #184, 0.2499500000000001165 ) ;
#325 = DIRECTION ( 'NONE',  ( 1.000000000000000000, 0.0000000000000000000, 0.0000000000000000000 ) ) ;
#326 = LINE ( 'NONE', #181, #267 ) ;
#327 = AXIS2_PLACEMENT_3D ( 'NONE', #204, #67, #233 ) ;
#328 = CARTESIAN_POINT ( 'NONE',  ( -0.2499500000000001165, 0.0000000000000000000, 1.000000000000000000 ) ) ;
#329 = DIRECTION ( 'NONE',  ( 0.0000000000000000000, 0.0000000000000000000, 1.000000000000000000 ) ) ;
ENDSEC;
END-ISO-10303-21;
