ISO-10303-21;
HEADER;
FILE_DESCRIPTION (( 'STEP AP214' ),
    '1' );
FILE_NAME ('Micro_BMR-018-2.STEP',
    '2021-09-03T13:48:27',
    ( '' ),
    ( '' ),
    'SwSTEP 2.0',
    'SolidWorks 2020',
    '' );
FILE_SCHEMA (( 'AUTOMOTIVE_DESIGN' ));
ENDSEC;

DATA;
#1 = DIRECTION ( 'NONE',  ( 1.224646799147353454E-16, 0.0000000000000000000, 1.000000000000000000 ) ) ;
#2 = CARTESIAN_POINT ( 'NONE',  ( 0.0000000000000000000, 0.0000000000000000000, 1.500000000000000222 ) ) ;
#3 = LINE ( 'NONE', #103, #34 ) ;
#4 = ADVANCED_FACE ( 'NONE', ( #247 ), #157, .T. ) ;
#5 = LENGTH_MEASURE_WITH_UNIT ( LENGTH_MEASURE( 0.02539999999999999897 ), #54 );
#6 =( LENGTH_UNIT ( ) NAMED_UNIT ( * ) SI_UNIT ( $, .METRE. ) );
#7 = DIRECTION ( 'NONE',  ( 1.224646799147353454E-16, 0.0000000000000000000, 1.000000000000000000 ) ) ;
#8 = AXIS2_PLACEMENT_3D ( 'NONE', #153, #319, #44 ) ;
#9 = CIRCLE ( 'NONE', #106, 0.008990999999999998993 ) ;
#10 = VERTEX_POINT ( 'NONE', #268 ) ;
#11 = EDGE_CURVE ( 'NONE', #173, #58, #18, .T. ) ;
#12 = DIRECTION ( 'NONE',  ( 0.0000000000000000000, 0.0000000000000000000, -1.000000000000000000 ) ) ;
#13 = ORIENTED_EDGE ( 'NONE', *, *, #203, .F. ) ;
#14 = UNCERTAINTY_MEASURE_WITH_UNIT (LENGTH_MEASURE( 1.000000000000000082E-05 ), #243, 'distance_accuracy_value', 'NONE');
#15 = ORIENTED_EDGE ( 'NONE', *, *, #160, .F. ) ;
#16 = DIRECTION ( 'NONE',  ( 1.000000000000000000, 0.0000000000000000000, 0.0000000000000000000 ) ) ;
#17 =( GEOMETRIC_REPRESENTATION_CONTEXT ( 3 ) GLOBAL_UNCERTAINTY_ASSIGNED_CONTEXT ( ( #138 ) ) GLOBAL_UNIT_ASSIGNED_CONTEXT ( ( #102, #33, #300 ) ) REPRESENTATION_CONTEXT ( 'NONE', 'WORKASPACE' ) );
#18 = CIRCLE ( 'NONE', #8, 0.008990999999999998993 ) ;
#19 = CIRCLE ( 'NONE', #255, 0.06250000000000002776 ) ;
#20 = CYLINDRICAL_SURFACE ( 'NONE', #287, 0.008990999999999998993 ) ;
#21 = DIRECTION ( 'NONE',  ( -1.000000000000000000, 0.0000000000000000000, 0.0000000000000000000 ) ) ;
#22 = DIRECTION ( 'NONE',  ( -1.224646799147353454E-16, -0.0000000000000000000, -1.000000000000000000 ) ) ;
#23 = LINE ( 'NONE', #64, #128 ) ;
#24 = DIRECTION ( 'NONE',  ( -0.7071067811865462405, 0.0000000000000000000, -0.7071067811865486830 ) ) ;
#25 = VERTEX_POINT ( 'NONE', #90 ) ;
#26 = DIRECTION ( 'NONE',  ( -0.1736481776669311916, 2.126576849575783316E-17, 0.9848077530122080203 ) ) ;
#27 = EDGE_LOOP ( 'NONE', ( #236, #290, #312 ) ) ;
#28 = DIRECTION ( 'NONE',  ( -1.224646799147353454E-16, -0.0000000000000000000, -1.000000000000000000 ) ) ;
#29 = ORIENTED_EDGE ( 'NONE', *, *, #55, .F. ) ;
#30 = EDGE_CURVE ( 'NONE', #234, #165, #219, .T. ) ;
#31 = DIRECTION ( 'NONE',  ( -1.000000000000000000, 0.0000000000000000000, 0.0000000000000000000 ) ) ;
#32 = CIRCLE ( 'NONE', #298, 0.008991000000000000728 ) ;
#33 =( NAMED_UNIT ( * ) PLANE_ANGLE_UNIT ( ) SI_UNIT ( $, .RADIAN. ) );
#34 = VECTOR ( 'NONE', #133, 39.37007874015748143 ) ;
#35 =( NAMED_UNIT ( * ) PLANE_ANGLE_UNIT ( ) SI_UNIT ( $, .RADIAN. ) );
#36 = ORIENTED_EDGE ( 'NONE', *, *, #193, .T. ) ;
#37 = FILL_AREA_STYLE_COLOUR ( '', #251 ) ;
#38 = CARTESIAN_POINT ( 'NONE',  ( 6.613092715395708853E-18, 0.0000000000000000000, 0.05399999999999999939 ) ) ;
#39 = EDGE_LOOP ( 'NONE', ( #117, #47 ) ) ;
#40 = AXIS2_PLACEMENT_3D ( 'NONE', #46, #158, #120 ) ;
#41 = CARTESIAN_POINT ( 'NONE',  ( 0.008991000000000005932, 0.0000000000000000000, 0.05399999999999999939 ) ) ;
#42 = ORIENTED_EDGE ( 'NONE', *, *, #125, .F. ) ;
#43 = AXIS2_PLACEMENT_3D ( 'NONE', #169, #201, #112 ) ;
#44 = DIRECTION ( 'NONE',  ( -1.000000000000000000, 0.0000000000000000000, 0.0000000000000000000 ) ) ;
#45 = ORIENTED_EDGE ( 'NONE', *, *, #30, .T. ) ;
#46 = CARTESIAN_POINT ( 'NONE',  ( 0.0000000000000000000, 0.0000000000000000000, 1.485000000000000764 ) ) ;
#47 = ORIENTED_EDGE ( 'NONE', *, *, #164, .T. ) ;
#48 = EDGE_CURVE ( 'NONE', #10, #274, #194, .T. ) ;
#49 = CARTESIAN_POINT ( 'NONE',  ( 0.0000000000000000000, 0.0000000000000000000, 1.500000000000000222 ) ) ;
#50 = CARTESIAN_POINT ( 'NONE',  ( 0.04750000000000064587, 5.817072295950006528E-18, 1.500000000000000222 ) ) ;
#51 = PRODUCT_DEFINITION ( 'UNKNOWN', '', #283, #171 ) ;
#52 = PLANE ( 'NONE',  #189 ) ;
#53 = CARTESIAN_POINT ( 'NONE',  ( 6.613092715395708853E-18, 0.0000000000000000000, 0.05399999999999999939 ) ) ;
#54 =( LENGTH_UNIT ( ) NAMED_UNIT ( * ) SI_UNIT ( $, .METRE. ) );
#55 = EDGE_CURVE ( 'NONE', #58, #165, #257, .T. ) ;
#56 = LENGTH_MEASURE_WITH_UNIT ( LENGTH_MEASURE( 0.02539999999999999897 ), #6 );
#57 = DIRECTION ( 'NONE',  ( 1.000000000000000000, 0.0000000000000000000, 0.0000000000000000000 ) ) ;
#58 = VERTEX_POINT ( 'NONE', #250 ) ;
#59 = EDGE_CURVE ( 'NONE', #182, #25, #23, .T. ) ;
#60 = DIRECTION ( 'NONE',  ( -1.000000000000000000, 0.0000000000000000000, 0.0000000000000000000 ) ) ;
#61 = ORIENTED_EDGE ( 'NONE', *, *, #11, .F. ) ;
#62 = STYLED_ITEM ( 'NONE', ( #76 ), #84 ) ;
#63 = CARTESIAN_POINT ( 'NONE',  ( 0.0000000000000000000, 0.0000000000000000000, 1.500000000000000222 ) ) ;
#64 = CARTESIAN_POINT ( 'NONE',  ( -0.06250000000000002776, 0.0000000000000000000, 1.500000000000000222 ) ) ;
#65 = CYLINDRICAL_SURFACE ( 'NONE', #122, 0.06250000000000002776 ) ;
#66 = CYLINDRICAL_SURFACE ( 'NONE', #176, 0.008990999999999998993 ) ;
#67 = CARTESIAN_POINT ( 'NONE',  ( 1.101079937113385482E-18, 0.0000000000000000000, 0.008991000000000000728 ) ) ;
#68 = CARTESIAN_POINT ( 'NONE',  ( 0.0000000000000000000, 0.0000000000000000000, 0.0000000000000000000 ) ) ;
#69 = APPLICATION_CONTEXT ( 'automotive_design' ) ;
#70 = CARTESIAN_POINT ( 'NONE',  ( 0.008990999999999998993, 1.101079937113385097E-18, 0.008990999999999998993 ) ) ;
#71 = ORIENTED_EDGE ( 'NONE', *, *, #105, .F. ) ;
#72 = LINE ( 'NONE', #282, #285 ) ;
#73 = DIRECTION ( 'NONE',  ( 1.224646799147353454E-16, 0.0000000000000000000, 1.000000000000000000 ) ) ;
#74 = ADVANCED_FACE ( 'NONE', ( #293 ), #66, .T. ) ;
#75 = FACE_OUTER_BOUND ( 'NONE', #27, .T. ) ;
#76 = PRESENTATION_STYLE_ASSIGNMENT (( #134 ) ) ;
#77 = VECTOR ( 'NONE', #24, 39.37007874015748854 ) ;
#78 = ORIENTED_EDGE ( 'NONE', *, *, #48, .F. ) ;
#79 = SURFACE_STYLE_USAGE ( .BOTH. , #306 ) ;
#80 = VECTOR ( 'NONE', #226, 39.37007874015748143 ) ;
#81 = ORIENTED_EDGE ( 'NONE', *, *, #232, .F. ) ;
#82 = CYLINDRICAL_SURFACE ( 'NONE', #275, 0.06250000000000002776 ) ;
#83 = CIRCLE ( 'NONE', #184, 0.008990999999999998993 ) ;
#84 = MANIFOLD_SOLID_BREP ( 'Fillet1', #163 ) ;
#85 = DIRECTION ( 'NONE',  ( -1.224646799147353454E-16, -0.0000000000000000000, -1.000000000000000000 ) ) ;
#86 = ORIENTED_EDGE ( 'NONE', *, *, #281, .T. ) ;
#87 = CARTESIAN_POINT ( 'NONE',  ( -0.06250000000000002776, 0.0000000000000000000, 1.485000000000000764 ) ) ;
#88 = ORIENTED_EDGE ( 'NONE', *, *, #164, .F. ) ;
#89 = LINE ( 'NONE', #214, #239 ) ;
#90 = CARTESIAN_POINT ( 'NONE',  ( -0.06249999999999997918, 0.0000000000000000000, 0.3574646188859224583 ) ) ;
#91 = SHAPE_DEFINITION_REPRESENTATION ( #248, #150 ) ;
#92 = DIRECTION ( 'NONE',  ( -1.000000000000000000, 0.0000000000000000000, 1.186884798715496451E-16 ) ) ;
#93 = DIRECTION ( 'NONE',  ( 1.224646799147353454E-16, 0.0000000000000000000, 1.000000000000000000 ) ) ;
#94 = PRODUCT_CONTEXT ( 'NONE', #69, 'mechanical' ) ;
#95 = DIRECTION ( 'NONE',  ( 0.0000000000000000000, 0.0000000000000000000, -1.000000000000000000 ) ) ;
#96 = ORIENTED_EDGE ( 'NONE', *, *, #55, .T. ) ;
#97 = PRESENTATION_LAYER_ASSIGNMENT (  '', '', ( #187 ) ) ;
#98 = CARTESIAN_POINT ( 'NONE',  ( 0.0000000000000000000, 0.0000000000000000000, 1.500000000000000222 ) ) ;
#99 = ORIENTED_EDGE ( 'NONE', *, *, #217, .F. ) ;
#100 = AXIS2_PLACEMENT_3D ( 'NONE', #49, #254, #21 ) ;
#101 = CARTESIAN_POINT ( 'NONE',  ( 4.377679013270735668E-17, 0.0000000000000000000, 0.3574646188859224583 ) ) ;
#102 =( CONVERSION_BASED_UNIT ( 'INCH', #5 ) LENGTH_UNIT ( ) NAMED_UNIT ( #240 ) );
#103 = CARTESIAN_POINT ( 'NONE',  ( 0.008990999999999998993, 1.101079937113385097E-18, -1.101079937113385289E-18 ) ) ;
#104 = ADVANCED_FACE ( 'NONE', ( #270 ), #278, .T. ) ;
#105 = EDGE_CURVE ( 'NONE', #173, #220, #72, .T. ) ;
#106 = AXIS2_PLACEMENT_3D ( 'NONE', #38, #85, #60 ) ;
#107 = ORIENTED_EDGE ( 'NONE', *, *, #59, .T. ) ;
#108 = AXIS2_PLACEMENT_3D ( 'NONE', #162, #7, #213 ) ;
#109 = FACE_OUTER_BOUND ( 'NONE', #267, .T. ) ;
#110 = ORIENTED_EDGE ( 'NONE', *, *, #127, .T. ) ;
#111 = PRODUCT ( 'Micro_BMR-018-2', 'Micro_BMR-018-2', '', ( #94 ) ) ;
#112 = DIRECTION ( 'NONE',  ( 1.000000000000000000, 0.0000000000000000000, 0.0000000000000000000 ) ) ;
#113 = ORIENTED_EDGE ( 'NONE', *, *, #125, .T. ) ;
#114 = APPLICATION_PROTOCOL_DEFINITION ( 'draft international standard', 'automotive_design', 1998, #244 ) ;
#115 = CARTESIAN_POINT ( 'NONE',  ( -0.008990999999999998993, 0.0000000000000000000, 1.101079937113385289E-18 ) ) ;
#116 = CARTESIAN_POINT ( 'NONE',  ( 1.651619905670078319E-18, 0.0000000000000000000, 0.0000000000000000000 ) ) ;
#117 = ORIENTED_EDGE ( 'NONE', *, *, #48, .T. ) ;
#118 = FACE_OUTER_BOUND ( 'NONE', #308, .T. ) ;
#119 = CARTESIAN_POINT ( 'NONE',  ( 1.101079937113385482E-18, 0.0000000000000000000, 0.008991000000000000728 ) ) ;
#120 = DIRECTION ( 'NONE',  ( 1.000000000000000000, 0.0000000000000000000, 0.0000000000000000000 ) ) ;
#121 = ORIENTED_EDGE ( 'NONE', *, *, #191, .F. ) ;
#122 = AXIS2_PLACEMENT_3D ( 'NONE', #2, #258, #318 ) ;
#123 = FACE_OUTER_BOUND ( 'NONE', #137, .T. ) ;
#124 = DIRECTION ( 'NONE',  ( -0.0000000000000000000, -0.0000000000000000000, -1.000000000000000000 ) ) ;
#125 = EDGE_CURVE ( 'NONE', #173, #234, #3, .T. ) ;
#126 = DIRECTION ( 'NONE',  ( 0.0000000000000000000, -1.000000000000000000, 0.0000000000000000000 ) ) ;
#127 = EDGE_CURVE ( 'NONE', #182, #317, #145, .T. ) ;
#128 = VECTOR ( 'NONE', #124, 39.37007874015748143 ) ;
#129 = LENGTH_MEASURE_WITH_UNIT ( LENGTH_MEASURE( 0.02539999999999999897 ), #215 );
#130 = SURFACE_SIDE_STYLE ('',( #229 ) ) ;
#131 = AXIS2_PLACEMENT_3D ( 'NONE', #259, #126, #294 ) ;
#132 = EDGE_CURVE ( 'NONE', #10, #182, #172, .T. ) ;
#133 = DIRECTION ( 'NONE',  ( -1.224646799147353454E-16, -0.0000000000000000000, -1.000000000000000000 ) ) ;
#134 = SURFACE_STYLE_USAGE ( .BOTH. , #130 ) ;
#135 = VECTOR ( 'NONE', #297, 39.37007874015748854 ) ;
#136 =( NAMED_UNIT ( * ) SI_UNIT ( $, .STERADIAN. ) SOLID_ANGLE_UNIT ( ) );
#137 = EDGE_LOOP ( 'NONE', ( #99, #61, #204, #175 ) ) ;
#138 = UNCERTAINTY_MEASURE_WITH_UNIT (LENGTH_MEASURE( 1.000000000000000082E-05 ), #102, 'distance_accuracy_value', 'NONE');
#139 = MECHANICAL_DESIGN_GEOMETRIC_PRESENTATION_REPRESENTATION (  '', ( #187 ), #227 ) ;
#140 = FACE_OUTER_BOUND ( 'NONE', #198, .T. ) ;
#141 = EDGE_LOOP ( 'NONE', ( #196, #86, #178 ) ) ;
#142 = CARTESIAN_POINT ( 'NONE',  ( -0.04750000000000064587, 0.0000000000000000000, 1.500000000000000222 ) ) ;
#143 = DIRECTION ( 'NONE',  ( 1.000000000000000000, 0.0000000000000000000, 0.0000000000000000000 ) ) ;
#144 = AXIS2_PLACEMENT_3D ( 'NONE', #148, #95, #31 ) ;
#145 = CIRCLE ( 'NONE', #266, 0.06250000000000002776 ) ;
#146 = EDGE_LOOP ( 'NONE', ( #264, #113, #45, #29 ) ) ;
#147 = ADVANCED_FACE ( 'NONE', ( #109 ), #82, .T. ) ;
#148 = CARTESIAN_POINT ( 'NONE',  ( 0.0000000000000000000, 0.0000000000000000000, 1.500000000000000222 ) ) ;
#149 = ORIENTED_EDGE ( 'NONE', *, *, #217, .T. ) ;
#150 = ADVANCED_BREP_SHAPE_REPRESENTATION ( 'Micro_BMR-018-2', ( #84, #322 ), #261 ) ;
#151 =( CONVERSION_BASED_UNIT ( 'INCH', #129 ) LENGTH_UNIT ( ) NAMED_UNIT ( #192 ) );
#152 = AXIS2_PLACEMENT_3D ( 'NONE', #53, #73, #235 ) ;
#153 = CARTESIAN_POINT ( 'NONE',  ( 6.613092715395708853E-18, 0.0000000000000000000, 0.05399999999999999939 ) ) ;
#154 = CONICAL_SURFACE ( 'NONE', #144, 0.04750000000000064587, 0.7853981633974466137 ) ;
#155 = DIRECTION ( 'NONE',  ( 1.000000000000000000, 0.0000000000000000000, -0.0000000000000000000 ) ) ;
#156 = CARTESIAN_POINT ( 'NONE',  ( 1.101079937113385482E-18, 0.0000000000000000000, 0.008991000000000000728 ) ) ;
#157 = CONICAL_SURFACE ( 'NONE', #100, 0.04750000000000064587, 0.7853981633974466137 ) ;
#158 = DIRECTION ( 'NONE',  ( 0.0000000000000000000, 0.0000000000000000000, -1.000000000000000000 ) ) ;
#159 = CIRCLE ( 'NONE', #43, 0.04750000000000064587 ) ;
#160 = EDGE_CURVE ( 'NONE', #220, #25, #19, .T. ) ;
#161 = DIRECTION ( 'NONE',  ( 0.1736481776669313859, 0.0000000000000000000, 0.9848077530122077983 ) ) ;
#162 = CARTESIAN_POINT ( 'NONE',  ( 6.613092715395708853E-18, 0.0000000000000000000, 0.05399999999999999939 ) ) ;
#163 = CLOSED_SHELL ( 'NONE', ( #183, #74, #104, #313, #303, #147, #299, #4, #245, #174, #273 ) ) ;
#164 = EDGE_CURVE ( 'NONE', #274, #10, #159, .T. ) ;
#165 = VERTEX_POINT ( 'NONE', #311 ) ;
#166 = FILL_AREA_STYLE ('',( #37 ) ) ;
#167 = ORIENTED_EDGE ( 'NONE', *, *, #203, .T. ) ;
#168 = EDGE_CURVE ( 'NONE', #58, #173, #9, .T. ) ;
#169 = CARTESIAN_POINT ( 'NONE',  ( 0.0000000000000000000, 0.0000000000000000000, 1.500000000000000222 ) ) ;
#170 = ORIENTED_EDGE ( 'NONE', *, *, #11, .T. ) ;
#171 = PRODUCT_DEFINITION_CONTEXT ( 'detailed design', #244, 'design' ) ;
#172 = LINE ( 'NONE', #142, #77 ) ;
#173 = VERTEX_POINT ( 'NONE', #41 ) ;
#174 = ADVANCED_FACE ( 'NONE', ( #140 ), #20, .T. ) ;
#175 = ORIENTED_EDGE ( 'NONE', *, *, #160, .T. ) ;
#176 = AXIS2_PLACEMENT_3D ( 'NONE', #68, #325, #212 ) ;
#177 = AXIS2_PLACEMENT_3D ( 'NONE', #101, #28, #181 ) ;
#178 = ORIENTED_EDGE ( 'NONE', *, *, #30, .F. ) ;
#179 = CARTESIAN_POINT ( 'NONE',  ( 0.06250000000000006939, 7.654042494670963708E-18, 0.3574646188859224583 ) ) ;
#180 = VERTEX_POINT ( 'NONE', #116 ) ;
#181 = DIRECTION ( 'NONE',  ( 1.000000000000000000, 0.0000000000000000000, 0.0000000000000000000 ) ) ;
#182 = VERTEX_POINT ( 'NONE', #87 ) ;
#183 = ADVANCED_FACE ( 'NONE', ( #228 ), #211, .T. ) ;
#184 = AXIS2_PLACEMENT_3D ( 'NONE', #260, #1, #92 ) ;
#185 = DIRECTION ( 'NONE',  ( 1.000000000000000000, 0.0000000000000000000, 0.0000000000000000000 ) ) ;
#186 = DIRECTION ( 'NONE',  ( 0.0000000000000000000, 0.0000000000000000000, 1.000000000000000000 ) ) ;
#187 = STYLED_ITEM ( 'NONE', ( #221 ), #150 ) ;
#188 = LINE ( 'NONE', #50, #135 ) ;
#189 = AXIS2_PLACEMENT_3D ( 'NONE', #98, #271, #155 ) ;
#190 = CARTESIAN_POINT ( 'NONE',  ( 0.0000000000000000000, 0.0000000000000000000, 0.0000000000000000000 ) ) ;
#191 = EDGE_CURVE ( 'NONE', #317, #220, #89, .T. ) ;
#192 = DIMENSIONAL_EXPONENTS ( 1.000000000000000000, 0.0000000000000000000, 0.0000000000000000000, 0.0000000000000000000, 0.0000000000000000000, 0.0000000000000000000, 0.0000000000000000000 ) ;
#193 = EDGE_CURVE ( 'NONE', #165, #234, #83, .T. ) ;
#194 = CIRCLE ( 'NONE', #237, 0.04750000000000064587 ) ;
#195 = AXIS2_PLACEMENT_3D ( 'NONE', #230, #279, #185 ) ;
#196 = ORIENTED_EDGE ( 'NONE', *, *, #323, .F. ) ;
#197 =( NAMED_UNIT ( * ) SI_UNIT ( $, .STERADIAN. ) SOLID_ANGLE_UNIT ( ) );
#198 = EDGE_LOOP ( 'NONE', ( #42, #170, #96, #36 ) ) ;
#199 = AXIS2_PLACEMENT_3D ( 'NONE', #67, #256, #253 ) ;
#200 = ORIENTED_EDGE ( 'NONE', *, *, #127, .F. ) ;
#201 = DIRECTION ( 'NONE',  ( 0.0000000000000000000, 0.0000000000000000000, 1.000000000000000000 ) ) ;
#202 = FILL_AREA_STYLE ('',( #316 ) ) ;
#203 = EDGE_CURVE ( 'NONE', #274, #317, #188, .T. ) ;
#204 = ORIENTED_EDGE ( 'NONE', *, *, #105, .T. ) ;
#205 = MECHANICAL_DESIGN_GEOMETRIC_PRESENTATION_REPRESENTATION (  '', ( #62 ), #17 ) ;
#206 = CARTESIAN_POINT ( 'NONE',  ( 0.04750000000000064587, 6.735557395310483192E-18, 1.500000000000000222 ) ) ;
#207 = CARTESIAN_POINT ( 'NONE',  ( 0.0000000000000000000, 0.0000000000000000000, 1.500000000000000222 ) ) ;
#208 = CARTESIAN_POINT ( 'NONE',  ( 0.06250000000000002776, 7.654042494670959086E-18, 1.485000000000000764 ) ) ;
#209 = DIRECTION ( 'NONE',  ( -1.000000000000000000, 0.0000000000000000000, 1.186884798715496451E-16 ) ) ;
#210 = CARTESIAN_POINT ( 'NONE',  ( 0.0000000000000000000, 0.0000000000000000000, 1.485000000000000764 ) ) ;
#211 = SPHERICAL_SURFACE ( 'NONE', #199, 0.008991000000000000728 ) ;
#212 = DIRECTION ( 'NONE',  ( -1.000000000000000000, 0.0000000000000000000, 1.224646799147353454E-16 ) ) ;
#213 = DIRECTION ( 'NONE',  ( 1.000000000000000000, 0.0000000000000000000, 0.0000000000000000000 ) ) ;
#214 = CARTESIAN_POINT ( 'NONE',  ( 0.06250000000000002776, 7.654042494670959086E-18, 1.500000000000000222 ) ) ;
#215 =( LENGTH_UNIT ( ) NAMED_UNIT ( * ) SI_UNIT ( $, .METRE. ) );
#216 = UNCERTAINTY_MEASURE_WITH_UNIT (LENGTH_MEASURE( 1.000000000000000082E-05 ), #151, 'distance_accuracy_value', 'NONE');
#217 = EDGE_CURVE ( 'NONE', #58, #25, #280, .T. ) ;
#218 = CIRCLE ( 'NONE', #131, 0.008991000000000000728 ) ;
#219 = CIRCLE ( 'NONE', #284, 0.008990999999999998993 ) ;
#220 = VERTEX_POINT ( 'NONE', #179 ) ;
#221 = PRESENTATION_STYLE_ASSIGNMENT (( #79 ) ) ;
#222 = ORIENTED_EDGE ( 'NONE', *, *, #269, .T. ) ;
#223 = DIRECTION ( 'NONE',  ( -1.000000000000000000, 0.0000000000000000000, 0.0000000000000000000 ) ) ;
#224 = EDGE_LOOP ( 'NONE', ( #88, #167, #200, #305 ) ) ;
#225 = CARTESIAN_POINT ( 'NONE',  ( 0.0000000000000000000, 0.0000000000000000000, 0.0000000000000000000 ) ) ;
#226 = DIRECTION ( 'NONE',  ( -1.224646799147353454E-16, -0.0000000000000000000, -1.000000000000000000 ) ) ;
#227 =( GEOMETRIC_REPRESENTATION_CONTEXT ( 3 ) GLOBAL_UNCERTAINTY_ASSIGNED_CONTEXT ( ( #14 ) ) GLOBAL_UNIT_ASSIGNED_CONTEXT ( ( #243, #304, #197 ) ) REPRESENTATION_CONTEXT ( 'NONE', 'WORKASPACE' ) );
#228 = FACE_OUTER_BOUND ( 'NONE', #141, .T. ) ;
#229 = SURFACE_STYLE_FILL_AREA ( #202 ) ;
#230 = CARTESIAN_POINT ( 'NONE',  ( 1.101079937113385482E-18, 0.0000000000000000000, 0.008991000000000000728 ) ) ;
#231 = EDGE_LOOP ( 'NONE', ( #13, #78, #277, #263 ) ) ;
#232 = EDGE_CURVE ( 'NONE', #25, #220, #241, .T. ) ;
#233 = FACE_OUTER_BOUND ( 'NONE', #224, .T. ) ;
#234 = VERTEX_POINT ( 'NONE', #70 ) ;
#235 = DIRECTION ( 'NONE',  ( 1.000000000000000000, 0.0000000000000000000, 0.0000000000000000000 ) ) ;
#236 = ORIENTED_EDGE ( 'NONE', *, *, #281, .F. ) ;
#237 = AXIS2_PLACEMENT_3D ( 'NONE', #207, #186, #143 ) ;
#238 = DIRECTION ( 'NONE',  ( -1.000000000000000000, 1.224646799147353207E-16, 0.0000000000000000000 ) ) ;
#239 = VECTOR ( 'NONE', #296, 39.37007874015748143 ) ;
#240 = DIMENSIONAL_EXPONENTS ( 1.000000000000000000, 0.0000000000000000000, 0.0000000000000000000, 0.0000000000000000000, 0.0000000000000000000, 0.0000000000000000000, 0.0000000000000000000 ) ;
#241 = CIRCLE ( 'NONE', #177, 0.06250000000000002776 ) ;
#242 = SURFACE_STYLE_FILL_AREA ( #166 ) ;
#243 =( CONVERSION_BASED_UNIT ( 'INCH', #56 ) LENGTH_UNIT ( ) NAMED_UNIT ( #309 ) );
#244 = APPLICATION_CONTEXT ( 'automotive_design' ) ;
#245 = ADVANCED_FACE ( 'NONE', ( #123 ), #288, .T. ) ;
#246 = DIRECTION ( 'NONE',  ( -0.0000000000000000000, -0.0000000000000000000, -1.000000000000000000 ) ) ;
#247 = FACE_OUTER_BOUND ( 'NONE', #231, .T. ) ;
#248 = PRODUCT_DEFINITION_SHAPE ( 'NONE', 'NONE',  #51 ) ;
#249 = DIRECTION ( 'NONE',  ( 1.000000000000000000, 0.0000000000000000000, 0.0000000000000000000 ) ) ;
#250 = CARTESIAN_POINT ( 'NONE',  ( -0.008990999999999992054, 4.377561215892172573E-18, 0.05399999999999999939 ) ) ;
#251 = COLOUR_RGB ( '',0.7921568627450980005, 0.8196078431372548767, 0.9333333333333333481 ) ;
#252 = EDGE_LOOP ( 'NONE', ( #291, #149, #321, #71 ) ) ;
#253 = DIRECTION ( 'NONE',  ( 1.000000000000000000, 0.0000000000000000000, 0.0000000000000000000 ) ) ;
#254 = DIRECTION ( 'NONE',  ( 0.0000000000000000000, 0.0000000000000000000, -1.000000000000000000 ) ) ;
#255 = AXIS2_PLACEMENT_3D ( 'NONE', #286, #289, #57 ) ;
#256 = DIRECTION ( 'NONE',  ( 0.0000000000000000000, 1.000000000000000000, 0.0000000000000000000 ) ) ;
#257 = LINE ( 'NONE', #115, #80 ) ;
#258 = DIRECTION ( 'NONE',  ( -0.0000000000000000000, -0.0000000000000000000, -1.000000000000000000 ) ) ;
#259 = CARTESIAN_POINT ( 'NONE',  ( 1.101079937113385482E-18, 0.0000000000000000000, 0.008991000000000000728 ) ) ;
#260 = CARTESIAN_POINT ( 'NONE',  ( 1.101079937113385482E-18, 0.0000000000000000000, 0.008991000000000000728 ) ) ;
#261 =( GEOMETRIC_REPRESENTATION_CONTEXT ( 3 ) GLOBAL_UNCERTAINTY_ASSIGNED_CONTEXT ( ( #216 ) ) GLOBAL_UNIT_ASSIGNED_CONTEXT ( ( #151, #35, #136 ) ) REPRESENTATION_CONTEXT ( 'NONE', 'WORKASPACE' ) );
#262 = CIRCLE ( 'NONE', #40, 0.06250000000000002776 ) ;
#263 = ORIENTED_EDGE ( 'NONE', *, *, #269, .F. ) ;
#264 = ORIENTED_EDGE ( 'NONE', *, *, #168, .T. ) ;
#265 = PRODUCT_RELATED_PRODUCT_CATEGORY ( 'part', '', ( #111 ) ) ;
#266 = AXIS2_PLACEMENT_3D ( 'NONE', #210, #12, #249 ) ;
#267 = EDGE_LOOP ( 'NONE', ( #121, #222, #107, #15 ) ) ;
#268 = CARTESIAN_POINT ( 'NONE',  ( -0.04750000000000064587, 0.0000000000000000000, 1.500000000000000222 ) ) ;
#269 = EDGE_CURVE ( 'NONE', #317, #182, #262, .T. ) ;
#270 = FACE_OUTER_BOUND ( 'NONE', #252, .T. ) ;
#271 = DIRECTION ( 'NONE',  ( 0.0000000000000000000, 0.0000000000000000000, 1.000000000000000000 ) ) ;
#272 = ORIENTED_EDGE ( 'NONE', *, *, #191, .T. ) ;
#273 = ADVANCED_FACE ( 'NONE', ( #75 ), #324, .T. ) ;
#274 = VERTEX_POINT ( 'NONE', #206 ) ;
#275 = AXIS2_PLACEMENT_3D ( 'NONE', #63, #246, #223 ) ;
#276 = FACE_OUTER_BOUND ( 'NONE', #39, .T. ) ;
#277 = ORIENTED_EDGE ( 'NONE', *, *, #132, .T. ) ;
#278 = CONICAL_SURFACE ( 'NONE', #108, 0.008990999999999998993, 0.1745329251994338915 ) ;
#279 = DIRECTION ( 'NONE',  ( 0.0000000000000000000, 1.000000000000000000, 0.0000000000000000000 ) ) ;
#280 = LINE ( 'NONE', #320, #310 ) ;
#281 = EDGE_CURVE ( 'NONE', #180, #165, #32, .T. ) ;
#282 = CARTESIAN_POINT ( 'NONE',  ( 0.008991000000000005932, 0.0000000000000000000, 0.05399999999999999939 ) ) ;
#283 = PRODUCT_DEFINITION_FORMATION_WITH_SPECIFIED_SOURCE ( 'ANY', '', #111, .NOT_KNOWN. ) ;
#284 = AXIS2_PLACEMENT_3D ( 'NONE', #119, #93, #209 ) ;
#285 = VECTOR ( 'NONE', #161, 39.37007874015748143 ) ;
#286 = CARTESIAN_POINT ( 'NONE',  ( 4.377679013270735668E-17, 0.0000000000000000000, 0.3574646188859224583 ) ) ;
#287 = AXIS2_PLACEMENT_3D ( 'NONE', #225, #22, #315 ) ;
#288 = CONICAL_SURFACE ( 'NONE', #152, 0.008990999999999998993, 0.1745329251994338915 ) ;
#289 = DIRECTION ( 'NONE',  ( -1.224646799147353454E-16, -0.0000000000000000000, -1.000000000000000000 ) ) ;
#290 = ORIENTED_EDGE ( 'NONE', *, *, #323, .T. ) ;
#291 = ORIENTED_EDGE ( 'NONE', *, *, #168, .F. ) ;
#292 = DIRECTION ( 'NONE',  ( 1.224646799147353207E-16, 1.000000000000000000, -0.0000000000000000000 ) ) ;
#293 = FACE_OUTER_BOUND ( 'NONE', #146, .T. ) ;
#294 = DIRECTION ( 'NONE',  ( 0.0000000000000000000, 0.0000000000000000000, -1.000000000000000000 ) ) ;
#295 = ORIENTED_EDGE ( 'NONE', *, *, #59, .F. ) ;
#296 = DIRECTION ( 'NONE',  ( -0.0000000000000000000, -0.0000000000000000000, -1.000000000000000000 ) ) ;
#297 = DIRECTION ( 'NONE',  ( 0.7071067811865462405, 8.659560562354916834E-17, -0.7071067811865486830 ) ) ;
#298 = AXIS2_PLACEMENT_3D ( 'NONE', #156, #292, #238 ) ;
#299 = ADVANCED_FACE ( 'NONE', ( #276 ), #52, .T. ) ;
#300 =( NAMED_UNIT ( * ) SI_UNIT ( $, .STERADIAN. ) SOLID_ANGLE_UNIT ( ) );
#301 = DIRECTION ( 'NONE',  ( 0.0000000000000000000, 0.0000000000000000000, 1.000000000000000000 ) ) ;
#302 = PRESENTATION_LAYER_ASSIGNMENT (  '', '', ( #62 ) ) ;
#303 = ADVANCED_FACE ( 'NONE', ( #118 ), #65, .T. ) ;
#304 =( NAMED_UNIT ( * ) PLANE_ANGLE_UNIT ( ) SI_UNIT ( $, .RADIAN. ) );
#305 = ORIENTED_EDGE ( 'NONE', *, *, #132, .F. ) ;
#306 = SURFACE_SIDE_STYLE ('',( #242 ) ) ;
#307 = COLOUR_RGB ( '',0.7921568627450980005, 0.8196078431372548767, 0.9333333333333333481 ) ;
#308 = EDGE_LOOP ( 'NONE', ( #110, #272, #81, #295 ) ) ;
#309 = DIMENSIONAL_EXPONENTS ( 1.000000000000000000, 0.0000000000000000000, 0.0000000000000000000, 0.0000000000000000000, 0.0000000000000000000, 0.0000000000000000000, 0.0000000000000000000 ) ;
#310 = VECTOR ( 'NONE', #26, 39.37007874015747433 ) ;
#311 = CARTESIAN_POINT ( 'NONE',  ( -0.008990999999999997258, 0.0000000000000000000, 0.008991000000000000728 ) ) ;
#312 = ORIENTED_EDGE ( 'NONE', *, *, #193, .F. ) ;
#313 = ADVANCED_FACE ( 'NONE', ( #233 ), #154, .T. ) ;
#314 = APPLICATION_PROTOCOL_DEFINITION ( 'draft international standard', 'automotive_design', 1998, #69 ) ;
#315 = DIRECTION ( 'NONE',  ( -1.000000000000000000, 0.0000000000000000000, 1.224646799147353454E-16 ) ) ;
#316 = FILL_AREA_STYLE_COLOUR ( '', #307 ) ;
#317 = VERTEX_POINT ( 'NONE', #208 ) ;
#318 = DIRECTION ( 'NONE',  ( -1.000000000000000000, 0.0000000000000000000, 0.0000000000000000000 ) ) ;
#319 = DIRECTION ( 'NONE',  ( -1.224646799147353454E-16, -0.0000000000000000000, -1.000000000000000000 ) ) ;
#320 = CARTESIAN_POINT ( 'NONE',  ( -0.008990999999999992054, 1.101079937113385097E-18, 0.05399999999999999939 ) ) ;
#321 = ORIENTED_EDGE ( 'NONE', *, *, #232, .T. ) ;
#322 = AXIS2_PLACEMENT_3D ( 'NONE', #190, #301, #16 ) ;
#323 = EDGE_CURVE ( 'NONE', #180, #234, #218, .T. ) ;
#324 = SPHERICAL_SURFACE ( 'NONE', #195, 0.008991000000000000728 ) ;
#325 = DIRECTION ( 'NONE',  ( -1.224646799147353454E-16, -0.0000000000000000000, -1.000000000000000000 ) ) ;
ENDSEC;
END-ISO-10303-21;
