ISO-10303-21;
HEADER;
FILE_DESCRIPTION (( 'STEP AP214' ),
    '1' );
FILE_NAME ('Micro_DMM-100-4120.STEP',
    '2021-09-02T16:29:59',
    ( '' ),
    ( '' ),
    'SwSTEP 2.0',
    'SolidWorks 2020',
    '' );
FILE_SCHEMA (( 'AUTOMOTIVE_DESIGN' ));
ENDSEC;

DATA;
#1 = AXIS2_PLACEMENT_3D ( 'NONE', #329, #307, #64 ) ;
#2 =( CONVERSION_BASED_UNIT ( 'INCH', #278 ) LENGTH_UNIT ( ) NAMED_UNIT ( #215 ) );
#3 = DIRECTION ( 'NONE',  ( -1.000000000000000000, 0.0000000000000000000, 0.0000000000000000000 ) ) ;
#4 = EDGE_CURVE ( 'NONE', #66, #208, #95, .T. ) ;
#5 = DIRECTION ( 'NONE',  ( -0.0000000000000000000, -0.0000000000000000000, -1.000000000000000000 ) ) ;
#6 = VECTOR ( 'NONE', #181, 39.37007874015748143 ) ;
#7 = CARTESIAN_POINT ( 'NONE',  ( -0.007499999999999999722, 1.250979766946019529E-17, 1.707404996040164512E-17 ) ) ;
#8 = SURFACE_SIDE_STYLE ('',( #328 ) ) ;
#9 = APPLICATION_CONTEXT ( 'automotive_design' ) ;
#10 = DIRECTION ( 'NONE',  ( -1.000000000000000000, 0.0000000000000000000, 0.0000000000000000000 ) ) ;
#11 = MANIFOLD_SOLID_BREP ( 'Cut-Revolve4', #164 ) ;
#12 = ORIENTED_EDGE ( 'NONE', *, *, #4, .T. ) ;
#13 = EDGE_CURVE ( 'NONE', #312, #244, #237, .T. ) ;
#14 = ORIENTED_EDGE ( 'NONE', *, *, #219, .T. ) ;
#15 = AXIS2_PLACEMENT_3D ( 'NONE', #207, #48, #230 ) ;
#16 = ORIENTED_EDGE ( 'NONE', *, *, #88, .T. ) ;
#17 = LINE ( 'NONE', #162, #63 ) ;
#18 = EDGE_LOOP ( 'NONE', ( #318, #24, #174, #43 ) ) ;
#19 = ADVANCED_FACE ( 'NONE', ( #154 ), #25, .F. ) ;
#20 = FILL_AREA_STYLE_COLOUR ( '', #131 ) ;
#21 = CONICAL_SURFACE ( 'NONE', #209, 0.1818505000000002481, 0.7853981633974312926 ) ;
#22 = CARTESIAN_POINT ( 'NONE',  ( -0.007499999999999999722, 9.184850993605147975E-19, 1.707404996040164512E-17 ) ) ;
#23 = MECHANICAL_DESIGN_GEOMETRIC_PRESENTATION_REPRESENTATION (  '', ( #120 ), #121 ) ;
#24 = ORIENTED_EDGE ( 'NONE', *, *, #186, .T. ) ;
#25 = PLANE ( 'NONE',  #144 ) ;
#26 = PRESENTATION_STYLE_ASSIGNMENT (( #224 ) ) ;
#27 = AXIS2_PLACEMENT_3D ( 'NONE', #71, #97, #157 ) ;
#28 = LENGTH_MEASURE_WITH_UNIT ( LENGTH_MEASURE( 0.02539999999999999897 ), #130 );
#29 = SHAPE_DEFINITION_REPRESENTATION ( #105, #153 ) ;
#30 = APPLICATION_PROTOCOL_DEFINITION ( 'draft international standard', 'automotive_design', 1998, #96 ) ;
#31 = CARTESIAN_POINT ( 'NONE',  ( 0.0000000000000000000, 0.0000000000000000000, 0.1092926946327301002 ) ) ;
#32 = AXIS2_PLACEMENT_3D ( 'NONE', #298, #72, #53 ) ;
#33 = PRESENTATION_STYLE_ASSIGNMENT (( #256 ) ) ;
#34 = FACE_OUTER_BOUND ( 'NONE', #222, .T. ) ;
#35 = EDGE_CURVE ( 'NONE', #208, #289, #306, .T. ) ;
#36 = DIRECTION ( 'NONE',  ( -1.000000000000000000, 0.0000000000000000000, 0.0000000000000000000 ) ) ;
#37 = AXIS2_PLACEMENT_3D ( 'NONE', #213, #238, #211 ) ;
#38 =( CONVERSION_BASED_UNIT ( 'INCH', #240 ) LENGTH_UNIT ( ) NAMED_UNIT ( #167 ) );
#39 = EDGE_LOOP ( 'NONE', ( #180, #117, #65, #145 ) ) ;
#40 = ORIENTED_EDGE ( 'NONE', *, *, #193, .F. ) ;
#41 = ADVANCED_FACE ( 'NONE', ( #270 ), #315, .T. ) ;
#42 = STYLED_ITEM ( 'NONE', ( #26 ), #11 ) ;
#43 = ORIENTED_EDGE ( 'NONE', *, *, #171, .F. ) ;
#44 = CIRCLE ( 'NONE', #293, 0.007499999999999999722 ) ;
#45 = ORIENTED_EDGE ( 'NONE', *, *, #269, .F. ) ;
#46 = CARTESIAN_POINT ( 'NONE',  ( 0.0000000000000000000, 0.0000000000000000000, 2.834646000000000665 ) ) ;
#47 = VECTOR ( 'NONE', #136, 39.37007874015748854 ) ;
#48 = DIRECTION ( 'NONE',  ( -0.0000000000000000000, -0.0000000000000000000, -1.000000000000000000 ) ) ;
#49 = CARTESIAN_POINT ( 'NONE',  ( -0.1968005000000001281, 0.0000000000000000000, 0.0000000000000000000 ) ) ;
#50 = CARTESIAN_POINT ( 'NONE',  ( 0.1968005000000002114, 2.410111023955989620E-17, 0.9842519999999999047 ) ) ;
#51 = CARTESIAN_POINT ( 'NONE',  ( -0.1968504999999999838, 0.0000000000000000000, 2.819646000000000097 ) ) ;
#52 = FACE_OUTER_BOUND ( 'NONE', #90, .T. ) ;
#53 = DIRECTION ( 'NONE',  ( -1.000000000000000000, 0.0000000000000000000, 0.0000000000000000000 ) ) ;
#54 = CIRCLE ( 'NONE', #220, 0.007499999999999999722 ) ;
#55 = DIRECTION ( 'NONE',  ( -0.0000000000000000000, -0.0000000000000000000, -1.000000000000000000 ) ) ;
#56 = CARTESIAN_POINT ( 'NONE',  ( 0.1818505000000002481, 2.318874837419510283E-17, 2.834646000000000665 ) ) ;
#57 = CARTESIAN_POINT ( 'NONE',  ( 0.0000000000000000000, 0.0000000000000000000, 0.0000000000000000000 ) ) ;
#58 = DIRECTION ( 'NONE',  ( -0.0000000000000000000, -0.0000000000000000000, -1.000000000000000000 ) ) ;
#59 = AXIS2_PLACEMENT_3D ( 'NONE', #279, #5, #113 ) ;
#60 = LINE ( 'NONE', #216, #47 ) ;
#61 = EDGE_CURVE ( 'NONE', #244, #91, #125, .T. ) ;
#62 = DIRECTION ( 'NONE',  ( 0.0000000000000000000, 0.0000000000000000000, -1.000000000000000000 ) ) ;
#63 = VECTOR ( 'NONE', #277, 39.37007874015748143 ) ;
#64 = DIRECTION ( 'NONE',  ( 1.000000000000000000, 0.0000000000000000000, 0.0000000000000000000 ) ) ;
#65 = ORIENTED_EDGE ( 'NONE', *, *, #171, .T. ) ;
#66 = VERTEX_POINT ( 'NONE', #77 ) ;
#67 = ORIENTED_EDGE ( 'NONE', *, *, #288, .T. ) ;
#68 = CIRCLE ( 'NONE', #37, 0.1818505000000002481 ) ;
#69 = ORIENTED_EDGE ( 'NONE', *, *, #189, .F. ) ;
#70 = DIRECTION ( 'NONE',  ( 1.000000000000000000, 0.0000000000000000000, 0.0000000000000000000 ) ) ;
#71 = CARTESIAN_POINT ( 'NONE',  ( 0.0000000000000000000, 0.0000000000000000000, 1.707404996040164512E-17 ) ) ;
#72 = DIRECTION ( 'NONE',  ( 0.0000000000000000000, 0.0000000000000000000, -1.000000000000000000 ) ) ;
#73 = AXIS2_PLACEMENT_3D ( 'NONE', #236, #84, #86 ) ;
#74 = ORIENTED_EDGE ( 'NONE', *, *, #241, .T. ) ;
#75 = DIRECTION ( 'NONE',  ( -0.0000000000000000000, -0.0000000000000000000, -1.000000000000000000 ) ) ;
#76 = CARTESIAN_POINT ( 'NONE',  ( 0.0000000000000000000, 0.0000000000000000000, 2.819646000000000097 ) ) ;
#77 = CARTESIAN_POINT ( 'NONE',  ( -0.1968005000000001836, 0.0000000000000000000, 0.9842519999999999047 ) ) ;
#78 = CIRCLE ( 'NONE', #135, 0.1968504999999999838 ) ;
#79 = PRODUCT_DEFINITION_FORMATION_WITH_SPECIFIED_SOURCE ( 'ANY', '', #275, .NOT_KNOWN. ) ;
#80 =( NAMED_UNIT ( * ) SI_UNIT ( $, .STERADIAN. ) SOLID_ANGLE_UNIT ( ) );
#81 = CARTESIAN_POINT ( 'NONE',  ( -0.1968005000000000448, 2.410111023955988080E-17, 0.1092926946327301002 ) ) ;
#82 = DIRECTION ( 'NONE',  ( -0.0000000000000000000, -0.0000000000000000000, -1.000000000000000000 ) ) ;
#83 = CARTESIAN_POINT ( 'NONE',  ( 0.1968005000000000448, 0.0000000000000000000, 0.1092926946327301002 ) ) ;
#84 = DIRECTION ( 'NONE',  ( -0.0000000000000000000, -0.0000000000000000000, -1.000000000000000000 ) ) ;
#85 = CARTESIAN_POINT ( 'NONE',  ( 0.0000000000000000000, 0.0000000000000000000, 0.0000000000000000000 ) ) ;
#86 = DIRECTION ( 'NONE',  ( -1.000000000000000000, 0.0000000000000000000, 0.0000000000000000000 ) ) ;
#87 = ORIENTED_EDGE ( 'NONE', *, *, #35, .F. ) ;
#88 = EDGE_CURVE ( 'NONE', #142, #289, #101, .T. ) ;
#89 = UNCERTAINTY_MEASURE_WITH_UNIT (LENGTH_MEASURE( 1.000000000000000082E-05 ), #38, 'distance_accuracy_value', 'NONE');
#90 = EDGE_LOOP ( 'NONE', ( #195, #295, #177, #92 ) ) ;
#91 = VERTEX_POINT ( 'NONE', #274 ) ;
#92 = ORIENTED_EDGE ( 'NONE', *, *, #88, .F. ) ;
#93 = AXIS2_PLACEMENT_3D ( 'NONE', #248, #75, #158 ) ;
#94 = CARTESIAN_POINT ( 'NONE',  ( 0.0000000000000000000, 0.0000000000000000000, 1.707404996040164512E-17 ) ) ;
#95 = LINE ( 'NONE', #49, #292 ) ;
#96 = APPLICATION_CONTEXT ( 'automotive_design' ) ;
#97 = DIRECTION ( 'NONE',  ( 0.0000000000000000000, 0.0000000000000000000, 1.000000000000000000 ) ) ;
#98 = SURFACE_STYLE_FILL_AREA ( #203 ) ;
#99 = PLANE ( 'NONE',  #150 ) ;
#100 = DIRECTION ( 'NONE',  ( 0.0000000000000000000, 0.0000000000000000000, -1.000000000000000000 ) ) ;
#101 = LINE ( 'NONE', #271, #124 ) ;
#102 = CIRCLE ( 'NONE', #175, 0.1968005000000000171 ) ;
#103 = ORIENTED_EDGE ( 'NONE', *, *, #189, .T. ) ;
#104 = DIRECTION ( 'NONE',  ( -0.0000000000000000000, -0.0000000000000000000, -1.000000000000000000 ) ) ;
#105 = PRODUCT_DEFINITION_SHAPE ( 'NONE', 'NONE',  #110 ) ;
#106 = VECTOR ( 'NONE', #324, 39.37007874015748143 ) ;
#107 = CARTESIAN_POINT ( 'NONE',  ( 0.0000000000000000000, 0.0000000000000000000, 1.707404996040164512E-17 ) ) ;
#108 = FACE_OUTER_BOUND ( 'NONE', #197, .T. ) ;
#109 = PLANE ( 'NONE',  #287 ) ;
#110 = PRODUCT_DEFINITION ( 'UNKNOWN', '', #79, #232 ) ;
#111 = DIRECTION ( 'NONE',  ( 1.000000000000000000, 0.0000000000000000000, 0.0000000000000000000 ) ) ;
#112 = MECHANICAL_DESIGN_GEOMETRIC_PRESENTATION_REPRESENTATION (  '', ( #42 ), #170 ) ;
#113 = DIRECTION ( 'NONE',  ( -1.000000000000000000, 0.0000000000000000000, 0.0000000000000000000 ) ) ;
#114 = AXIS2_PLACEMENT_3D ( 'NONE', #85, #192, #258 ) ;
#115 = UNCERTAINTY_MEASURE_WITH_UNIT (LENGTH_MEASURE( 1.000000000000000082E-05 ), #326, 'distance_accuracy_value', 'NONE');
#116 = APPLICATION_PROTOCOL_DEFINITION ( 'draft international standard', 'automotive_design', 1998, #9 ) ;
#117 = ORIENTED_EDGE ( 'NONE', *, *, #178, .T. ) ;
#118 = PRODUCT_CONTEXT ( 'NONE', #9, 'mechanical' ) ;
#119 = VERTEX_POINT ( 'NONE', #51 ) ;
#120 = STYLED_ITEM ( 'NONE', ( #33 ), #153 ) ;
#121 =( GEOMETRIC_REPRESENTATION_CONTEXT ( 3 ) GLOBAL_UNCERTAINTY_ASSIGNED_CONTEXT ( ( #143 ) ) GLOBAL_UNIT_ASSIGNED_CONTEXT ( ( #2, #194, #137 ) ) REPRESENTATION_CONTEXT ( 'NONE', 'WORKASPACE' ) );
#122 = EDGE_LOOP ( 'NONE', ( #123, #263, #242, #221 ) ) ;
#123 = ORIENTED_EDGE ( 'NONE', *, *, #61, .F. ) ;
#124 = VECTOR ( 'NONE', #184, 39.37007874015748143 ) ;
#125 = LINE ( 'NONE', #129, #273 ) ;
#126 = ORIENTED_EDGE ( 'NONE', *, *, #255, .F. ) ;
#127 = ADVANCED_FACE ( 'NONE', ( #246 ), #156, .T. ) ;
#128 = CARTESIAN_POINT ( 'NONE',  ( -0.1968504999999999838, 0.0000000000000000000, 2.834646000000000665 ) ) ;
#129 = CARTESIAN_POINT ( 'NONE',  ( 0.1818505000000002481, 2.227026327483460228E-17, 2.834646000000000665 ) ) ;
#130 =( LENGTH_UNIT ( ) NAMED_UNIT ( * ) SI_UNIT ( $, .METRE. ) );
#131 = COLOUR_RGB ( '',0.7921568627450980005, 0.8196078431372548767, 0.9333333333333333481 ) ;
#132 = CIRCLE ( 'NONE', #15, 0.1968005000000001836 ) ;
#133 = CARTESIAN_POINT ( 'NONE',  ( 0.0000000000000000000, 0.0000000000000000000, 2.834646000000000665 ) ) ;
#134 = CARTESIAN_POINT ( 'NONE',  ( 0.007499999999999999722, 0.0000000000000000000, 1.707404996040164512E-17 ) ) ;
#135 = AXIS2_PLACEMENT_3D ( 'NONE', #235, #62, #111 ) ;
#136 = DIRECTION ( 'NONE',  ( -0.7071067811865354713, 0.0000000000000000000, -0.7071067811865594521 ) ) ;
#137 =( NAMED_UNIT ( * ) SI_UNIT ( $, .STERADIAN. ) SOLID_ANGLE_UNIT ( ) );
#138 = ADVANCED_FACE ( 'NONE', ( #52 ), #294, .T. ) ;
#139 = CYLINDRICAL_SURFACE ( 'NONE', #114, 0.1968005000000001281 ) ;
#140 = CIRCLE ( 'NONE', #299, 0.1968504999999999838 ) ;
#141 = ORIENTED_EDGE ( 'NONE', *, *, #155, .F. ) ;
#142 = VERTEX_POINT ( 'NONE', #134 ) ;
#143 = UNCERTAINTY_MEASURE_WITH_UNIT (LENGTH_MEASURE( 1.000000000000000082E-05 ), #2, 'distance_accuracy_value', 'NONE');
#144 = AXIS2_PLACEMENT_3D ( 'NONE', #302, #151, #148 ) ;
#145 = ORIENTED_EDGE ( 'NONE', *, *, #219, .F. ) ;
#146 = DIRECTION ( 'NONE',  ( -0.0000000000000000000, -0.0000000000000000000, -1.000000000000000000 ) ) ;
#147 = VERTEX_POINT ( 'NONE', #305 ) ;
#148 = DIRECTION ( 'NONE',  ( 1.000000000000000000, 0.0000000000000000000, -0.0000000000000000000 ) ) ;
#149 = DIRECTION ( 'NONE',  ( 0.0000000000000000000, 0.0000000000000000000, 1.000000000000000000 ) ) ;
#150 = AXIS2_PLACEMENT_3D ( 'NONE', #46, #149, #247 ) ;
#151 = DIRECTION ( 'NONE',  ( 0.0000000000000000000, 0.0000000000000000000, 1.000000000000000000 ) ) ;
#152 = CARTESIAN_POINT ( 'NONE',  ( -0.1968504999999999838, 0.0000000000000000000, 0.9842519999999999047 ) ) ;
#153 = ADVANCED_BREP_SHAPE_REPRESENTATION ( 'Micro_DMM-100-4120', ( #11, #1 ), #267 ) ;
#154 = FACE_OUTER_BOUND ( 'NONE', #217, .T. ) ;
#155 = EDGE_CURVE ( 'NONE', #142, #245, #54, .T. ) ;
#156 = CYLINDRICAL_SURFACE ( 'NONE', #310, 0.1968005000000001281 ) ;
#157 = DIRECTION ( 'NONE',  ( 1.000000000000000000, 0.0000000000000000000, 0.0000000000000000000 ) ) ;
#158 = DIRECTION ( 'NONE',  ( -1.000000000000000000, 0.0000000000000000000, 0.0000000000000000000 ) ) ;
#159 = AXIS2_PLACEMENT_3D ( 'NONE', #94, #296, #70 ) ;
#160 = CIRCLE ( 'NONE', #243, 0.1968005000000001836 ) ;
#161 = EDGE_CURVE ( 'NONE', #66, #321, #132, .T. ) ;
#162 = CARTESIAN_POINT ( 'NONE',  ( 0.1968005000000001281, 2.410111023955988388E-17, 0.0000000000000000000 ) ) ;
#163 =( LENGTH_UNIT ( ) NAMED_UNIT ( * ) SI_UNIT ( $, .METRE. ) );
#164 = CLOSED_SHELL ( 'NONE', ( #127, #138, #41, #226, #253, #316, #276, #210, #313, #264, #19 ) ) ;
#165 = DIRECTION ( 'NONE',  ( -1.000000000000000000, 0.0000000000000000000, 0.0000000000000000000 ) ) ;
#166 = FACE_BOUND ( 'NONE', #322, .T. ) ;
#167 = DIMENSIONAL_EXPONENTS ( 1.000000000000000000, 0.0000000000000000000, 0.0000000000000000000, 0.0000000000000000000, 0.0000000000000000000, 0.0000000000000000000, 0.0000000000000000000 ) ;
#168 = CARTESIAN_POINT ( 'NONE',  ( -0.1818505000000002481, 0.0000000000000000000, 2.834646000000000665 ) ) ;
#169 = FACE_OUTER_BOUND ( 'NONE', #122, .T. ) ;
#170 =( GEOMETRIC_REPRESENTATION_CONTEXT ( 3 ) GLOBAL_UNCERTAINTY_ASSIGNED_CONTEXT ( ( #115 ) ) GLOBAL_UNIT_ASSIGNED_CONTEXT ( ( #326, #228, #229 ) ) REPRESENTATION_CONTEXT ( 'NONE', 'WORKASPACE' ) );
#171 = EDGE_CURVE ( 'NONE', #119, #319, #249, .T. ) ;
#172 =( NAMED_UNIT ( * ) PLANE_ANGLE_UNIT ( ) SI_UNIT ( $, .RADIAN. ) );
#173 = ORIENTED_EDGE ( 'NONE', *, *, #303, .T. ) ;
#174 = ORIENTED_EDGE ( 'NONE', *, *, #280, .F. ) ;
#175 = AXIS2_PLACEMENT_3D ( 'NONE', #31, #284, #36 ) ;
#176 = ORIENTED_EDGE ( 'NONE', *, *, #288, .F. ) ;
#177 = ORIENTED_EDGE ( 'NONE', *, *, #35, .T. ) ;
#178 = EDGE_CURVE ( 'NONE', #91, #119, #140, .T. ) ;
#179 = DIRECTION ( 'NONE',  ( -1.000000000000000000, 0.0000000000000000000, 0.0000000000000000000 ) ) ;
#180 = ORIENTED_EDGE ( 'NONE', *, *, #186, .F. ) ;
#181 = DIRECTION ( 'NONE',  ( -0.8660254037844400399, 1.060575238724908640E-16, 0.4999999999999976685 ) ) ;
#182 = DIRECTION ( 'NONE',  ( 1.000000000000000000, 0.0000000000000000000, 0.0000000000000000000 ) ) ;
#183 = LINE ( 'NONE', #272, #320 ) ;
#184 = DIRECTION ( 'NONE',  ( 0.8660254037844400399, 0.0000000000000000000, 0.4999999999999976685 ) ) ;
#185 = CIRCLE ( 'NONE', #73, 0.1968504999999999838 ) ;
#186 = EDGE_CURVE ( 'NONE', #91, #147, #183, .T. ) ;
#187 = DIRECTION ( 'NONE',  ( -0.0000000000000000000, 0.0000000000000000000, -1.000000000000000000 ) ) ;
#188 = DIRECTION ( 'NONE',  ( -0.0000000000000000000, -0.0000000000000000000, -1.000000000000000000 ) ) ;
#189 = EDGE_CURVE ( 'NONE', #289, #208, #102, .T. ) ;
#190 = AXIS2_PLACEMENT_3D ( 'NONE', #291, #146, #10 ) ;
#191 = DIRECTION ( 'NONE',  ( -1.000000000000000000, 0.0000000000000000000, 0.0000000000000000000 ) ) ;
#192 = DIRECTION ( 'NONE',  ( -0.0000000000000000000, -0.0000000000000000000, -1.000000000000000000 ) ) ;
#193 = EDGE_CURVE ( 'NONE', #312, #119, #60, .T. ) ;
#194 =( NAMED_UNIT ( * ) PLANE_ANGLE_UNIT ( ) SI_UNIT ( $, .RADIAN. ) );
#195 = ORIENTED_EDGE ( 'NONE', *, *, #303, .F. ) ;
#196 = FILL_AREA_STYLE ('',( #281 ) ) ;
#197 = EDGE_LOOP ( 'NONE', ( #265, #14 ) ) ;
#198 = EDGE_LOOP ( 'NONE', ( #325, #67, #87, #261 ) ) ;
#199 = CONICAL_SURFACE ( 'NONE', #159, 0.007499999999999999722, 1.047197551196600518 ) ;
#200 = PRESENTATION_LAYER_ASSIGNMENT (  '', '', ( #120 ) ) ;
#201 = DIMENSIONAL_EXPONENTS ( 1.000000000000000000, 0.0000000000000000000, 0.0000000000000000000, 0.0000000000000000000, 0.0000000000000000000, 0.0000000000000000000, 0.0000000000000000000 ) ;
#202 = EDGE_LOOP ( 'NONE', ( #286, #223, #45, #40 ) ) ;
#203 = FILL_AREA_STYLE ('',( #20 ) ) ;
#204 = PRESENTATION_LAYER_ASSIGNMENT (  '', '', ( #42 ) ) ;
#205 = EDGE_LOOP ( 'NONE', ( #206, #141, #16, #103 ) ) ;
#206 = ORIENTED_EDGE ( 'NONE', *, *, #317, .F. ) ;
#207 = CARTESIAN_POINT ( 'NONE',  ( 0.0000000000000000000, 0.0000000000000000000, 0.9842519999999999047 ) ) ;
#208 = VERTEX_POINT ( 'NONE', #81 ) ;
#209 = AXIS2_PLACEMENT_3D ( 'NONE', #309, #259, #191 ) ;
#210 = ADVANCED_FACE ( 'NONE', ( #166, #108 ), #109, .T. ) ;
#211 = DIRECTION ( 'NONE',  ( 1.000000000000000000, 0.0000000000000000000, 0.0000000000000000000 ) ) ;
#212 = CYLINDRICAL_SURFACE ( 'NONE', #252, 0.1968504999999999838 ) ;
#213 = CARTESIAN_POINT ( 'NONE',  ( 0.0000000000000000000, 0.0000000000000000000, 2.834646000000000665 ) ) ;
#214 = FACE_OUTER_BOUND ( 'NONE', #18, .T. ) ;
#215 = DIMENSIONAL_EXPONENTS ( 1.000000000000000000, 0.0000000000000000000, 0.0000000000000000000, 0.0000000000000000000, 0.0000000000000000000, 0.0000000000000000000, 0.0000000000000000000 ) ;
#216 = CARTESIAN_POINT ( 'NONE',  ( -0.1818505000000002481, 0.0000000000000000000, 2.834646000000000665 ) ) ;
#217 = EDGE_LOOP ( 'NONE', ( #260, #173 ) ) ;
#218 = ORIENTED_EDGE ( 'NONE', *, *, #13, .T. ) ;
#219 = EDGE_CURVE ( 'NONE', #147, #319, #185, .T. ) ;
#220 = AXIS2_PLACEMENT_3D ( 'NONE', #327, #104, #268 ) ;
#221 = ORIENTED_EDGE ( 'NONE', *, *, #178, .F. ) ;
#222 = EDGE_LOOP ( 'NONE', ( #176, #225, #12, #69 ) ) ;
#223 = ORIENTED_EDGE ( 'NONE', *, *, #61, .T. ) ;
#224 = SURFACE_STYLE_USAGE ( .BOTH. , #297 ) ;
#225 = ORIENTED_EDGE ( 'NONE', *, *, #255, .T. ) ;
#226 = ADVANCED_FACE ( 'NONE', ( #214 ), #257, .T. ) ;
#227 = DIRECTION ( 'NONE',  ( 0.7071067811865354713, 8.659560562354783714E-17, -0.7071067811865594521 ) ) ;
#228 =( NAMED_UNIT ( * ) PLANE_ANGLE_UNIT ( ) SI_UNIT ( $, .RADIAN. ) );
#229 =( NAMED_UNIT ( * ) SI_UNIT ( $, .STERADIAN. ) SOLID_ANGLE_UNIT ( ) );
#230 = DIRECTION ( 'NONE',  ( -1.000000000000000000, 0.0000000000000000000, 0.0000000000000000000 ) ) ;
#231 = DIRECTION ( 'NONE',  ( -0.0000000000000000000, -0.0000000000000000000, -1.000000000000000000 ) ) ;
#232 = PRODUCT_DEFINITION_CONTEXT ( 'detailed design', #96, 'design' ) ;
#233 = CARTESIAN_POINT ( 'NONE',  ( 0.1968005000000001836, 0.0000000000000000000, 0.9842519999999999047 ) ) ;
#234 = DIRECTION ( 'NONE',  ( -1.000000000000000000, 0.0000000000000000000, 0.0000000000000000000 ) ) ;
#235 = CARTESIAN_POINT ( 'NONE',  ( 0.0000000000000000000, 0.0000000000000000000, 2.819646000000000097 ) ) ;
#236 = CARTESIAN_POINT ( 'NONE',  ( 0.0000000000000000000, 0.0000000000000000000, 0.9842519999999999047 ) ) ;
#237 = CIRCLE ( 'NONE', #283, 0.1818505000000002481 ) ;
#238 = DIRECTION ( 'NONE',  ( 0.0000000000000000000, 0.0000000000000000000, 1.000000000000000000 ) ) ;
#239 = EDGE_LOOP ( 'NONE', ( #218, #74 ) ) ;
#240 = LENGTH_MEASURE_WITH_UNIT ( LENGTH_MEASURE( 0.02539999999999999897 ), #163 );
#241 = EDGE_CURVE ( 'NONE', #244, #312, #68, .T. ) ;
#242 = ORIENTED_EDGE ( 'NONE', *, *, #193, .T. ) ;
#243 = AXIS2_PLACEMENT_3D ( 'NONE', #285, #58, #165 ) ;
#244 = VERTEX_POINT ( 'NONE', #56 ) ;
#245 = VERTEX_POINT ( 'NONE', #7 ) ;
#246 = FACE_OUTER_BOUND ( 'NONE', #198, .T. ) ;
#247 = DIRECTION ( 'NONE',  ( 1.000000000000000000, 0.0000000000000000000, -0.0000000000000000000 ) ) ;
#248 = CARTESIAN_POINT ( 'NONE',  ( 0.0000000000000000000, 0.0000000000000000000, 0.1092926946327301002 ) ) ;
#249 = LINE ( 'NONE', #128, #106 ) ;
#250 = DIRECTION ( 'NONE',  ( 0.0000000000000000000, 0.0000000000000000000, 1.000000000000000000 ) ) ;
#251 = DIRECTION ( 'NONE',  ( -0.0000000000000000000, -0.0000000000000000000, -1.000000000000000000 ) ) ;
#252 = AXIS2_PLACEMENT_3D ( 'NONE', #311, #82, #282 ) ;
#253 = ADVANCED_FACE ( 'NONE', ( #308 ), #212, .T. ) ;
#254 = COLOUR_RGB ( '',0.7921568627450980005, 0.8196078431372548767, 0.9333333333333333481 ) ;
#255 = EDGE_CURVE ( 'NONE', #321, #66, #160, .T. ) ;
#256 = SURFACE_STYLE_USAGE ( .BOTH. , #8 ) ;
#257 = CYLINDRICAL_SURFACE ( 'NONE', #59, 0.1968504999999999838 ) ;
#258 = DIRECTION ( 'NONE',  ( -1.000000000000000000, 0.0000000000000000000, 0.0000000000000000000 ) ) ;
#259 = DIRECTION ( 'NONE',  ( 0.0000000000000000000, 0.0000000000000000000, -1.000000000000000000 ) ) ;
#260 = ORIENTED_EDGE ( 'NONE', *, *, #155, .T. ) ;
#261 = ORIENTED_EDGE ( 'NONE', *, *, #4, .F. ) ;
#262 = CIRCLE ( 'NONE', #190, 0.1968504999999999838 ) ;
#263 = ORIENTED_EDGE ( 'NONE', *, *, #13, .F. ) ;
#264 = ADVANCED_FACE ( 'NONE', ( #34 ), #139, .T. ) ;
#265 = ORIENTED_EDGE ( 'NONE', *, *, #280, .T. ) ;
#266 = FACE_OUTER_BOUND ( 'NONE', #239, .T. ) ;
#267 =( GEOMETRIC_REPRESENTATION_CONTEXT ( 3 ) GLOBAL_UNCERTAINTY_ASSIGNED_CONTEXT ( ( #89 ) ) GLOBAL_UNIT_ASSIGNED_CONTEXT ( ( #38, #172, #80 ) ) REPRESENTATION_CONTEXT ( 'NONE', 'WORKASPACE' ) );
#268 = DIRECTION ( 'NONE',  ( -1.000000000000000000, 0.0000000000000000000, 0.0000000000000000000 ) ) ;
#269 = EDGE_CURVE ( 'NONE', #119, #91, #78, .T. ) ;
#270 = FACE_OUTER_BOUND ( 'NONE', #202, .T. ) ;
#271 = CARTESIAN_POINT ( 'NONE',  ( 0.007499999999999999722, 0.0000000000000000000, 1.707404996040164512E-17 ) ) ;
#272 = CARTESIAN_POINT ( 'NONE',  ( 0.1968504999999999838, 2.410723347355560646E-17, 2.834646000000000665 ) ) ;
#273 = VECTOR ( 'NONE', #227, 39.37007874015748854 ) ;
#274 = CARTESIAN_POINT ( 'NONE',  ( 0.1968504999999999838, 2.410723347355560646E-17, 2.819646000000000097 ) ) ;
#275 = PRODUCT ( 'Micro_DMM-100-4120', 'Micro_DMM-100-4120', '', ( #118 ) ) ;
#276 = ADVANCED_FACE ( 'NONE', ( #169 ), #21, .T. ) ;
#277 = DIRECTION ( 'NONE',  ( -0.0000000000000000000, -0.0000000000000000000, -1.000000000000000000 ) ) ;
#278 = LENGTH_MEASURE_WITH_UNIT ( LENGTH_MEASURE( 0.02539999999999999897 ), #304 );
#279 = CARTESIAN_POINT ( 'NONE',  ( 0.0000000000000000000, 0.0000000000000000000, 2.834646000000000665 ) ) ;
#280 = EDGE_CURVE ( 'NONE', #319, #147, #262, .T. ) ;
#281 = FILL_AREA_STYLE_COLOUR ( '', #254 ) ;
#282 = DIRECTION ( 'NONE',  ( -1.000000000000000000, 0.0000000000000000000, 0.0000000000000000000 ) ) ;
#283 = AXIS2_PLACEMENT_3D ( 'NONE', #133, #250, #182 ) ;
#284 = DIRECTION ( 'NONE',  ( -0.0000000000000000000, -0.0000000000000000000, -1.000000000000000000 ) ) ;
#285 = CARTESIAN_POINT ( 'NONE',  ( 0.0000000000000000000, 0.0000000000000000000, 0.9842519999999999047 ) ) ;
#286 = ORIENTED_EDGE ( 'NONE', *, *, #241, .F. ) ;
#287 = AXIS2_PLACEMENT_3D ( 'NONE', #233, #187, #3 ) ;
#288 = EDGE_CURVE ( 'NONE', #321, #289, #17, .T. ) ;
#289 = VERTEX_POINT ( 'NONE', #83 ) ;
#290 = FACE_OUTER_BOUND ( 'NONE', #205, .T. ) ;
#291 = CARTESIAN_POINT ( 'NONE',  ( 0.0000000000000000000, 0.0000000000000000000, 0.9842519999999999047 ) ) ;
#292 = VECTOR ( 'NONE', #251, 39.37007874015748143 ) ;
#293 = AXIS2_PLACEMENT_3D ( 'NONE', #107, #188, #234 ) ;
#294 = CONICAL_SURFACE ( 'NONE', #27, 0.007499999999999999722, 1.047197551196600518 ) ;
#295 = ORIENTED_EDGE ( 'NONE', *, *, #317, .T. ) ;
#296 = DIRECTION ( 'NONE',  ( 0.0000000000000000000, 0.0000000000000000000, 1.000000000000000000 ) ) ;
#297 = SURFACE_SIDE_STYLE ('',( #98 ) ) ;
#298 = CARTESIAN_POINT ( 'NONE',  ( 0.0000000000000000000, 0.0000000000000000000, 2.834646000000000665 ) ) ;
#299 = AXIS2_PLACEMENT_3D ( 'NONE', #76, #100, #301 ) ;
#300 = PRODUCT_RELATED_PRODUCT_CATEGORY ( 'part', '', ( #275 ) ) ;
#301 = DIRECTION ( 'NONE',  ( 1.000000000000000000, 0.0000000000000000000, 0.0000000000000000000 ) ) ;
#302 = CARTESIAN_POINT ( 'NONE',  ( 0.0000000000000000000, 0.0000000000000000000, 0.0000000000000000000 ) ) ;
#303 = EDGE_CURVE ( 'NONE', #245, #142, #44, .T. ) ;
#304 =( LENGTH_UNIT ( ) NAMED_UNIT ( * ) SI_UNIT ( $, .METRE. ) );
#305 = CARTESIAN_POINT ( 'NONE',  ( 0.1968504999999999838, 2.410723347355560646E-17, 0.9842519999999999047 ) ) ;
#306 = CIRCLE ( 'NONE', #93, 0.1968005000000000171 ) ;
#307 = DIRECTION ( 'NONE',  ( 0.0000000000000000000, 0.0000000000000000000, 1.000000000000000000 ) ) ;
#308 = FACE_OUTER_BOUND ( 'NONE', #39, .T. ) ;
#309 = CARTESIAN_POINT ( 'NONE',  ( 0.0000000000000000000, 0.0000000000000000000, 2.834646000000000665 ) ) ;
#310 = AXIS2_PLACEMENT_3D ( 'NONE', #57, #231, #179 ) ;
#311 = CARTESIAN_POINT ( 'NONE',  ( 0.0000000000000000000, 0.0000000000000000000, 2.834646000000000665 ) ) ;
#312 = VERTEX_POINT ( 'NONE', #168 ) ;
#313 = ADVANCED_FACE ( 'NONE', ( #290 ), #199, .T. ) ;
#314 = ORIENTED_EDGE ( 'NONE', *, *, #161, .F. ) ;
#315 = CONICAL_SURFACE ( 'NONE', #32, 0.1818505000000002481, 0.7853981633974312926 ) ;
#316 = ADVANCED_FACE ( 'NONE', ( #266 ), #99, .T. ) ;
#317 = EDGE_CURVE ( 'NONE', #245, #208, #323, .T. ) ;
#318 = ORIENTED_EDGE ( 'NONE', *, *, #269, .T. ) ;
#319 = VERTEX_POINT ( 'NONE', #152 ) ;
#320 = VECTOR ( 'NONE', #55, 39.37007874015748143 ) ;
#321 = VERTEX_POINT ( 'NONE', #50 ) ;
#322 = EDGE_LOOP ( 'NONE', ( #314, #126 ) ) ;
#323 = LINE ( 'NONE', #22, #6 ) ;
#324 = DIRECTION ( 'NONE',  ( -0.0000000000000000000, -0.0000000000000000000, -1.000000000000000000 ) ) ;
#325 = ORIENTED_EDGE ( 'NONE', *, *, #161, .T. ) ;
#326 =( CONVERSION_BASED_UNIT ( 'INCH', #28 ) LENGTH_UNIT ( ) NAMED_UNIT ( #201 ) );
#327 = CARTESIAN_POINT ( 'NONE',  ( 0.0000000000000000000, 0.0000000000000000000, 1.707404996040164512E-17 ) ) ;
#328 = SURFACE_STYLE_FILL_AREA ( #196 ) ;
#329 = CARTESIAN_POINT ( 'NONE',  ( 0.0000000000000000000, 0.0000000000000000000, 0.0000000000000000000 ) ) ;
ENDSEC;
END-ISO-10303-21;
