ISO-10303-21;
HEADER;
FILE_DESCRIPTION (( 'STEP AP214' ),
    '1' );
FILE_NAME ('Micro_SEM-093-02.STEP',
    '2021-09-02T01:05:15',
    ( '' ),
    ( '' ),
    'SwSTEP 2.0',
    'SolidWorks 2020',
    '' );
FILE_SCHEMA (( 'AUTOMOTIVE_DESIGN' ));
ENDSEC;

DATA;
#1 = CIRCLE ( 'NONE', #286, 0.06250000000000000000 ) ;
#2 = ORIENTED_EDGE ( 'NONE', *, *, #172, .T. ) ;
#3 = DIRECTION ( 'NONE',  ( -1.224646799147353454E-16, -0.0000000000000000000, -1.000000000000000000 ) ) ;
#4 = DIRECTION ( 'NONE',  ( -0.0000000000000000000, -0.0000000000000000000, -1.000000000000000000 ) ) ;
#5 = LENGTH_MEASURE_WITH_UNIT ( LENGTH_MEASURE( 0.02539999999999999897 ), #190 );
#6 = DIRECTION ( 'NONE',  ( -1.224646799147353454E-16, -0.0000000000000000000, -1.000000000000000000 ) ) ;
#7 = DIRECTION ( 'NONE',  ( -1.224646799147353454E-16, -0.0000000000000000000, -1.000000000000000000 ) ) ;
#8 = ORIENTED_EDGE ( 'NONE', *, *, #181, .T. ) ;
#9 = EDGE_CURVE ( 'NONE', #69, #206, #120, .T. ) ;
#10 = ORIENTED_EDGE ( 'NONE', *, *, #98, .T. ) ;
#11 = CARTESIAN_POINT ( 'NONE',  ( 0.0000000000000000000, 0.0000000000000000000, 1.500000000000000222 ) ) ;
#12 = AXIS2_PLACEMENT_3D ( 'NONE', #188, #284, #236 ) ;
#13 =( CONVERSION_BASED_UNIT ( 'INCH', #36 ) LENGTH_UNIT ( ) NAMED_UNIT ( #209 ) );
#14 = EDGE_CURVE ( 'NONE', #177, #31, #144, .T. ) ;
#15 = EDGE_LOOP ( 'NONE', ( #200, #18 ) ) ;
#16 = PRESENTATION_LAYER_ASSIGNMENT (  '', '', ( #276 ) ) ;
#17 = DIRECTION ( 'NONE',  ( 0.0000000000000000000, 0.0000000000000000000, -1.000000000000000000 ) ) ;
#18 = ORIENTED_EDGE ( 'NONE', *, *, #29, .T. ) ;
#19 = DIMENSIONAL_EXPONENTS ( 1.000000000000000000, 0.0000000000000000000, 0.0000000000000000000, 0.0000000000000000000, 0.0000000000000000000, 0.0000000000000000000, 0.0000000000000000000 ) ;
#20 = FILL_AREA_STYLE ('',( #164 ) ) ;
#21 = UNCERTAINTY_MEASURE_WITH_UNIT (LENGTH_MEASURE( 1.000000000000000082E-05 ), #13, 'distance_accuracy_value', 'NONE');
#22 = CARTESIAN_POINT ( 'NONE',  ( 0.0000000000000000000, 0.0000000000000000000, 1.500000000000000222 ) ) ;
#23 = CARTESIAN_POINT ( 'NONE',  ( 2.302335982397024786E-17, 0.0000000000000000000, 0.1880000000000000282 ) ) ;
#24 =( NAMED_UNIT ( * ) PLANE_ANGLE_UNIT ( ) SI_UNIT ( $, .RADIAN. ) );
#25 = DIRECTION ( 'NONE',  ( -0.1736481776669312194, 2.126576849575783625E-17, 0.9848077530122080203 ) ) ;
#26 = CARTESIAN_POINT ( 'NONE',  ( 0.04750000000000064587, 6.735557395310482421E-18, 1.500000000000000222 ) ) ;
#27 =( NAMED_UNIT ( * ) SI_UNIT ( $, .STERADIAN. ) SOLID_ANGLE_UNIT ( ) );
#28 = ORIENTED_EDGE ( 'NONE', *, *, #9, .F. ) ;
#29 = EDGE_CURVE ( 'NONE', #84, #34, #133, .T. ) ;
#30 = FACE_OUTER_BOUND ( 'NONE', #108, .T. ) ;
#31 = VERTEX_POINT ( 'NONE', #212 ) ;
#32 = DIRECTION ( 'NONE',  ( 0.0000000000000000000, 0.0000000000000000000, 1.000000000000000000 ) ) ;
#33 = CARTESIAN_POINT ( 'NONE',  ( 3.389062808013151311E-17, 0.0000000000000000000, 0.2767379795033758083 ) ) ;
#34 = VERTEX_POINT ( 'NONE', #130 ) ;
#35 = AXIS2_PLACEMENT_3D ( 'NONE', #72, #254, #92 ) ;
#36 = LENGTH_MEASURE_WITH_UNIT ( LENGTH_MEASURE( 0.02539999999999999897 ), #294 );
#37 = PRESENTATION_LAYER_ASSIGNMENT (  '', '', ( #42 ) ) ;
#38 = ORIENTED_EDGE ( 'NONE', *, *, #172, .F. ) ;
#39 = ORIENTED_EDGE ( 'NONE', *, *, #14, .F. ) ;
#40 = EDGE_LOOP ( 'NONE', ( #299, #28, #88, #158 ) ) ;
#41 = VERTEX_POINT ( 'NONE', #68 ) ;
#42 = STYLED_ITEM ( 'NONE', ( #93 ), #132 ) ;
#43 = ADVANCED_FACE ( 'NONE', ( #230 ), #138, .T. ) ;
#44 = CARTESIAN_POINT ( 'NONE',  ( 0.0000000000000000000, 0.0000000000000000000, 1.500000000000000222 ) ) ;
#45 = DIRECTION ( 'NONE',  ( -0.0000000000000000000, -0.0000000000000000000, -1.000000000000000000 ) ) ;
#46 = SURFACE_STYLE_USAGE ( .BOTH. , #258 ) ;
#47 = VECTOR ( 'NONE', #4, 39.37007874015748143 ) ;
#48 = CARTESIAN_POINT ( 'NONE',  ( -0.04685309999999998087, 5.737849894513086668E-18, 0.1880000000000000282 ) ) ;
#49 = LINE ( 'NONE', #77, #155 ) ;
#50 = CARTESIAN_POINT ( 'NONE',  ( -0.06249999999999996531, 0.0000000000000000000, 0.2767379795033758083 ) ) ;
#51 = AXIS2_PLACEMENT_3D ( 'NONE', #44, #17, #114 ) ;
#52 = MECHANICAL_DESIGN_GEOMETRIC_PRESENTATION_REPRESENTATION (  '', ( #276 ), #91 ) ;
#53 = DIRECTION ( 'NONE',  ( 0.0000000000000000000, 0.0000000000000000000, 1.000000000000000000 ) ) ;
#54 = DIRECTION ( 'NONE',  ( 0.0000000000000000000, 0.0000000000000000000, -1.000000000000000000 ) ) ;
#55 =( NAMED_UNIT ( * ) PLANE_ANGLE_UNIT ( ) SI_UNIT ( $, .RADIAN. ) );
#56 = CIRCLE ( 'NONE', #218, 0.06250000000000000000 ) ;
#57 = DIRECTION ( 'NONE',  ( -1.000000000000000000, 0.0000000000000000000, 0.0000000000000000000 ) ) ;
#58 = ORIENTED_EDGE ( 'NONE', *, *, #79, .F. ) ;
#59 = LENGTH_MEASURE_WITH_UNIT ( LENGTH_MEASURE( 0.02539999999999999897 ), #180 );
#60 = DIRECTION ( 'NONE',  ( -0.0000000000000000000, -0.0000000000000000000, -1.000000000000000000 ) ) ;
#61 = ORIENTED_EDGE ( 'NONE', *, *, #280, .F. ) ;
#62 = CARTESIAN_POINT ( 'NONE',  ( 0.0000000000000000000, 0.0000000000000000000, 0.0000000000000000000 ) ) ;
#63 = CARTESIAN_POINT ( 'NONE',  ( 2.302335982397024786E-17, 0.0000000000000000000, 0.1880000000000000282 ) ) ;
#64 = EDGE_LOOP ( 'NONE', ( #205, #10, #210, #161 ) ) ;
#65 = APPLICATION_PROTOCOL_DEFINITION ( 'draft international standard', 'automotive_design', 1998, #146 ) ;
#66 = EDGE_CURVE ( 'NONE', #246, #31, #140, .T. ) ;
#67 = ORIENTED_EDGE ( 'NONE', *, *, #173, .T. ) ;
#68 = CARTESIAN_POINT ( 'NONE',  ( 0.04685310000000002945, 0.0000000000000000000, 0.1880000000000000282 ) ) ;
#69 = VERTEX_POINT ( 'NONE', #184 ) ;
#70 = AXIS2_PLACEMENT_3D ( 'NONE', #11, #60, #57 ) ;
#71 = LINE ( 'NONE', #109, #262 ) ;
#72 = CARTESIAN_POINT ( 'NONE',  ( 3.389062808013151311E-17, 0.0000000000000000000, 0.2767379795033758083 ) ) ;
#73 = DIRECTION ( 'NONE',  ( 1.000000000000000000, 0.0000000000000000000, 0.0000000000000000000 ) ) ;
#74 = AXIS2_PLACEMENT_3D ( 'NONE', #165, #53, #75 ) ;
#75 = DIRECTION ( 'NONE',  ( 1.000000000000000000, 0.0000000000000000000, 0.0000000000000000000 ) ) ;
#76 = DIRECTION ( 'NONE',  ( -1.000000000000000000, 0.0000000000000000000, 1.224646799147353454E-16 ) ) ;
#77 = CARTESIAN_POINT ( 'NONE',  ( -0.04685310000000000169, 0.0000000000000000000, 5.737849894513086668E-18 ) ) ;
#78 =( NAMED_UNIT ( * ) SI_UNIT ( $, .STERADIAN. ) SOLID_ANGLE_UNIT ( ) );
#79 = EDGE_CURVE ( 'NONE', #69, #150, #277, .T. ) ;
#80 = ORIENTED_EDGE ( 'NONE', *, *, #98, .F. ) ;
#81 =( GEOMETRIC_REPRESENTATION_CONTEXT ( 3 ) GLOBAL_UNCERTAINTY_ASSIGNED_CONTEXT ( ( #119 ) ) GLOBAL_UNIT_ASSIGNED_CONTEXT ( ( #283, #24, #78 ) ) REPRESENTATION_CONTEXT ( 'NONE', 'WORKASPACE' ) );
#82 = DIRECTION ( 'NONE',  ( 1.000000000000000000, 0.0000000000000000000, -0.0000000000000000000 ) ) ;
#83 = SHAPE_DEFINITION_REPRESENTATION ( #203, #247 ) ;
#84 = VERTEX_POINT ( 'NONE', #231 ) ;
#85 = ORIENTED_EDGE ( 'NONE', *, *, #116, .F. ) ;
#86 = AXIS2_PLACEMENT_3D ( 'NONE', #171, #7, #76 ) ;
#87 = ORIENTED_EDGE ( 'NONE', *, *, #229, .T. ) ;
#88 = ORIENTED_EDGE ( 'NONE', *, *, #79, .T. ) ;
#89 = AXIS2_PLACEMENT_3D ( 'NONE', #274, #298, #250 ) ;
#90 = ORIENTED_EDGE ( 'NONE', *, *, #123, .T. ) ;
#91 =( GEOMETRIC_REPRESENTATION_CONTEXT ( 3 ) GLOBAL_UNCERTAINTY_ASSIGNED_CONTEXT ( ( #168 ) ) GLOBAL_UNIT_ASSIGNED_CONTEXT ( ( #148, #105, #232 ) ) REPRESENTATION_CONTEXT ( 'NONE', 'WORKASPACE' ) );
#92 = DIRECTION ( 'NONE',  ( 1.000000000000000000, 0.0000000000000000000, 0.0000000000000000000 ) ) ;
#93 = PRESENTATION_STYLE_ASSIGNMENT (( #46 ) ) ;
#94 = CARTESIAN_POINT ( 'NONE',  ( 0.0000000000000000000, 0.0000000000000000000, 1.485000000000000764 ) ) ;
#95 = CIRCLE ( 'NONE', #118, 0.04685310000000000169 ) ;
#96 = DIRECTION ( 'NONE',  ( 1.224646799147353454E-16, 0.0000000000000000000, 1.000000000000000000 ) ) ;
#97 = CARTESIAN_POINT ( 'NONE',  ( 0.0000000000000000000, 0.0000000000000000000, 1.500000000000000222 ) ) ;
#98 = EDGE_CURVE ( 'NONE', #41, #84, #71, .T. ) ;
#99 = DIRECTION ( 'NONE',  ( 0.0000000000000000000, 0.0000000000000000000, 1.000000000000000000 ) ) ;
#100 = EDGE_LOOP ( 'NONE', ( #273, #90, #153, #58 ) ) ;
#101 = PRODUCT_CONTEXT ( 'NONE', #240, 'mechanical' ) ;
#102 = FILL_AREA_STYLE_COLOUR ( '', #160 ) ;
#103 = AXIS2_PLACEMENT_3D ( 'NONE', #106, #199, #243 ) ;
#104 = ORIENTED_EDGE ( 'NONE', *, *, #29, .F. ) ;
#105 =( NAMED_UNIT ( * ) PLANE_ANGLE_UNIT ( ) SI_UNIT ( $, .RADIAN. ) );
#106 = CARTESIAN_POINT ( 'NONE',  ( 2.302335982397024786E-17, 0.0000000000000000000, 0.1880000000000000282 ) ) ;
#107 = ORIENTED_EDGE ( 'NONE', *, *, #229, .F. ) ;
#108 = EDGE_LOOP ( 'NONE', ( #38, #85, #87, #278 ) ) ;
#109 = CARTESIAN_POINT ( 'NONE',  ( 0.04685310000000000169, 5.737849894513085128E-18, -5.737849894513086668E-18 ) ) ;
#110 = CARTESIAN_POINT ( 'NONE',  ( 0.06250000000000000000, 7.654042494670956004E-18, 1.500000000000000222 ) ) ;
#111 = ORIENTED_EDGE ( 'NONE', *, *, #14, .T. ) ;
#112 = SURFACE_STYLE_FILL_AREA ( #20 ) ;
#113 = PRODUCT_DEFINITION_FORMATION_WITH_SPECIFIED_SOURCE ( 'ANY', '', #131, .NOT_KNOWN. ) ;
#114 = DIRECTION ( 'NONE',  ( -1.000000000000000000, 0.0000000000000000000, 0.0000000000000000000 ) ) ;
#115 = LINE ( 'NONE', #213, #47 ) ;
#116 = EDGE_CURVE ( 'NONE', #41, #244, #242, .T. ) ;
#117 = CARTESIAN_POINT ( 'NONE',  ( 0.04685310000000002945, 0.0000000000000000000, 0.1880000000000000282 ) ) ;
#118 = AXIS2_PLACEMENT_3D ( 'NONE', #238, #216, #145 ) ;
#119 = UNCERTAINTY_MEASURE_WITH_UNIT (LENGTH_MEASURE( 1.000000000000000082E-05 ), #283, 'distance_accuracy_value', 'NONE');
#120 = CIRCLE ( 'NONE', #275, 0.04750000000000064587 ) ;
#121 = DIRECTION ( 'NONE',  ( 1.000000000000000000, 0.0000000000000000000, 0.0000000000000000000 ) ) ;
#122 = FACE_OUTER_BOUND ( 'NONE', #64, .T. ) ;
#123 = EDGE_CURVE ( 'NONE', #206, #246, #137, .T. ) ;
#124 = AXIS2_PLACEMENT_3D ( 'NONE', #149, #287, #127 ) ;
#125 = CARTESIAN_POINT ( 'NONE',  ( 0.0000000000000000000, 0.0000000000000000000, 0.0000000000000000000 ) ) ;
#126 = EDGE_LOOP ( 'NONE', ( #226, #129, #296, #61 ) ) ;
#127 = DIRECTION ( 'NONE',  ( -1.000000000000000000, 0.0000000000000000000, 0.0000000000000000000 ) ) ;
#128 = DIRECTION ( 'NONE',  ( 1.000000000000000000, 0.0000000000000000000, 0.0000000000000000000 ) ) ;
#129 = ORIENTED_EDGE ( 'NONE', *, *, #211, .T. ) ;
#130 = CARTESIAN_POINT ( 'NONE',  ( -0.04685310000000000169, 0.0000000000000000000, 1.147569978902617334E-17 ) ) ;
#131 = PRODUCT ( 'Micro_SEM-093-02', 'Micro_SEM-093-02', '', ( #101 ) ) ;
#132 = MANIFOLD_SOLID_BREP ( 'Cut-Revolve1', #255 ) ;
#133 = CIRCLE ( 'NONE', #89, 0.04685310000000000169 ) ;
#134 = EDGE_LOOP ( 'NONE', ( #80, #201, #198, #104 ) ) ;
#135 = CARTESIAN_POINT ( 'NONE',  ( -0.04750000000000064587, 0.0000000000000000000, 1.500000000000000222 ) ) ;
#136 = FILL_AREA_STYLE ('',( #102 ) ) ;
#137 = LINE ( 'NONE', #233, #174 ) ;
#138 = CONICAL_SURFACE ( 'NONE', #51, 0.04750000000000064587, 0.7853981633974457255 ) ;
#139 = AXIS2_PLACEMENT_3D ( 'NONE', #269, #221, #267 ) ;
#140 = LINE ( 'NONE', #110, #182 ) ;
#141 = FACE_OUTER_BOUND ( 'NONE', #100, .T. ) ;
#142 = LINE ( 'NONE', #117, #191 ) ;
#143 = FACE_OUTER_BOUND ( 'NONE', #202, .T. ) ;
#144 = CIRCLE ( 'NONE', #35, 0.06250000000000000000 ) ;
#145 = DIRECTION ( 'NONE',  ( -1.000000000000000000, 0.0000000000000000000, 1.224646799147353454E-16 ) ) ;
#146 = APPLICATION_CONTEXT ( 'automotive_design' ) ;
#147 = CIRCLE ( 'NONE', #214, 0.06250000000000000000 ) ;
#148 =( CONVERSION_BASED_UNIT ( 'INCH', #59 ) LENGTH_UNIT ( ) NAMED_UNIT ( #19 ) );
#149 = CARTESIAN_POINT ( 'NONE',  ( 0.0000000000000000000, 0.0000000000000000000, 1.500000000000000222 ) ) ;
#150 = VERTEX_POINT ( 'NONE', #241 ) ;
#151 = DIRECTION ( 'NONE',  ( -1.224646799147353454E-16, -0.0000000000000000000, -1.000000000000000000 ) ) ;
#152 = PLANE ( 'NONE',  #268 ) ;
#153 = ORIENTED_EDGE ( 'NONE', *, *, #173, .F. ) ;
#154 = COLOUR_RGB ( '',0.7921568627450980005, 0.8196078431372548767, 0.9333333333333333481 ) ;
#155 = VECTOR ( 'NONE', #6, 39.37007874015748143 ) ;
#156 = ADVANCED_FACE ( 'NONE', ( #143 ), #235, .T. ) ;
#157 = EDGE_LOOP ( 'NONE', ( #67, #195, #39, #225 ) ) ;
#158 = ORIENTED_EDGE ( 'NONE', *, *, #211, .F. ) ;
#159 = DIRECTION ( 'NONE',  ( -1.224646799147353454E-16, -0.0000000000000000000, -1.000000000000000000 ) ) ;
#160 = COLOUR_RGB ( '',0.7921568627450980005, 0.8196078431372548767, 0.9333333333333333481 ) ;
#161 = ORIENTED_EDGE ( 'NONE', *, *, #228, .F. ) ;
#162 = ADVANCED_FACE ( 'NONE', ( #260 ), #265, .T. ) ;
#163 = CARTESIAN_POINT ( 'NONE',  ( 2.302335982397024786E-17, 0.0000000000000000000, 0.1880000000000000282 ) ) ;
#164 = FILL_AREA_STYLE_COLOUR ( '', #154 ) ;
#165 = CARTESIAN_POINT ( 'NONE',  ( 0.0000000000000000000, 0.0000000000000000000, 1.500000000000000222 ) ) ;
#166 = PRODUCT_RELATED_PRODUCT_CATEGORY ( 'part', '', ( #131 ) ) ;
#167 = DIRECTION ( 'NONE',  ( 1.000000000000000000, 0.0000000000000000000, -0.0000000000000000000 ) ) ;
#168 = UNCERTAINTY_MEASURE_WITH_UNIT (LENGTH_MEASURE( 1.000000000000000082E-05 ), #148, 'distance_accuracy_value', 'NONE');
#169 = DIRECTION ( 'NONE',  ( 0.0000000000000000000, 0.0000000000000000000, -1.000000000000000000 ) ) ;
#170 = CARTESIAN_POINT ( 'NONE',  ( -0.04685309999999998087, 6.695946194592021721E-18, 0.1880000000000000282 ) ) ;
#171 = CARTESIAN_POINT ( 'NONE',  ( 0.0000000000000000000, 0.0000000000000000000, 0.0000000000000000000 ) ) ;
#172 = EDGE_CURVE ( 'NONE', #244, #177, #239, .T. ) ;
#173 = EDGE_CURVE ( 'NONE', #150, #246, #1, .T. ) ;
#174 = VECTOR ( 'NONE', #297, 39.37007874015748143 ) ;
#175 = SURFACE_STYLE_FILL_AREA ( #136 ) ;
#176 = FACE_OUTER_BOUND ( 'NONE', #157, .T. ) ;
#177 = VERTEX_POINT ( 'NONE', #50 ) ;
#178 = CIRCLE ( 'NONE', #74, 0.04750000000000064587 ) ;
#179 = DIRECTION ( 'NONE',  ( 0.0000000000000000000, 0.0000000000000000000, 1.000000000000000000 ) ) ;
#180 =( LENGTH_UNIT ( ) NAMED_UNIT ( * ) SI_UNIT ( $, .METRE. ) );
#181 = EDGE_CURVE ( 'NONE', #206, #69, #178, .T. ) ;
#182 = VECTOR ( 'NONE', #45, 39.37007874015748143 ) ;
#183 = AXIS2_PLACEMENT_3D ( 'NONE', #63, #245, #197 ) ;
#184 = CARTESIAN_POINT ( 'NONE',  ( -0.04750000000000064587, 0.0000000000000000000, 1.500000000000000222 ) ) ;
#185 = DIRECTION ( 'NONE',  ( -0.7071067811865456854, 0.0000000000000000000, -0.7071067811865493491 ) ) ;
#186 = ADVANCED_FACE ( 'NONE', ( #141 ), #271, .T. ) ;
#187 = AXIS2_PLACEMENT_3D ( 'NONE', #163, #3, #256 ) ;
#188 = CARTESIAN_POINT ( 'NONE',  ( 0.0000000000000000000, 0.0000000000000000000, 1.500000000000000222 ) ) ;
#189 = FACE_OUTER_BOUND ( 'NONE', #270, .T. ) ;
#190 =( LENGTH_UNIT ( ) NAMED_UNIT ( * ) SI_UNIT ( $, .METRE. ) );
#191 = VECTOR ( 'NONE', #215, 39.37007874015748143 ) ;
#192 = CARTESIAN_POINT ( 'NONE',  ( 0.0000000000000000000, 0.0000000000000000000, 1.485000000000000764 ) ) ;
#193 = CYLINDRICAL_SURFACE ( 'NONE', #70, 0.06250000000000000000 ) ;
#194 = ADVANCED_FACE ( 'NONE', ( #189 ), #234, .T. ) ;
#195 = ORIENTED_EDGE ( 'NONE', *, *, #66, .T. ) ;
#196 = FACE_OUTER_BOUND ( 'NONE', #126, .T. ) ;
#197 = DIRECTION ( 'NONE',  ( 1.000000000000000000, 0.0000000000000000000, 0.0000000000000000000 ) ) ;
#198 = ORIENTED_EDGE ( 'NONE', *, *, #228, .T. ) ;
#199 = DIRECTION ( 'NONE',  ( -1.224646799147353454E-16, -0.0000000000000000000, -1.000000000000000000 ) ) ;
#200 = ORIENTED_EDGE ( 'NONE', *, *, #217, .T. ) ;
#201 = ORIENTED_EDGE ( 'NONE', *, *, #116, .T. ) ;
#202 = EDGE_LOOP ( 'NONE', ( #249, #8 ) ) ;
#203 = PRODUCT_DEFINITION_SHAPE ( 'NONE', 'NONE',  #272 ) ;
#204 = EDGE_CURVE ( 'NONE', #150, #177, #115, .T. ) ;
#205 = ORIENTED_EDGE ( 'NONE', *, *, #257, .T. ) ;
#206 = VERTEX_POINT ( 'NONE', #26 ) ;
#207 = PRESENTATION_STYLE_ASSIGNMENT (( #224 ) ) ;
#208 = CIRCLE ( 'NONE', #103, 0.04685310000000000863 ) ;
#209 = DIMENSIONAL_EXPONENTS ( 1.000000000000000000, 0.0000000000000000000, 0.0000000000000000000, 0.0000000000000000000, 0.0000000000000000000, 0.0000000000000000000, 0.0000000000000000000 ) ;
#210 = ORIENTED_EDGE ( 'NONE', *, *, #217, .F. ) ;
#211 = EDGE_CURVE ( 'NONE', #246, #150, #147, .T. ) ;
#212 = CARTESIAN_POINT ( 'NONE',  ( 0.06250000000000002776, 7.654042494670959086E-18, 0.2767379795033758083 ) ) ;
#213 = CARTESIAN_POINT ( 'NONE',  ( -0.06250000000000000000, 0.0000000000000000000, 1.500000000000000222 ) ) ;
#214 = AXIS2_PLACEMENT_3D ( 'NONE', #94, #169, #281 ) ;
#215 = DIRECTION ( 'NONE',  ( 0.1736481776669314137, 0.0000000000000000000, 0.9848077530122077983 ) ) ;
#216 = DIRECTION ( 'NONE',  ( -1.224646799147353454E-16, -0.0000000000000000000, -1.000000000000000000 ) ) ;
#217 = EDGE_CURVE ( 'NONE', #34, #84, #95, .T. ) ;
#218 = AXIS2_PLACEMENT_3D ( 'NONE', #33, #151, #128 ) ;
#219 = SURFACE_SIDE_STYLE ('',( #175 ) ) ;
#220 = CYLINDRICAL_SURFACE ( 'NONE', #124, 0.06250000000000000000 ) ;
#221 = DIRECTION ( 'NONE',  ( -1.224646799147353454E-16, -0.0000000000000000000, -1.000000000000000000 ) ) ;
#222 = VECTOR ( 'NONE', #185, 39.37007874015748143 ) ;
#223 = FACE_OUTER_BOUND ( 'NONE', #15, .T. ) ;
#224 = SURFACE_STYLE_USAGE ( .BOTH. , #219 ) ;
#225 = ORIENTED_EDGE ( 'NONE', *, *, #204, .F. ) ;
#226 = ORIENTED_EDGE ( 'NONE', *, *, #66, .F. ) ;
#227 = PRODUCT_DEFINITION_CONTEXT ( 'detailed design', #146, 'design' ) ;
#228 = EDGE_CURVE ( 'NONE', #244, #34, #49, .T. ) ;
#229 = EDGE_CURVE ( 'NONE', #41, #31, #142, .T. ) ;
#230 = FACE_OUTER_BOUND ( 'NONE', #40, .T. ) ;
#231 = CARTESIAN_POINT ( 'NONE',  ( 0.04685310000000000169, 5.737849894513085128E-18, 0.0000000000000000000 ) ) ;
#232 =( NAMED_UNIT ( * ) SI_UNIT ( $, .STERADIAN. ) SOLID_ANGLE_UNIT ( ) );
#233 = CARTESIAN_POINT ( 'NONE',  ( 0.04750000000000064587, 5.817072295950006528E-18, 1.500000000000000222 ) ) ;
#234 = CONICAL_SURFACE ( 'NONE', #285, 0.04685310000000000863, 0.1745329251994339192 ) ;
#235 = PLANE ( 'NONE',  #263 ) ;
#236 = DIRECTION ( 'NONE',  ( -1.000000000000000000, 0.0000000000000000000, 0.0000000000000000000 ) ) ;
#237 = DIMENSIONAL_EXPONENTS ( 1.000000000000000000, 0.0000000000000000000, 0.0000000000000000000, 0.0000000000000000000, 0.0000000000000000000, 0.0000000000000000000, 0.0000000000000000000 ) ;
#238 = CARTESIAN_POINT ( 'NONE',  ( 7.026839507303431300E-34, 0.0000000000000000000, 5.737849894513086668E-18 ) ) ;
#239 = LINE ( 'NONE', #48, #253 ) ;
#240 = APPLICATION_CONTEXT ( 'automotive_design' ) ;
#241 = CARTESIAN_POINT ( 'NONE',  ( -0.06250000000000000000, 0.0000000000000000000, 1.485000000000000764 ) ) ;
#242 = CIRCLE ( 'NONE', #187, 0.04685310000000000863 ) ;
#243 = DIRECTION ( 'NONE',  ( -1.000000000000000000, 0.0000000000000000000, 0.0000000000000000000 ) ) ;
#244 = VERTEX_POINT ( 'NONE', #170 ) ;
#245 = DIRECTION ( 'NONE',  ( 1.224646799147353454E-16, 0.0000000000000000000, 1.000000000000000000 ) ) ;
#246 = VERTEX_POINT ( 'NONE', #264 ) ;
#247 = ADVANCED_BREP_SHAPE_REPRESENTATION ( 'Micro_SEM-093-02', ( #132, #248 ), #290 ) ;
#248 = AXIS2_PLACEMENT_3D ( 'NONE', #62, #32, #292 ) ;
#249 = ORIENTED_EDGE ( 'NONE', *, *, #9, .T. ) ;
#250 = DIRECTION ( 'NONE',  ( -1.000000000000000000, 0.0000000000000000000, 1.224646799147353454E-16 ) ) ;
#251 = ADVANCED_FACE ( 'NONE', ( #122 ), #289, .T. ) ;
#252 = DIRECTION ( 'NONE',  ( 1.000000000000000000, 0.0000000000000000000, 0.0000000000000000000 ) ) ;
#253 = VECTOR ( 'NONE', #25, 39.37007874015747433 ) ;
#254 = DIRECTION ( 'NONE',  ( -1.224646799147353454E-16, -0.0000000000000000000, -1.000000000000000000 ) ) ;
#255 = CLOSED_SHELL ( 'NONE', ( #251, #194, #186, #291, #261, #156, #43, #266, #162, #282 ) ) ;
#256 = DIRECTION ( 'NONE',  ( -1.000000000000000000, 0.0000000000000000000, 0.0000000000000000000 ) ) ;
#257 = EDGE_CURVE ( 'NONE', #244, #41, #208, .T. ) ;
#258 = SURFACE_SIDE_STYLE ('',( #112 ) ) ;
#259 = MECHANICAL_DESIGN_GEOMETRIC_PRESENTATION_REPRESENTATION (  '', ( #42 ), #81 ) ;
#260 = FACE_OUTER_BOUND ( 'NONE', #134, .T. ) ;
#261 = ADVANCED_FACE ( 'NONE', ( #196 ), #193, .T. ) ;
#262 = VECTOR ( 'NONE', #159, 39.37007874015748143 ) ;
#263 = AXIS2_PLACEMENT_3D ( 'NONE', #97, #99, #167 ) ;
#264 = CARTESIAN_POINT ( 'NONE',  ( 0.06250000000000000000, 7.654042494670956004E-18, 1.485000000000000764 ) ) ;
#265 = CYLINDRICAL_SURFACE ( 'NONE', #86, 0.04685310000000000169 ) ;
#266 = ADVANCED_FACE ( 'NONE', ( #30 ), #279, .T. ) ;
#267 = DIRECTION ( 'NONE',  ( -1.000000000000000000, 0.0000000000000000000, 1.224646799147353454E-16 ) ) ;
#268 = AXIS2_PLACEMENT_3D ( 'NONE', #125, #293, #82 ) ;
#269 = CARTESIAN_POINT ( 'NONE',  ( 0.0000000000000000000, 0.0000000000000000000, 0.0000000000000000000 ) ) ;
#270 = EDGE_LOOP ( 'NONE', ( #295, #2, #111, #107 ) ) ;
#271 = CONICAL_SURFACE ( 'NONE', #12, 0.04750000000000064587, 0.7853981633974457255 ) ;
#272 = PRODUCT_DEFINITION ( 'UNKNOWN', '', #113, #227 ) ;
#273 = ORIENTED_EDGE ( 'NONE', *, *, #181, .F. ) ;
#274 = CARTESIAN_POINT ( 'NONE',  ( 7.026839507303431300E-34, 0.0000000000000000000, 5.737849894513086668E-18 ) ) ;
#275 = AXIS2_PLACEMENT_3D ( 'NONE', #22, #179, #252 ) ;
#276 = STYLED_ITEM ( 'NONE', ( #207 ), #247 ) ;
#277 = LINE ( 'NONE', #135, #222 ) ;
#278 = ORIENTED_EDGE ( 'NONE', *, *, #280, .T. ) ;
#279 = CONICAL_SURFACE ( 'NONE', #183, 0.04685310000000000863, 0.1745329251994339192 ) ;
#280 = EDGE_CURVE ( 'NONE', #31, #177, #56, .T. ) ;
#281 = DIRECTION ( 'NONE',  ( 1.000000000000000000, 0.0000000000000000000, 0.0000000000000000000 ) ) ;
#282 = ADVANCED_FACE ( 'NONE', ( #223 ), #152, .F. ) ;
#283 =( CONVERSION_BASED_UNIT ( 'INCH', #5 ) LENGTH_UNIT ( ) NAMED_UNIT ( #237 ) );
#284 = DIRECTION ( 'NONE',  ( 0.0000000000000000000, 0.0000000000000000000, -1.000000000000000000 ) ) ;
#285 = AXIS2_PLACEMENT_3D ( 'NONE', #23, #96, #121 ) ;
#286 = AXIS2_PLACEMENT_3D ( 'NONE', #192, #54, #73 ) ;
#287 = DIRECTION ( 'NONE',  ( -0.0000000000000000000, -0.0000000000000000000, -1.000000000000000000 ) ) ;
#288 = APPLICATION_PROTOCOL_DEFINITION ( 'draft international standard', 'automotive_design', 1998, #240 ) ;
#289 = CYLINDRICAL_SURFACE ( 'NONE', #139, 0.04685310000000000169 ) ;
#290 =( GEOMETRIC_REPRESENTATION_CONTEXT ( 3 ) GLOBAL_UNCERTAINTY_ASSIGNED_CONTEXT ( ( #21 ) ) GLOBAL_UNIT_ASSIGNED_CONTEXT ( ( #13, #55, #27 ) ) REPRESENTATION_CONTEXT ( 'NONE', 'WORKASPACE' ) );
#291 = ADVANCED_FACE ( 'NONE', ( #176 ), #220, .T. ) ;
#292 = DIRECTION ( 'NONE',  ( 1.000000000000000000, 0.0000000000000000000, 0.0000000000000000000 ) ) ;
#293 = DIRECTION ( 'NONE',  ( 0.0000000000000000000, 0.0000000000000000000, 1.000000000000000000 ) ) ;
#294 =( LENGTH_UNIT ( ) NAMED_UNIT ( * ) SI_UNIT ( $, .METRE. ) );
#295 = ORIENTED_EDGE ( 'NONE', *, *, #257, .F. ) ;
#296 = ORIENTED_EDGE ( 'NONE', *, *, #204, .T. ) ;
#297 = DIRECTION ( 'NONE',  ( 0.7071067811865456854, 8.659560562354911904E-17, -0.7071067811865493491 ) ) ;
#298 = DIRECTION ( 'NONE',  ( -1.224646799147353454E-16, -0.0000000000000000000, -1.000000000000000000 ) ) ;
#299 = ORIENTED_EDGE ( 'NONE', *, *, #123, .F. ) ;
ENDSEC;
END-ISO-10303-21;
