ISO-10303-21;
HEADER;
FILE_DESCRIPTION (( 'STEP AP214' ),
    '1' );
FILE_NAME ('84594.STEP',
    '2023-07-12T13:09:32',
    ( '' ),
    ( '' ),
    'SwSTEP 2.0',
    'SolidWorks 2023',
    '' );
FILE_SCHEMA (( 'AUTOMOTIVE_DESIGN' ));
ENDSEC;

DATA;
#1 = PLANE ( 'NONE',  #220 ) ;
#2 = UNCERTAINTY_MEASURE_WITH_UNIT (LENGTH_MEASURE( 1.000000000000000082E-05 ), #267, 'distance_accuracy_value', 'NONE');
#3 = CARTESIAN_POINT ( 'NONE',  ( -0.09374999999999966693, 0.03969283100678663162, 0.000000000000000000 ) ) ;
#4 = AXIS2_PLACEMENT_3D ( 'NONE', #94, #48, #22 ) ;
#5 = DIMENSIONAL_EXPONENTS ( 1.000000000000000000, 0.000000000000000000, 0.000000000000000000, 0.000000000000000000, 0.000000000000000000, 0.000000000000000000, 0.000000000000000000 ) ;
#6 = FACE_OUTER_BOUND ( 'NONE', #259, .T. ) ;
#7 = DIMENSIONAL_EXPONENTS ( 1.000000000000000000, 0.000000000000000000, 0.000000000000000000, 0.000000000000000000, 0.000000000000000000, 0.000000000000000000, 0.000000000000000000 ) ;
#8 = CLOSED_SHELL ( 'NONE', ( #103, #110, #127, #97 ) ) ;
#9 = AXIS2_PLACEMENT_3D ( 'NONE', #173, #271, #128 ) ;
#10 = SURFACE_STYLE_USAGE ( .BOTH. , #276 ) ;
#11 = DIRECTION ( 'NONE',  ( -1.218900715719354978E-16, 1.000000000000000000, -0.000000000000000000 ) ) ;
#12 =( LENGTH_UNIT ( ) NAMED_UNIT ( * ) SI_UNIT ( $, .METRE. ) );
#13 = PRESENTATION_STYLE_ASSIGNMENT (( #304 ) ) ;
#14 =( NAMED_UNIT ( * ) PLANE_ANGLE_UNIT ( ) SI_UNIT ( $, .RADIAN. ) );
#15 = CIRCLE ( 'NONE', #182, 0.02500000000000000139 ) ;
#16 = DIRECTION ( 'NONE',  ( -5.969592905327508906E-33, 1.000000000000000000, 0.000000000000000000 ) ) ;
#17 = ADVANCED_FACE ( 'NONE', ( #150 ), #268, .T. ) ;
#18 = PRODUCT_DEFINITION_CONTEXT ( 'detailed design', #93, 'design' ) ;
#19 = CARTESIAN_POINT ( 'NONE',  ( 1.777096411741933739E-16, 0.03969283100678664550, 0.000000000000000000 ) ) ;
#20 = AXIS2_PLACEMENT_3D ( 'NONE', #134, #155, #126 ) ;
#21 = AXIS2_PLACEMENT_3D ( 'NONE', #219, #42, #171 ) ;
#22 = DIRECTION ( 'NONE',  ( -1.000000000000000000, 0.000000000000000000, 0.000000000000000000 ) ) ;
#23 = DIRECTION ( 'NONE',  ( 1.000000000000000000, 0.000000000000000000, 0.000000000000000000 ) ) ;
#24 = ORIENTED_EDGE ( 'NONE', *, *, #84, .F. ) ;
#25 = ADVANCED_FACE ( 'NONE', ( #102 ), #1, .F. ) ;
#26 = CARTESIAN_POINT ( 'NONE',  ( -2.369500423704768587E-34, 0.03969283100678656917, 0.000000000000000000 ) ) ;
#27 =( LENGTH_UNIT ( ) NAMED_UNIT ( * ) SI_UNIT ( $, .METRE. ) );
#28 = PRESENTATION_LAYER_ASSIGNMENT (  '', '', ( #221 ) ) ;
#29 = FILL_AREA_STYLE_COLOUR ( '', #232 ) ;
#30 = ORIENTED_EDGE ( 'NONE', *, *, #200, .F. ) ;
#31 = CARTESIAN_POINT ( 'NONE',  ( -2.369500423704768587E-34, 0.03969283100678656917, 0.000000000000000000 ) ) ;
#32 =( NAMED_UNIT ( * ) PLANE_ANGLE_UNIT ( ) SI_UNIT ( $, .RADIAN. ) );
#33 = MECHANICAL_DESIGN_GEOMETRIC_PRESENTATION_REPRESENTATION (  '', ( #302 ), #287 ) ;
#34 = DIRECTION ( 'NONE',  ( 1.000000000000000000, 0.000000000000000000, 0.000000000000000000 ) ) ;
#35 = STYLED_ITEM ( 'NONE', ( #45 ), #256 ) ;
#36 =( LENGTH_UNIT ( ) NAMED_UNIT ( * ) SI_UNIT ( $, .METRE. ) );
#37 = UNCERTAINTY_MEASURE_WITH_UNIT (LENGTH_MEASURE( 1.000000000000000082E-05 ), #144, 'distance_accuracy_value', 'NONE');
#38 =( CONVERSION_BASED_UNIT ( 'INCH', #123 ) LENGTH_UNIT ( ) NAMED_UNIT ( #7 ) );
#39 = SURFACE_SIDE_STYLE ('',( #280 ) ) ;
#40 = VECTOR ( 'NONE', #46, 39.37007874015748854 ) ;
#41 = FILL_AREA_STYLE ('',( #167 ) ) ;
#42 = DIRECTION ( 'NONE',  ( 5.969592905327508906E-33, -1.000000000000000000, -0.000000000000000000 ) ) ;
#43 = EDGE_LOOP ( 'NONE', ( #61, #290 ) ) ;
#44 = PRODUCT_DEFINITION_FORMATION_WITH_SPECIFIED_SOURCE ( 'ANY', '', #68, .NOT_KNOWN. ) ;
#45 = PRESENTATION_STYLE_ASSIGNMENT (( #154 ) ) ;
#46 = DIRECTION ( 'NONE',  ( -0.8660254037844397068, 0.4999999999999979461, 0.000000000000000000 ) ) ;
#47 = DIRECTION ( 'NONE',  ( -1.218900715719354978E-16, 1.000000000000000000, -0.000000000000000000 ) ) ;
#48 = DIRECTION ( 'NONE',  ( -1.218900715719354978E-16, 1.000000000000000000, -0.000000000000000000 ) ) ;
#49 = VERTEX_POINT ( 'NONE', #3 ) ;
#50 =( GEOMETRIC_REPRESENTATION_CONTEXT ( 3 ) GLOBAL_UNCERTAINTY_ASSIGNED_CONTEXT ( ( #166 ) ) GLOBAL_UNIT_ASSIGNED_CONTEXT ( ( #111, #57, #208 ) ) REPRESENTATION_CONTEXT ( 'NONE', 'WORKASPACE' ) );
#51 = DIRECTION ( 'NONE',  ( 5.969592905327508906E-33, -1.000000000000000000, -0.000000000000000000 ) ) ;
#52 = PLANE ( 'NONE',  #261 ) ;
#53 = EDGE_CURVE ( 'NONE', #165, #246, #82, .T. ) ;
#54 =( NAMED_UNIT ( * ) PLANE_ANGLE_UNIT ( ) SI_UNIT ( $, .RADIAN. ) );
#55 =( GEOMETRIC_REPRESENTATION_CONTEXT ( 3 ) GLOBAL_UNCERTAINTY_ASSIGNED_CONTEXT ( ( #2 ) ) GLOBAL_UNIT_ASSIGNED_CONTEXT ( ( #267, #149, #307 ) ) REPRESENTATION_CONTEXT ( 'NONE', 'WORKASPACE' ) );
#56 = PLANE ( 'NONE',  #160 ) ;
#57 =( NAMED_UNIT ( * ) PLANE_ANGLE_UNIT ( ) SI_UNIT ( $, .RADIAN. ) );
#58 = LINE ( 'NONE', #163, #262 ) ;
#59 = SURFACE_STYLE_FILL_AREA ( #141 ) ;
#60 =( GEOMETRIC_REPRESENTATION_CONTEXT ( 3 ) GLOBAL_UNCERTAINTY_ASSIGNED_CONTEXT ( ( #37 ) ) GLOBAL_UNIT_ASSIGNED_CONTEXT ( ( #144, #14, #122 ) ) REPRESENTATION_CONTEXT ( 'NONE', 'WORKASPACE' ) );
#61 = ORIENTED_EDGE ( 'NONE', *, *, #137, .F. ) ;
#62 = FILL_AREA_STYLE_COLOUR ( '', #87 ) ;
#63 = PLANE ( 'NONE',  #108 ) ;
#64 = FILL_AREA_STYLE ('',( #62 ) ) ;
#65 = AXIS2_PLACEMENT_3D ( 'NONE', #91, #51, #217 ) ;
#66 = ORIENTED_EDGE ( 'NONE', *, *, #53, .F. ) ;
#67 = DIRECTION ( 'NONE',  ( -1.000000000000000000, -9.106159978880893419E-17, 0.000000000000000000 ) ) ;
#68 = PRODUCT ( '84594', '84594', '', ( #201 ) ) ;
#69 = CYLINDRICAL_SURFACE ( 'NONE', #161, 0.09374999999999995837 ) ;
#70 = VERTEX_POINT ( 'NONE', #190 ) ;
#71 = SURFACE_STYLE_FILL_AREA ( #286 ) ;
#72 = CIRCLE ( 'NONE', #9, 0.09374999999999983347 ) ;
#73 = SURFACE_STYLE_FILL_AREA ( #247 ) ;
#74 = ADVANCED_FACE ( 'NONE', ( #78 ), #52, .F. ) ;
#75 = ORIENTED_EDGE ( 'NONE', *, *, #187, .T. ) ;
#76 = ORIENTED_EDGE ( 'NONE', *, *, #214, .T. ) ;
#77 = CARTESIAN_POINT ( 'NONE',  ( 8.909009863834132142E-67, -1.492398226331877269E-34, 0.000000000000000000 ) ) ;
#78 = FACE_OUTER_BOUND ( 'NONE', #132, .T. ) ;
#79 = MECHANICAL_DESIGN_GEOMETRIC_PRESENTATION_REPRESENTATION (  '', ( #35 ), #55 ) ;
#80 =( NAMED_UNIT ( * ) SI_UNIT ( $, .STERADIAN. ) SOLID_ANGLE_UNIT ( ) );
#81 = FACE_OUTER_BOUND ( 'NONE', #145, .T. ) ;
#82 = CIRCLE ( 'NONE', #226, 0.09375000000000006939 ) ;
#83 = CIRCLE ( 'NONE', #296, 0.09374999999999983347 ) ;
#84 = EDGE_CURVE ( 'NONE', #49, #246, #308, .T. ) ;
#85 = UNCERTAINTY_MEASURE_WITH_UNIT (LENGTH_MEASURE( 1.000000000000000082E-05 ), #38, 'distance_accuracy_value', 'NONE');
#86 = VECTOR ( 'NONE', #47, 39.37007874015748143 ) ;
#87 = COLOUR_RGB ( '',1.000000000000000000, 0.000000000000000000, 0.000000000000000000 ) ;
#88 = EDGE_CURVE ( 'NONE', #148, #70, #265, .T. ) ;
#89 = VERTEX_POINT ( 'NONE', #125 ) ;
#90 =( LENGTH_UNIT ( ) NAMED_UNIT ( * ) SI_UNIT ( $, .METRE. ) );
#91 = CARTESIAN_POINT ( 'NONE',  ( 8.909009863834132142E-67, -1.492398226331877269E-34, 0.000000000000000000 ) ) ;
#92 = PRESENTATION_LAYER_ASSIGNMENT (  '', '', ( #303 ) ) ;
#93 = APPLICATION_CONTEXT ( 'automotive_design' ) ;
#94 = CARTESIAN_POINT ( 'NONE',  ( -6.123233995736763571E-17, 2.000000000000000000, 0.000000000000000000 ) ) ;
#95 = CARTESIAN_POINT ( 'NONE',  ( -6.123233995736763571E-17, 2.000000000000000000, 0.000000000000000000 ) ) ;
#96 = EDGE_LOOP ( 'NONE', ( #189, #75 ) ) ;
#97 = ADVANCED_FACE ( 'NONE', ( #195 ), #56, .T. ) ;
#98 = ORIENTED_EDGE ( 'NONE', *, *, #88, .T. ) ;
#99 = PRESENTATION_LAYER_ASSIGNMENT (  '', '', ( #236 ) ) ;
#100 = DIRECTION ( 'NONE',  ( 1.000000000000000000, 1.218900715719354978E-16, 0.000000000000000000 ) ) ;
#101 = DIRECTION ( 'NONE',  ( -1.000000000000000000, 0.000000000000000000, 0.000000000000000000 ) ) ;
#102 = FACE_OUTER_BOUND ( 'NONE', #43, .T. ) ;
#103 = ADVANCED_FACE ( 'NONE', ( #6 ), #203, .T. ) ;
#104 = CARTESIAN_POINT ( 'NONE',  ( 0.000000000000000000, 0.000000000000000000, 0.000000000000000000 ) ) ;
#105 = APPLICATION_PROTOCOL_DEFINITION ( 'draft international standard', 'automotive_design', 1998, #153 ) ;
#106 = CARTESIAN_POINT ( 'NONE',  ( 8.909009863834132142E-67, -1.492398226331877269E-34, 0.000000000000000000 ) ) ;
#107 = DIMENSIONAL_EXPONENTS ( 1.000000000000000000, 0.000000000000000000, 0.000000000000000000, 0.000000000000000000, 0.000000000000000000, 0.000000000000000000, 0.000000000000000000 ) ;
#108 = AXIS2_PLACEMENT_3D ( 'NONE', #26, #289, #133 ) ;
#109 =( NAMED_UNIT ( * ) SI_UNIT ( $, .STERADIAN. ) SOLID_ANGLE_UNIT ( ) );
#110 = ADVANCED_FACE ( 'NONE', ( #211 ), #63, .T. ) ;
#111 =( CONVERSION_BASED_UNIT ( 'INCH', #260 ) LENGTH_UNIT ( ) NAMED_UNIT ( #282 ) );
#112 = EDGE_CURVE ( 'NONE', #222, #165, #284, .T. ) ;
#113 = SURFACE_STYLE_FILL_AREA ( #255 ) ;
#114 = DIRECTION ( 'NONE',  ( -1.218900715719354978E-16, 1.000000000000000000, -0.000000000000000000 ) ) ;
#115 = PRESENTATION_LAYER_ASSIGNMENT (  '', '', ( #35 ) ) ;
#116 = ADVANCED_BREP_SHAPE_REPRESENTATION ( '84594', ( #256, #159, #223 ), #279 ) ;
#117 = DIRECTION ( 'NONE',  ( -1.000000000000000000, -5.969592905327508906E-33, 0.000000000000000000 ) ) ;
#118 = PRODUCT_DEFINITION_SHAPE ( 'NONE', 'NONE',  #121 ) ;
#119 = DIRECTION ( 'NONE',  ( -5.969592905327508906E-33, 1.000000000000000000, 0.000000000000000000 ) ) ;
#120 = ORIENTED_EDGE ( 'NONE', *, *, #254, .T. ) ;
#121 = PRODUCT_DEFINITION ( 'UNKNOWN', '', #44, #18 ) ;
#122 =( NAMED_UNIT ( * ) SI_UNIT ( $, .STERADIAN. ) SOLID_ANGLE_UNIT ( ) );
#123 = LENGTH_MEASURE_WITH_UNIT ( LENGTH_MEASURE( 0.02539999999999999897 ), #90 );
#124 = ORIENTED_EDGE ( 'NONE', *, *, #88, .F. ) ;
#125 = CARTESIAN_POINT ( 'NONE',  ( 0.02500000000000000139, 0.000000000000000000, 7.271340369937408974E-18 ) ) ;
#126 = DIRECTION ( 'NONE',  ( -1.000000000000000000, 0.000000000000000000, 0.000000000000000000 ) ) ;
#127 = ADVANCED_FACE ( 'NONE', ( #81 ), #174, .T. ) ;
#128 = DIRECTION ( 'NONE',  ( -1.000000000000000000, -9.106159978880893419E-17, 0.000000000000000000 ) ) ;
#129 = CARTESIAN_POINT ( 'NONE',  ( 0.09374999999999988898, 2.000000000000000000, 1.148106374200643092E-17 ) ) ;
#130 = FILL_AREA_STYLE_COLOUR ( '', #298 ) ;
#131 = DIRECTION ( 'NONE',  ( -1.218900715719354978E-16, 1.000000000000000000, -0.000000000000000000 ) ) ;
#132 = EDGE_LOOP ( 'NONE', ( #283, #143 ) ) ;
#133 = DIRECTION ( 'NONE',  ( -1.000000000000000000, -5.969592905327508222E-33, 0.000000000000000000 ) ) ;
#134 = CARTESIAN_POINT ( 'NONE',  ( -6.123233995736763571E-17, 2.000000000000000000, 0.000000000000000000 ) ) ;
#135 =( GEOMETRIC_REPRESENTATION_CONTEXT ( 3 ) GLOBAL_UNCERTAINTY_ASSIGNED_CONTEXT ( ( #136 ) ) GLOBAL_UNIT_ASSIGNED_CONTEXT ( ( #263, #235, #109 ) ) REPRESENTATION_CONTEXT ( 'NONE', 'WORKASPACE' ) );
#136 = UNCERTAINTY_MEASURE_WITH_UNIT (LENGTH_MEASURE( 1.000000000000000082E-05 ), #263, 'distance_accuracy_value', 'NONE');
#137 = EDGE_CURVE ( 'NONE', #49, #222, #83, .T. ) ;
#138 = UNCERTAINTY_MEASURE_WITH_UNIT (LENGTH_MEASURE( 1.000000000000000082E-05 ), #297, 'distance_accuracy_value', 'NONE');
#139 = PRESENTATION_LAYER_ASSIGNMENT (  '', '', ( #302 ) ) ;
#140 = SURFACE_STYLE_FILL_AREA ( #64 ) ;
#141 = FILL_AREA_STYLE ('',( #168 ) ) ;
#142 = AXIS2_PLACEMENT_3D ( 'NONE', #31, #264, #23 ) ;
#143 = ORIENTED_EDGE ( 'NONE', *, *, #53, .T. ) ;
#144 =( CONVERSION_BASED_UNIT ( 'INCH', #205 ) LENGTH_UNIT ( ) NAMED_UNIT ( #107 ) );
#145 = EDGE_LOOP ( 'NONE', ( #225, #306, #215, #120 ) ) ;
#146 = LENGTH_MEASURE_WITH_UNIT ( LENGTH_MEASURE( 0.02539999999999999897 ), #242 );
#147 = CLOSED_SHELL ( 'NONE', ( #212, #25, #17, #74 ) ) ;
#148 = VERTEX_POINT ( 'NONE', #301 ) ;
#149 =( NAMED_UNIT ( * ) PLANE_ANGLE_UNIT ( ) SI_UNIT ( $, .RADIAN. ) );
#150 = FACE_OUTER_BOUND ( 'NONE', #243, .T. ) ;
#151 = DIRECTION ( 'NONE',  ( 5.969592905327508906E-33, -1.000000000000000000, -0.000000000000000000 ) ) ;
#152 = SURFACE_SIDE_STYLE ('',( #71 ) ) ;
#153 = APPLICATION_CONTEXT ( 'automotive_design' ) ;
#154 = SURFACE_STYLE_USAGE ( .BOTH. , #196 ) ;
#155 = DIRECTION ( 'NONE',  ( -1.218900715719354978E-16, 1.000000000000000000, -0.000000000000000000 ) ) ;
#156 = COLOUR_RGB ( '',1.000000000000000000, 0.000000000000000000, 0.000000000000000000 ) ;
#157 = PRODUCT_RELATED_PRODUCT_CATEGORY ( 'part', '', ( #68 ) ) ;
#158 = DIRECTION ( 'NONE',  ( -1.000000000000000000, 0.000000000000000000, 0.000000000000000000 ) ) ;
#159 = MANIFOLD_SOLID_BREP ( 'Revolve - Tool Body (Tipped Off)', #147 ) ;
#160 = AXIS2_PLACEMENT_3D ( 'NONE', #252, #162, #229 ) ;
#161 = AXIS2_PLACEMENT_3D ( 'NONE', #95, #131, #101 ) ;
#162 = DIRECTION ( 'NONE',  ( 5.969592905327508222E-33, -1.000000000000000000, -0.000000000000000000 ) ) ;
#163 = CARTESIAN_POINT ( 'NONE',  ( 0.02500000000000000139, 0.000000000000000000, 3.061616997868383172E-18 ) ) ;
#164 = SURFACE_STYLE_USAGE ( .BOTH. , #213 ) ;
#165 = VERTEX_POINT ( 'NONE', #291 ) ;
#166 = UNCERTAINTY_MEASURE_WITH_UNIT (LENGTH_MEASURE( 1.000000000000000082E-05 ), #111, 'distance_accuracy_value', 'NONE');
#167 = FILL_AREA_STYLE_COLOUR ( '', #156 ) ;
#168 = FILL_AREA_STYLE_COLOUR ( '', #299 ) ;
#169 = AXIS2_PLACEMENT_3D ( 'NONE', #185, #119, #207 ) ;
#170 = ORIENTED_EDGE ( 'NONE', *, *, #137, .T. ) ;
#171 = DIRECTION ( 'NONE',  ( 1.000000000000000000, 0.000000000000000000, 0.000000000000000000 ) ) ;
#172 = DIRECTION ( 'NONE',  ( -1.218900715719354978E-16, 1.000000000000000000, 0.000000000000000000 ) ) ;
#173 = CARTESIAN_POINT ( 'NONE',  ( 1.777096411741933739E-16, 0.03969283100678664550, 0.000000000000000000 ) ) ;
#174 = CONICAL_SURFACE ( 'NONE', #169, 0.02500000000000000139, 1.047197551196600074 ) ;
#175 = PRESENTATION_STYLE_ASSIGNMENT (( #292 ) ) ;
#176 = CARTESIAN_POINT ( 'NONE',  ( -0.02500000000000000139, -2.984796452663754538E-34, 0.000000000000000000 ) ) ;
#177 = ORIENTED_EDGE ( 'NONE', *, *, #187, .F. ) ;
#178 = ORIENTED_EDGE ( 'NONE', *, *, #112, .F. ) ;
#179 = ORIENTED_EDGE ( 'NONE', *, *, #84, .T. ) ;
#180 = CIRCLE ( 'NONE', #21, 0.09375000000000001388 ) ;
#181 = LENGTH_MEASURE_WITH_UNIT ( LENGTH_MEASURE( 0.02539999999999999897 ), #274 );
#182 = AXIS2_PLACEMENT_3D ( 'NONE', #77, #151, #277 ) ;
#183 = MECHANICAL_DESIGN_GEOMETRIC_PRESENTATION_REPRESENTATION (  '', ( #184 ), #60 ) ;
#184 = STYLED_ITEM ( 'NONE', ( #13 ), #127 ) ;
#185 = CARTESIAN_POINT ( 'NONE',  ( 8.909009863834132142E-67, -1.492398226331877269E-34, 0.000000000000000000 ) ) ;
#186 = SURFACE_STYLE_USAGE ( .BOTH. , #39 ) ;
#187 = EDGE_CURVE ( 'NONE', #89, #270, #210, .T. ) ;
#188 =( NAMED_UNIT ( * ) PLANE_ANGLE_UNIT ( ) SI_UNIT ( $, .RADIAN. ) );
#189 = ORIENTED_EDGE ( 'NONE', *, *, #269, .T. ) ;
#190 = CARTESIAN_POINT ( 'NONE',  ( -0.09375000000000002776, 0.03969283100678656917, 0.000000000000000000 ) ) ;
#191 = LINE ( 'NONE', #176, #40 ) ;
#192 = COLOUR_RGB ( '',1.000000000000000000, 0.000000000000000000, 0.000000000000000000 ) ;
#193 = VECTOR ( 'NONE', #11, 39.37007874015748143 ) ;
#194 = DIRECTION ( 'NONE',  ( -1.218900715719354978E-16, 1.000000000000000000, -0.000000000000000000 ) ) ;
#195 = FACE_OUTER_BOUND ( 'NONE', #96, .T. ) ;
#196 = SURFACE_SIDE_STYLE ('',( #73 ) ) ;
#197 = DIRECTION ( 'NONE',  ( -1.000000000000000000, -1.218900715719354978E-16, 0.000000000000000000 ) ) ;
#198 = UNCERTAINTY_MEASURE_WITH_UNIT (LENGTH_MEASURE( 1.000000000000000082E-05 ), #199, 'distance_accuracy_value', 'NONE');
#199 =( CONVERSION_BASED_UNIT ( 'INCH', #181 ) LENGTH_UNIT ( ) NAMED_UNIT ( #5 ) );
#200 = EDGE_CURVE ( 'NONE', #246, #165, #216, .T. ) ;
#201 = PRODUCT_CONTEXT ( 'NONE', #153, 'mechanical' ) ;
#202 = FILL_AREA_STYLE_COLOUR ( '', #192 ) ;
#203 = CONICAL_SURFACE ( 'NONE', #248, 0.02500000000000000139, 1.047197551196600074 ) ;
#204 = MECHANICAL_DESIGN_GEOMETRIC_PRESENTATION_REPRESENTATION (  '', ( #221 ), #135 ) ;
#205 = LENGTH_MEASURE_WITH_UNIT ( LENGTH_MEASURE( 0.02539999999999999897 ), #238 );
#206 = DIMENSIONAL_EXPONENTS ( 1.000000000000000000, 0.000000000000000000, 0.000000000000000000, 0.000000000000000000, 0.000000000000000000, 0.000000000000000000, 0.000000000000000000 ) ;
#207 = DIRECTION ( 'NONE',  ( -1.000000000000000000, -5.969592905327508906E-33, 0.000000000000000000 ) ) ;
#208 =( NAMED_UNIT ( * ) SI_UNIT ( $, .STERADIAN. ) SOLID_ANGLE_UNIT ( ) );
#209 = DIMENSIONAL_EXPONENTS ( 1.000000000000000000, 0.000000000000000000, 0.000000000000000000, 0.000000000000000000, 0.000000000000000000, 0.000000000000000000, 0.000000000000000000 ) ;
#210 = CIRCLE ( 'NONE', #65, 0.02500000000000000139 ) ;
#211 = FACE_OUTER_BOUND ( 'NONE', #281, .T. ) ;
#212 = ADVANCED_FACE ( 'NONE', ( #288 ), #69, .T. ) ;
#213 = SURFACE_SIDE_STYLE ('',( #59 ) ) ;
#214 = EDGE_CURVE ( 'NONE', #222, #49, #72, .T. ) ;
#215 = ORIENTED_EDGE ( 'NONE', *, *, #266, .T. ) ;
#216 = CIRCLE ( 'NONE', #4, 0.09375000000000006939 ) ;
#217 = DIRECTION ( 'NONE',  ( 1.000000000000000000, 5.969592905327508906E-33, 0.000000000000000000 ) ) ;
#218 = EDGE_LOOP ( 'NONE', ( #170, #224, #30, #24 ) ) ;
#219 = CARTESIAN_POINT ( 'NONE',  ( -2.369500423704768587E-34, 0.03969283100678656917, 0.000000000000000000 ) ) ;
#220 = AXIS2_PLACEMENT_3D ( 'NONE', #245, #172, #197 ) ;
#221 = STYLED_ITEM ( 'NONE', ( #258 ), #159 ) ;
#222 = VERTEX_POINT ( 'NONE', #293 ) ;
#223 = AXIS2_PLACEMENT_3D ( 'NONE', #104, #230, #34 ) ;
#224 = ORIENTED_EDGE ( 'NONE', *, *, #112, .T. ) ;
#225 = ORIENTED_EDGE ( 'NONE', *, *, #278, .F. ) ;
#226 = AXIS2_PLACEMENT_3D ( 'NONE', #294, #194, #158 ) ;
#227 =( GEOMETRIC_REPRESENTATION_CONTEXT ( 3 ) GLOBAL_UNCERTAINTY_ASSIGNED_CONTEXT ( ( #85 ) ) GLOBAL_UNIT_ASSIGNED_CONTEXT ( ( #38, #188, #233 ) ) REPRESENTATION_CONTEXT ( 'NONE', 'WORKASPACE' ) );
#228 = CARTESIAN_POINT ( 'NONE',  ( -0.02500000000000000139, -2.984796452663754538E-34, 0.000000000000000000 ) ) ;
#229 = DIRECTION ( 'NONE',  ( 1.000000000000000000, 5.969592905327508222E-33, 0.000000000000000000 ) ) ;
#230 = DIRECTION ( 'NONE',  ( 0.000000000000000000, 0.000000000000000000, 1.000000000000000000 ) ) ;
#231 =( NAMED_UNIT ( * ) SI_UNIT ( $, .STERADIAN. ) SOLID_ANGLE_UNIT ( ) );
#232 = COLOUR_RGB ( '',0.7921568627450980005, 0.8196078431372548767, 0.9333333333333333481 ) ;
#233 =( NAMED_UNIT ( * ) SI_UNIT ( $, .STERADIAN. ) SOLID_ANGLE_UNIT ( ) );
#234 = DIRECTION ( 'NONE',  ( 0.8660254037844397068, 0.4999999999999979461, 1.060575238724908024E-16 ) ) ;
#235 =( NAMED_UNIT ( * ) PLANE_ANGLE_UNIT ( ) SI_UNIT ( $, .RADIAN. ) );
#236 = STYLED_ITEM ( 'NONE', ( #305 ), #103 ) ;
#237 = PRESENTATION_LAYER_ASSIGNMENT (  '', '', ( #184 ) ) ;
#238 =( LENGTH_UNIT ( ) NAMED_UNIT ( * ) SI_UNIT ( $, .METRE. ) );
#239 = LENGTH_MEASURE_WITH_UNIT ( LENGTH_MEASURE( 0.02539999999999999897 ), #36 );
#240 = PRESENTATION_STYLE_ASSIGNMENT (( #186 ) ) ;
#241 = ORIENTED_EDGE ( 'NONE', *, *, #254, .F. ) ;
#242 =( LENGTH_UNIT ( ) NAMED_UNIT ( * ) SI_UNIT ( $, .METRE. ) );
#243 = EDGE_LOOP ( 'NONE', ( #178, #76, #179, #66 ) ) ;
#244 = CARTESIAN_POINT ( 'NONE',  ( -0.09375000000000013878, 2.000000000000000000, 0.000000000000000000 ) ) ;
#245 = CARTESIAN_POINT ( 'NONE',  ( 1.777096411741933493E-16, 0.03969283100678655529, 0.000000000000000000 ) ) ;
#246 = VERTEX_POINT ( 'NONE', #244 ) ;
#247 = FILL_AREA_STYLE ('',( #29 ) ) ;
#248 = AXIS2_PLACEMENT_3D ( 'NONE', #106, #16, #117 ) ;
#249 = ORIENTED_EDGE ( 'NONE', *, *, #278, .T. ) ;
#250 = CARTESIAN_POINT ( 'NONE',  ( -0.09375000000000002776, 2.000000000000000000, 0.000000000000000000 ) ) ;
#251 = SHAPE_DEFINITION_REPRESENTATION ( #118, #116 ) ;
#252 = CARTESIAN_POINT ( 'NONE',  ( 4.454504931917066071E-67, -7.461991131659386346E-35, 0.000000000000000000 ) ) ;
#253 = DIMENSIONAL_EXPONENTS ( 1.000000000000000000, 0.000000000000000000, 0.000000000000000000, 0.000000000000000000, 0.000000000000000000, 0.000000000000000000, 0.000000000000000000 ) ;
#254 = EDGE_CURVE ( 'NONE', #70, #148, #180, .T. ) ;
#255 = FILL_AREA_STYLE ('',( #202 ) ) ;
#256 = MANIFOLD_SOLID_BREP ( 'Revolve - Cutting Edge', #8 ) ;
#257 = MECHANICAL_DESIGN_GEOMETRIC_PRESENTATION_REPRESENTATION (  '', ( #303 ), #227 ) ;
#258 = PRESENTATION_STYLE_ASSIGNMENT (( #164 ) ) ;
#259 = EDGE_LOOP ( 'NONE', ( #177, #249, #98, #285 ) ) ;
#260 = LENGTH_MEASURE_WITH_UNIT ( LENGTH_MEASURE( 0.02539999999999999897 ), #12 );
#261 = AXIS2_PLACEMENT_3D ( 'NONE', #309, #272, #100 ) ;
#262 = VECTOR ( 'NONE', #234, 39.37007874015748854 ) ;
#263 =( CONVERSION_BASED_UNIT ( 'INCH', #239 ) LENGTH_UNIT ( ) NAMED_UNIT ( #209 ) );
#264 = DIRECTION ( 'NONE',  ( 5.969592905327508906E-33, -1.000000000000000000, -0.000000000000000000 ) ) ;
#265 = CIRCLE ( 'NONE', #142, 0.09375000000000001388 ) ;
#266 = EDGE_CURVE ( 'NONE', #270, #70, #191, .T. ) ;
#267 =( CONVERSION_BASED_UNIT ( 'INCH', #146 ) LENGTH_UNIT ( ) NAMED_UNIT ( #206 ) );
#268 = CYLINDRICAL_SURFACE ( 'NONE', #20, 0.09374999999999995837 ) ;
#269 = EDGE_CURVE ( 'NONE', #270, #89, #15, .T. ) ;
#270 = VERTEX_POINT ( 'NONE', #228 ) ;
#271 = DIRECTION ( 'NONE',  ( -1.218900715719354978E-16, 1.000000000000000000, -0.000000000000000000 ) ) ;
#272 = DIRECTION ( 'NONE',  ( 1.218900715719354978E-16, -1.000000000000000000, 0.000000000000000000 ) ) ;
#273 = APPLICATION_PROTOCOL_DEFINITION ( 'draft international standard', 'automotive_design', 1998, #93 ) ;
#274 =( LENGTH_UNIT ( ) NAMED_UNIT ( * ) SI_UNIT ( $, .METRE. ) );
#275 = MECHANICAL_DESIGN_GEOMETRIC_PRESENTATION_REPRESENTATION (  '', ( #236 ), #50 ) ;
#276 = SURFACE_SIDE_STYLE ('',( #113 ) ) ;
#277 = DIRECTION ( 'NONE',  ( 1.000000000000000000, 5.969592905327508906E-33, 0.000000000000000000 ) ) ;
#278 = EDGE_CURVE ( 'NONE', #89, #148, #58, .T. ) ;
#279 =( GEOMETRIC_REPRESENTATION_CONTEXT ( 3 ) GLOBAL_UNCERTAINTY_ASSIGNED_CONTEXT ( ( #198 ) ) GLOBAL_UNIT_ASSIGNED_CONTEXT ( ( #199, #54, #231 ) ) REPRESENTATION_CONTEXT ( 'NONE', 'WORKASPACE' ) );
#280 = SURFACE_STYLE_FILL_AREA ( #41 ) ;
#281 = EDGE_LOOP ( 'NONE', ( #241, #124 ) ) ;
#282 = DIMENSIONAL_EXPONENTS ( 1.000000000000000000, 0.000000000000000000, 0.000000000000000000, 0.000000000000000000, 0.000000000000000000, 0.000000000000000000, 0.000000000000000000 ) ;
#283 = ORIENTED_EDGE ( 'NONE', *, *, #200, .T. ) ;
#284 = LINE ( 'NONE', #129, #193 ) ;
#285 = ORIENTED_EDGE ( 'NONE', *, *, #266, .F. ) ;
#286 = FILL_AREA_STYLE ('',( #130 ) ) ;
#287 =( GEOMETRIC_REPRESENTATION_CONTEXT ( 3 ) GLOBAL_UNCERTAINTY_ASSIGNED_CONTEXT ( ( #138 ) ) GLOBAL_UNIT_ASSIGNED_CONTEXT ( ( #297, #32, #80 ) ) REPRESENTATION_CONTEXT ( 'NONE', 'WORKASPACE' ) );
#288 = FACE_OUTER_BOUND ( 'NONE', #218, .T. ) ;
#289 = DIRECTION ( 'NONE',  ( -5.969592905327508222E-33, 1.000000000000000000, 0.000000000000000000 ) ) ;
#290 = ORIENTED_EDGE ( 'NONE', *, *, #214, .F. ) ;
#291 = CARTESIAN_POINT ( 'NONE',  ( 0.09374999999999998612, 2.000000000000000000, 1.148106374200643555E-17 ) ) ;
#292 = SURFACE_STYLE_USAGE ( .BOTH. , #152 ) ;
#293 = CARTESIAN_POINT ( 'NONE',  ( 0.09374999999999998612, 0.03969283100678665244, 1.148106374200643555E-17 ) ) ;
#294 = CARTESIAN_POINT ( 'NONE',  ( -6.123233995736763571E-17, 2.000000000000000000, 0.000000000000000000 ) ) ;
#295 = LENGTH_MEASURE_WITH_UNIT ( LENGTH_MEASURE( 0.02539999999999999897 ), #27 );
#296 = AXIS2_PLACEMENT_3D ( 'NONE', #19, #114, #67 ) ;
#297 =( CONVERSION_BASED_UNIT ( 'INCH', #295 ) LENGTH_UNIT ( ) NAMED_UNIT ( #253 ) );
#298 = COLOUR_RGB ( '',1.000000000000000000, 0.000000000000000000, 0.000000000000000000 ) ;
#299 = COLOUR_RGB ( '',0.7921568627450980005, 0.8196078431372548767, 0.9333333333333333481 ) ;
#300 = SURFACE_SIDE_STYLE ('',( #140 ) ) ;
#301 = CARTESIAN_POINT ( 'NONE',  ( 0.09375000000000002776, 0.03969283100678656917, 1.148106374200643863E-17 ) ) ;
#302 = STYLED_ITEM ( 'NONE', ( #175 ), #97 ) ;
#303 = STYLED_ITEM ( 'NONE', ( #240 ), #110 ) ;
#304 = SURFACE_STYLE_USAGE ( .BOTH. , #300 ) ;
#305 = PRESENTATION_STYLE_ASSIGNMENT (( #10 ) ) ;
#306 = ORIENTED_EDGE ( 'NONE', *, *, #269, .F. ) ;
#307 =( NAMED_UNIT ( * ) SI_UNIT ( $, .STERADIAN. ) SOLID_ANGLE_UNIT ( ) );
#308 = LINE ( 'NONE', #250, #86 ) ;
#309 = CARTESIAN_POINT ( 'NONE',  ( 0.09375000000000001388, 2.000000000000000000, 0.000000000000000000 ) ) ;
ENDSEC;
END-ISO-10303-21;
