ISO-10303-21;
HEADER;
FILE_DESCRIPTION (( 'STEP AP214' ),
    '1' );
FILE_NAME ('59948.STEP',
    '2023-06-23T00:19:18',
    ( '' ),
    ( '' ),
    'SwSTEP 2.0',
    'SolidWorks 2023',
    '' );
FILE_SCHEMA (( 'AUTOMOTIVE_DESIGN' ));
ENDSEC;

DATA;
#1 = CIRCLE ( 'NONE', #206, 0.2500000000000001110 ) ;
#2 = VECTOR ( 'NONE', #204, 39.37007874015748143 ) ;
#3 = FACE_OUTER_BOUND ( 'NONE', #302, .T. ) ;
#4 =( NAMED_UNIT ( * ) SI_UNIT ( $, .STERADIAN. ) SOLID_ANGLE_UNIT ( ) );
#5 = ORIENTED_EDGE ( 'NONE', *, *, #86, .T. ) ;
#6 = UNCERTAINTY_MEASURE_WITH_UNIT (LENGTH_MEASURE( 1.000000000000000082E-05 ), #55, 'distance_accuracy_value', 'NONE');
#7 = CARTESIAN_POINT ( 'NONE',  ( 0.000000000000000000, 0.000000000000000000, 0.000000000000000000 ) ) ;
#8 = PLANE ( 'NONE',  #246 ) ;
#9 = FILL_AREA_STYLE ('',( #251 ) ) ;
#10 = CARTESIAN_POINT ( 'NONE',  ( 3.323567385400236968E-34, 1.625000000000000000, 0.000000000000000000 ) ) ;
#11 = DIRECTION ( 'NONE',  ( -1.000000000000000000, 0.000000000000000000, 0.000000000000000000 ) ) ;
#12 = ADVANCED_FACE ( 'NONE', ( #84 ), #8, .T. ) ;
#13 = FILL_AREA_STYLE_COLOUR ( '', #88 ) ;
#14 = ORIENTED_EDGE ( 'NONE', *, *, #106, .T. ) ;
#15 = DIRECTION ( 'NONE',  ( 0.000000000000000000, 0.000000000000000000, -1.000000000000000000 ) ) ;
#16 = MECHANICAL_DESIGN_GEOMETRIC_PRESENTATION_REPRESENTATION (  '', ( #283 ), #157 ) ;
#17 =( GEOMETRIC_REPRESENTATION_CONTEXT ( 3 ) GLOBAL_UNCERTAINTY_ASSIGNED_CONTEXT ( ( #20 ) ) GLOBAL_UNIT_ASSIGNED_CONTEXT ( ( #277, #129, #257 ) ) REPRESENTATION_CONTEXT ( 'NONE', 'WORKASPACE' ) );
#18 = CARTESIAN_POINT ( 'NONE',  ( 0.000000000000000000, 0.000000000000000000, 0.000000000000000000 ) ) ;
#19 = FACE_OUTER_BOUND ( 'NONE', #139, .T. ) ;
#20 = UNCERTAINTY_MEASURE_WITH_UNIT (LENGTH_MEASURE( 1.000000000000000082E-05 ), #277, 'distance_accuracy_value', 'NONE');
#21 = VECTOR ( 'NONE', #145, 39.37007874015748143 ) ;
#22 = FILL_AREA_STYLE_COLOUR ( '', #225 ) ;
#23 = PRESENTATION_STYLE_ASSIGNMENT (( #114 ) ) ;
#24 = ORIENTED_EDGE ( 'NONE', *, *, #241, .F. ) ;
#25 = EDGE_CURVE ( 'NONE', #261, #67, #287, .T. ) ;
#26 =( GEOMETRIC_REPRESENTATION_CONTEXT ( 3 ) GLOBAL_UNCERTAINTY_ASSIGNED_CONTEXT ( ( #75 ) ) GLOBAL_UNIT_ASSIGNED_CONTEXT ( ( #187, #120, #4 ) ) REPRESENTATION_CONTEXT ( 'NONE', 'WORKASPACE' ) );
#27 = DIRECTION ( 'NONE',  ( -1.000000000000000000, 0.000000000000000000, 0.000000000000000000 ) ) ;
#28 = PLANE ( 'NONE',  #83 ) ;
#29 = PRESENTATION_STYLE_ASSIGNMENT (( #31 ) ) ;
#30 =( GEOMETRIC_REPRESENTATION_CONTEXT ( 3 ) GLOBAL_UNCERTAINTY_ASSIGNED_CONTEXT ( ( #188 ) ) GLOBAL_UNIT_ASSIGNED_CONTEXT ( ( #218, #271, #124 ) ) REPRESENTATION_CONTEXT ( 'NONE', 'WORKASPACE' ) );
#31 = SURFACE_STYLE_USAGE ( .BOTH. , #244 ) ;
#32 = CARTESIAN_POINT ( 'NONE',  ( 3.061616997868383018E-17, 0.000000000000000000, 0.2500000000000000000 ) ) ;
#33 =( NAMED_UNIT ( * ) PLANE_ANGLE_UNIT ( ) SI_UNIT ( $, .RADIAN. ) );
#34 = DIRECTION ( 'NONE',  ( -0.000000000000000000, -1.000000000000000000, -0.000000000000000000 ) ) ;
#35 = PRODUCT_DEFINITION_SHAPE ( 'NONE', 'NONE',  #47 ) ;
#36 =( GEOMETRIC_REPRESENTATION_CONTEXT ( 3 ) GLOBAL_UNCERTAINTY_ASSIGNED_CONTEXT ( ( #70 ) ) GLOBAL_UNIT_ASSIGNED_CONTEXT ( ( #305, #68, #113 ) ) REPRESENTATION_CONTEXT ( 'NONE', 'WORKASPACE' ) );
#37 = AXIS2_PLACEMENT_3D ( 'NONE', #303, #40, #230 ) ;
#38 = DIRECTION ( 'NONE',  ( -5.156407575357275299E-17, 1.000000000000000000, -0.000000000000000000 ) ) ;
#39 = VERTEX_POINT ( 'NONE', #193 ) ;
#40 = DIRECTION ( 'NONE',  ( 0.000000000000000000, 0.000000000000000000, 1.000000000000000000 ) ) ;
#41 = ORIENTED_EDGE ( 'NONE', *, *, #282, .F. ) ;
#42 = PRODUCT ( '59948', '59948', '', ( #280 ) ) ;
#43 = ORIENTED_EDGE ( 'NONE', *, *, #163, .T. ) ;
#44 = CIRCLE ( 'NONE', #300, 0.2500000000000000000 ) ;
#45 = CARTESIAN_POINT ( 'NONE',  ( 0.000000000000000000, 1.625000000000000000, 0.000000000000000000 ) ) ;
#46 = CIRCLE ( 'NONE', #202, 0.2500000000000000000 ) ;
#47 = PRODUCT_DEFINITION ( 'UNKNOWN', '', #77, #184 ) ;
#48 = APPLICATION_CONTEXT ( 'automotive_design' ) ;
#49 = UNCERTAINTY_MEASURE_WITH_UNIT (LENGTH_MEASURE( 1.000000000000000082E-05 ), #69, 'distance_accuracy_value', 'NONE');
#50 =( NAMED_UNIT ( * ) PLANE_ANGLE_UNIT ( ) SI_UNIT ( $, .RADIAN. ) );
#51 = PRODUCT_RELATED_PRODUCT_CATEGORY ( 'part', '', ( #42 ) ) ;
#52 = ORIENTED_EDGE ( 'NONE', *, *, #126, .F. ) ;
#53 = CARTESIAN_POINT ( 'NONE',  ( -1.224646799147352714E-16, 4.000000000000000000, 0.000000000000000000 ) ) ;
#54 =( LENGTH_UNIT ( ) NAMED_UNIT ( * ) SI_UNIT ( $, .METRE. ) );
#55 =( CONVERSION_BASED_UNIT ( 'INCH', #78 ) LENGTH_UNIT ( ) NAMED_UNIT ( #270 ) );
#56 = DIRECTION ( 'NONE',  ( -1.000000000000000000, 0.000000000000000000, 0.000000000000000000 ) ) ;
#57 = SURFACE_STYLE_FILL_AREA ( #60 ) ;
#58 = STYLED_ITEM ( 'NONE', ( #296 ), #250 ) ;
#59 =( LENGTH_UNIT ( ) NAMED_UNIT ( * ) SI_UNIT ( $, .METRE. ) );
#60 = FILL_AREA_STYLE ('',( #97 ) ) ;
#61 = CARTESIAN_POINT ( 'NONE',  ( 0.000000000000000000, 0.000000000000000000, 0.000000000000000000 ) ) ;
#62 = DIRECTION ( 'NONE',  ( -5.156407575357275916E-17, 1.000000000000000000, 0.000000000000000000 ) ) ;
#63 = DIRECTION ( 'NONE',  ( 0.000000000000000000, 0.000000000000000000, -1.000000000000000000 ) ) ;
#64 = CIRCLE ( 'NONE', #259, 0.2500000000000000000 ) ;
#65 = PRESENTATION_STYLE_ASSIGNMENT (( #156 ) ) ;
#66 = CIRCLE ( 'NONE', #260, 0.2500000000000001110 ) ;
#67 = VERTEX_POINT ( 'NONE', #293 ) ;
#68 =( NAMED_UNIT ( * ) PLANE_ANGLE_UNIT ( ) SI_UNIT ( $, .RADIAN. ) );
#69 =( CONVERSION_BASED_UNIT ( 'INCH', #210 ) LENGTH_UNIT ( ) NAMED_UNIT ( #130 ) );
#70 = UNCERTAINTY_MEASURE_WITH_UNIT (LENGTH_MEASURE( 1.000000000000000082E-05 ), #305, 'distance_accuracy_value', 'NONE');
#71 = ADVANCED_BREP_SHAPE_REPRESENTATION ( '59948', ( #250, #142, #37 ), #17 ) ;
#72 = LINE ( 'NONE', #289, #21 ) ;
#73 = CYLINDRICAL_SURFACE ( 'NONE', #185, 0.2500000000000000000 ) ;
#74 = EDGE_CURVE ( 'NONE', #269, #67, #143, .T. ) ;
#75 = UNCERTAINTY_MEASURE_WITH_UNIT (LENGTH_MEASURE( 1.000000000000000082E-05 ), #187, 'distance_accuracy_value', 'NONE');
#76 = SURFACE_SIDE_STYLE ('',( #57 ) ) ;
#77 = PRODUCT_DEFINITION_FORMATION_WITH_SPECIFIED_SOURCE ( 'ANY', '', #42, .NOT_KNOWN. ) ;
#78 = LENGTH_MEASURE_WITH_UNIT ( LENGTH_MEASURE( 0.02539999999999999897 ), #59 );
#79 = CARTESIAN_POINT ( 'NONE',  ( -0.2500000000000002776, 4.000000000000000000, 0.000000000000000000 ) ) ;
#80 = DIRECTION ( 'NONE',  ( -0.000000000000000000, -1.000000000000000000, -0.000000000000000000 ) ) ;
#81 = FILL_AREA_STYLE ('',( #144 ) ) ;
#82 = ORIENTED_EDGE ( 'NONE', *, *, #90, .T. ) ;
#83 = AXIS2_PLACEMENT_3D ( 'NONE', #175, #304, #237 ) ;
#84 = FACE_OUTER_BOUND ( 'NONE', #137, .T. ) ;
#85 = ORIENTED_EDGE ( 'NONE', *, *, #86, .F. ) ;
#86 = EDGE_CURVE ( 'NONE', #238, #171, #109, .T. ) ;
#87 = VERTEX_POINT ( 'NONE', #195 ) ;
#88 = COLOUR_RGB ( '',1.000000000000000000, 0.000000000000000000, 0.000000000000000000 ) ;
#89 = MECHANICAL_DESIGN_GEOMETRIC_PRESENTATION_REPRESENTATION (  '', ( #309 ), #152 ) ;
#90 = EDGE_CURVE ( 'NONE', #231, #39, #1, .T. ) ;
#91 = ORIENTED_EDGE ( 'NONE', *, *, #25, .T. ) ;
#92 = VECTOR ( 'NONE', #290, 39.37007874015748143 ) ;
#93 = CARTESIAN_POINT ( 'NONE',  ( 0.000000000000000000, 1.625000000000000000, 0.000000000000000000 ) ) ;
#94 = EDGE_LOOP ( 'NONE', ( #164, #5, #173, #160 ) ) ;
#95 = CYLINDRICAL_SURFACE ( 'NONE', #121, 0.2500000000000000555 ) ;
#96 = ADVANCED_FACE ( 'NONE', ( #3 ), #73, .T. ) ;
#97 = FILL_AREA_STYLE_COLOUR ( '', #200 ) ;
#98 = CARTESIAN_POINT ( 'NONE',  ( 0.000000000000000000, 0.000000000000000000, -0.2500000000000000000 ) ) ;
#99 = LENGTH_MEASURE_WITH_UNIT ( LENGTH_MEASURE( 0.02539999999999999897 ), #274 );
#100 = ADVANCED_FACE ( 'NONE', ( #203 ), #279, .F. ) ;
#101 = SURFACE_STYLE_FILL_AREA ( #9 ) ;
#102 = APPLICATION_PROTOCOL_DEFINITION ( 'draft international standard', 'automotive_design', 1998, #48 ) ;
#103 = DIMENSIONAL_EXPONENTS ( 1.000000000000000000, 0.000000000000000000, 0.000000000000000000, 0.000000000000000000, 0.000000000000000000, 0.000000000000000000, 0.000000000000000000 ) ;
#104 = ORIENTED_EDGE ( 'NONE', *, *, #209, .F. ) ;
#105 = PRESENTATION_LAYER_ASSIGNMENT (  '', '', ( #239 ) ) ;
#106 = EDGE_CURVE ( 'NONE', #238, #39, #72, .T. ) ;
#107 = SHAPE_DEFINITION_REPRESENTATION ( #35, #71 ) ;
#108 = CARTESIAN_POINT ( 'NONE',  ( -0.2500000000000002220, 4.000000000000000000, 0.000000000000000000 ) ) ;
#109 = CIRCLE ( 'NONE', #135, 0.2500000000000000000 ) ;
#110 = LENGTH_MEASURE_WITH_UNIT ( LENGTH_MEASURE( 0.02539999999999999897 ), #236 );
#111 = FILL_AREA_STYLE ('',( #22 ) ) ;
#112 = ORIENTED_EDGE ( 'NONE', *, *, #241, .T. ) ;
#113 =( NAMED_UNIT ( * ) SI_UNIT ( $, .STERADIAN. ) SOLID_ANGLE_UNIT ( ) );
#114 = SURFACE_STYLE_USAGE ( .BOTH. , #208 ) ;
#115 = AXIS2_PLACEMENT_3D ( 'NONE', #61, #80, #146 ) ;
#116 = DIRECTION ( 'NONE',  ( -0.000000000000000000, -1.000000000000000000, -0.000000000000000000 ) ) ;
#117 = SURFACE_SIDE_STYLE ('',( #219 ) ) ;
#118 = EDGE_CURVE ( 'NONE', #67, #261, #64, .T. ) ;
#119 = DIRECTION ( 'NONE',  ( 0.000000000000000000, -1.000000000000000000, -0.000000000000000000 ) ) ;
#120 =( NAMED_UNIT ( * ) PLANE_ANGLE_UNIT ( ) SI_UNIT ( $, .RADIAN. ) );
#121 = AXIS2_PLACEMENT_3D ( 'NONE', #53, #147, #56 ) ;
#122 = LENGTH_MEASURE_WITH_UNIT ( LENGTH_MEASURE( 0.02539999999999999897 ), #54 );
#123 = DIRECTION ( 'NONE',  ( -1.000000000000000000, 0.000000000000000000, 0.000000000000000000 ) ) ;
#124 =( NAMED_UNIT ( * ) SI_UNIT ( $, .STERADIAN. ) SOLID_ANGLE_UNIT ( ) );
#125 = ORIENTED_EDGE ( 'NONE', *, *, #176, .F. ) ;
#126 = EDGE_CURVE ( 'NONE', #171, #238, #44, .T. ) ;
#127 = DIRECTION ( 'NONE',  ( -1.000000000000000000, -5.156407575357275916E-17, 0.000000000000000000 ) ) ;
#128 = FILL_AREA_STYLE_COLOUR ( '', #308 ) ;
#129 =( NAMED_UNIT ( * ) PLANE_ANGLE_UNIT ( ) SI_UNIT ( $, .RADIAN. ) );
#130 = DIMENSIONAL_EXPONENTS ( 1.000000000000000000, 0.000000000000000000, 0.000000000000000000, 0.000000000000000000, 0.000000000000000000, 0.000000000000000000, 0.000000000000000000 ) ;
#131 = LENGTH_MEASURE_WITH_UNIT ( LENGTH_MEASURE( 0.02539999999999999897 ), #177 );
#132 = ORIENTED_EDGE ( 'NONE', *, *, #176, .T. ) ;
#133 = APPLICATION_PROTOCOL_DEFINITION ( 'draft international standard', 'automotive_design', 1998, #211 ) ;
#134 = SURFACE_STYLE_FILL_AREA ( #174 ) ;
#135 = AXIS2_PLACEMENT_3D ( 'NONE', #252, #307, #123 ) ;
#136 = AXIS2_PLACEMENT_3D ( 'NONE', #18, #281, #242 ) ;
#137 = EDGE_LOOP ( 'NONE', ( #91, #276 ) ) ;
#138 = SURFACE_SIDE_STYLE ('',( #134 ) ) ;
#139 = EDGE_LOOP ( 'NONE', ( #82, #43 ) ) ;
#140 = PRESENTATION_LAYER_ASSIGNMENT (  '', '', ( #58 ) ) ;
#141 = FACE_OUTER_BOUND ( 'NONE', #205, .T. ) ;
#142 = MANIFOLD_SOLID_BREP ( 'Revolve - Tool Body (Straight Shanked)', #223 ) ;
#143 = LINE ( 'NONE', #32, #92 ) ;
#144 = FILL_AREA_STYLE_COLOUR ( '', #295 ) ;
#145 = DIRECTION ( 'NONE',  ( -5.156407575357275916E-17, 1.000000000000000000, -0.000000000000000000 ) ) ;
#146 = DIRECTION ( 'NONE',  ( 0.000000000000000000, 0.000000000000000000, -1.000000000000000000 ) ) ;
#147 = DIRECTION ( 'NONE',  ( -5.156407575357275299E-17, 1.000000000000000000, -0.000000000000000000 ) ) ;
#148 = PRESENTATION_LAYER_ASSIGNMENT (  '', '', ( #283 ) ) ;
#149 = SURFACE_STYLE_USAGE ( .BOTH. , #76 ) ;
#150 = DIRECTION ( 'NONE',  ( 0.000000000000000000, 0.000000000000000000, -1.000000000000000000 ) ) ;
#151 = PRESENTATION_LAYER_ASSIGNMENT (  '', '', ( #224 ) ) ;
#152 =( GEOMETRIC_REPRESENTATION_CONTEXT ( 3 ) GLOBAL_UNCERTAINTY_ASSIGNED_CONTEXT ( ( #49 ) ) GLOBAL_UNIT_ASSIGNED_CONTEXT ( ( #69, #50, #182 ) ) REPRESENTATION_CONTEXT ( 'NONE', 'WORKASPACE' ) );
#153 = ORIENTED_EDGE ( 'NONE', *, *, #90, .F. ) ;
#154 = ADVANCED_FACE ( 'NONE', ( #297 ), #292, .T. ) ;
#155 = CYLINDRICAL_SURFACE ( 'NONE', #162, 0.2500000000000000555 ) ;
#156 = SURFACE_STYLE_USAGE ( .BOTH. , #138 ) ;
#157 =( GEOMETRIC_REPRESENTATION_CONTEXT ( 3 ) GLOBAL_UNCERTAINTY_ASSIGNED_CONTEXT ( ( #159 ) ) GLOBAL_UNIT_ASSIGNED_CONTEXT ( ( #192, #33, #258 ) ) REPRESENTATION_CONTEXT ( 'NONE', 'WORKASPACE' ) );
#158 = ORIENTED_EDGE ( 'NONE', *, *, #118, .F. ) ;
#159 = UNCERTAINTY_MEASURE_WITH_UNIT (LENGTH_MEASURE( 1.000000000000000082E-05 ), #192, 'distance_accuracy_value', 'NONE');
#160 = ORIENTED_EDGE ( 'NONE', *, *, #163, .F. ) ;
#161 = COLOUR_RGB ( '',0.7921568627450980005, 0.8196078431372548767, 0.9333333333333333481 ) ;
#162 = AXIS2_PLACEMENT_3D ( 'NONE', #232, #38, #275 ) ;
#163 = EDGE_CURVE ( 'NONE', #39, #231, #66, .T. ) ;
#164 = ORIENTED_EDGE ( 'NONE', *, *, #106, .F. ) ;
#165 = ORIENTED_EDGE ( 'NONE', *, *, #74, .F. ) ;
#166 = DIRECTION ( 'NONE',  ( 0.000000000000000000, 0.000000000000000000, -1.000000000000000000 ) ) ;
#167 = DIRECTION ( 'NONE',  ( -5.156407575357275299E-17, 1.000000000000000000, -0.000000000000000000 ) ) ;
#168 = PRESENTATION_STYLE_ASSIGNMENT (( #254 ) ) ;
#169 = LINE ( 'NONE', #98, #217 ) ;
#170 = AXIS2_PLACEMENT_3D ( 'NONE', #267, #34, #196 ) ;
#171 = VERTEX_POINT ( 'NONE', #306 ) ;
#172 = MECHANICAL_DESIGN_GEOMETRIC_PRESENTATION_REPRESENTATION (  '', ( #239 ), #286 ) ;
#173 = ORIENTED_EDGE ( 'NONE', *, *, #282, .T. ) ;
#174 = FILL_AREA_STYLE ('',( #13 ) ) ;
#175 = CARTESIAN_POINT ( 'NONE',  ( 0.2500000000000000000, 4.000000000000000000, 0.000000000000000000 ) ) ;
#176 = EDGE_CURVE ( 'NONE', #87, #269, #46, .T. ) ;
#177 =( LENGTH_UNIT ( ) NAMED_UNIT ( * ) SI_UNIT ( $, .METRE. ) );
#178 = ORIENTED_EDGE ( 'NONE', *, *, #74, .T. ) ;
#179 = CARTESIAN_POINT ( 'NONE',  ( -1.224646799147352714E-16, 4.000000000000000000, 0.000000000000000000 ) ) ;
#180 = ORIENTED_EDGE ( 'NONE', *, *, #209, .T. ) ;
#181 = SURFACE_STYLE_FILL_AREA ( #248 ) ;
#182 =( NAMED_UNIT ( * ) SI_UNIT ( $, .STERADIAN. ) SOLID_ANGLE_UNIT ( ) );
#183 =( LENGTH_UNIT ( ) NAMED_UNIT ( * ) SI_UNIT ( $, .METRE. ) );
#184 = PRODUCT_DEFINITION_CONTEXT ( 'detailed design', #211, 'design' ) ;
#185 = AXIS2_PLACEMENT_3D ( 'NONE', #235, #256, #15 ) ;
#186 = SURFACE_SIDE_STYLE ('',( #101 ) ) ;
#187 =( CONVERSION_BASED_UNIT ( 'INCH', #268 ) LENGTH_UNIT ( ) NAMED_UNIT ( #227 ) );
#188 = UNCERTAINTY_MEASURE_WITH_UNIT (LENGTH_MEASURE( 1.000000000000000082E-05 ), #218, 'distance_accuracy_value', 'NONE');
#189 = CARTESIAN_POINT ( 'NONE',  ( -1.224646799147352714E-16, 4.000000000000000000, 0.000000000000000000 ) ) ;
#190 = ADVANCED_FACE ( 'NONE', ( #141 ), #240, .T. ) ;
#191 = SURFACE_STYLE_USAGE ( .BOTH. , #117 ) ;
#192 =( CONVERSION_BASED_UNIT ( 'INCH', #99 ) LENGTH_UNIT ( ) NAMED_UNIT ( #298 ) );
#193 = CARTESIAN_POINT ( 'NONE',  ( 0.2500000000000000555, 4.000000000000000000, 3.061616997868384251E-17 ) ) ;
#194 = DIMENSIONAL_EXPONENTS ( 1.000000000000000000, 0.000000000000000000, 0.000000000000000000, 0.000000000000000000, 0.000000000000000000, 0.000000000000000000, 0.000000000000000000 ) ;
#195 = CARTESIAN_POINT ( 'NONE',  ( 0.000000000000000000, 1.625000000000000000, -0.2500000000000000000 ) ) ;
#196 = DIRECTION ( 'NONE',  ( 0.000000000000000000, 0.000000000000000000, -1.000000000000000000 ) ) ;
#197 = DIMENSIONAL_EXPONENTS ( 1.000000000000000000, 0.000000000000000000, 0.000000000000000000, 0.000000000000000000, 0.000000000000000000, 0.000000000000000000, 0.000000000000000000 ) ;
#198 = LINE ( 'NONE', #108, #2 ) ;
#199 = CARTESIAN_POINT ( 'NONE',  ( 3.061616997868383018E-17, 1.625000000000000000, 0.2500000000000000000 ) ) ;
#200 = COLOUR_RGB ( '',1.000000000000000000, 0.000000000000000000, 0.000000000000000000 ) ;
#201 = ORIENTED_EDGE ( 'NONE', *, *, #126, .T. ) ;
#202 = AXIS2_PLACEMENT_3D ( 'NONE', #45, #116, #166 ) ;
#203 = FACE_OUTER_BOUND ( 'NONE', #278, .T. ) ;
#204 = DIRECTION ( 'NONE',  ( -5.156407575357275916E-17, 1.000000000000000000, -0.000000000000000000 ) ) ;
#205 = EDGE_LOOP ( 'NONE', ( #125, #24 ) ) ;
#206 = AXIS2_PLACEMENT_3D ( 'NONE', #189, #167, #266 ) ;
#207 = MECHANICAL_DESIGN_GEOMETRIC_PRESENTATION_REPRESENTATION (  '', ( #58 ), #26 ) ;
#208 = SURFACE_SIDE_STYLE ('',( #285 ) ) ;
#209 = EDGE_CURVE ( 'NONE', #87, #261, #169, .T. ) ;
#210 = LENGTH_MEASURE_WITH_UNIT ( LENGTH_MEASURE( 0.02539999999999999897 ), #183 );
#211 = APPLICATION_CONTEXT ( 'automotive_design' ) ;
#212 = MECHANICAL_DESIGN_GEOMETRIC_PRESENTATION_REPRESENTATION (  '', ( #216 ), #30 ) ;
#213 = PRESENTATION_LAYER_ASSIGNMENT (  '', '', ( #309 ) ) ;
#214 = DIRECTION ( 'NONE',  ( 0.000000000000000000, 1.000000000000000000, 0.000000000000000000 ) ) ;
#215 =( LENGTH_UNIT ( ) NAMED_UNIT ( * ) SI_UNIT ( $, .METRE. ) );
#216 = STYLED_ITEM ( 'NONE', ( #168 ), #142 ) ;
#217 = VECTOR ( 'NONE', #265, 39.37007874015748143 ) ;
#218 =( CONVERSION_BASED_UNIT ( 'INCH', #122 ) LENGTH_UNIT ( ) NAMED_UNIT ( #103 ) );
#219 = SURFACE_STYLE_FILL_AREA ( #81 ) ;
#220 =( NAMED_UNIT ( * ) PLANE_ANGLE_UNIT ( ) SI_UNIT ( $, .RADIAN. ) );
#221 = FACE_OUTER_BOUND ( 'NONE', #94, .T. ) ;
#222 = CARTESIAN_POINT ( 'NONE',  ( 0.000000000000000000, 0.000000000000000000, 0.000000000000000000 ) ) ;
#223 = CLOSED_SHELL ( 'NONE', ( #273, #100, #228, #264 ) ) ;
#224 = STYLED_ITEM ( 'NONE', ( #65 ), #12 ) ;
#225 = COLOUR_RGB ( '',1.000000000000000000, 0.000000000000000000, 0.000000000000000000 ) ;
#226 = DIRECTION ( 'NONE',  ( -0.000000000000000000, -1.000000000000000000, -0.000000000000000000 ) ) ;
#227 = DIMENSIONAL_EXPONENTS ( 1.000000000000000000, 0.000000000000000000, 0.000000000000000000, 0.000000000000000000, 0.000000000000000000, 0.000000000000000000, 0.000000000000000000 ) ;
#228 = ADVANCED_FACE ( 'NONE', ( #221 ), #95, .T. ) ;
#229 = DIRECTION ( 'NONE',  ( -5.156407575357275299E-17, 1.000000000000000000, -0.000000000000000000 ) ) ;
#230 = DIRECTION ( 'NONE',  ( 1.000000000000000000, 0.000000000000000000, 0.000000000000000000 ) ) ;
#231 = VERTEX_POINT ( 'NONE', #79 ) ;
#232 = CARTESIAN_POINT ( 'NONE',  ( -1.224646799147352714E-16, 4.000000000000000000, 0.000000000000000000 ) ) ;
#233 = AXIS2_PLACEMENT_3D ( 'NONE', #10, #62, #127 ) ;
#234 = EDGE_LOOP ( 'NONE', ( #132, #178, #291, #104 ) ) ;
#235 = CARTESIAN_POINT ( 'NONE',  ( 0.000000000000000000, 0.000000000000000000, 0.000000000000000000 ) ) ;
#236 =( LENGTH_UNIT ( ) NAMED_UNIT ( * ) SI_UNIT ( $, .METRE. ) );
#237 = DIRECTION ( 'NONE',  ( 1.000000000000000000, 5.156407575357275916E-17, 0.000000000000000000 ) ) ;
#238 = VERTEX_POINT ( 'NONE', #243 ) ;
#239 = STYLED_ITEM ( 'NONE', ( #29 ), #96 ) ;
#240 = PLANE ( 'NONE',  #288 ) ;
#241 = EDGE_CURVE ( 'NONE', #269, #87, #301, .T. ) ;
#242 = DIRECTION ( 'NONE',  ( 0.000000000000000000, 0.000000000000000000, -1.000000000000000000 ) ) ;
#243 = CARTESIAN_POINT ( 'NONE',  ( 0.2500000000000000555, 1.625000000000000000, 3.061616997868384251E-17 ) ) ;
#244 = SURFACE_SIDE_STYLE ('',( #181 ) ) ;
#245 = CARTESIAN_POINT ( 'NONE',  ( 3.032960542342103792E-32, 1.625000000000000000, 0.000000000000000000 ) ) ;
#246 = AXIS2_PLACEMENT_3D ( 'NONE', #222, #119, #63 ) ;
#247 = PRESENTATION_STYLE_ASSIGNMENT (( #149 ) ) ;
#248 = FILL_AREA_STYLE ('',( #128 ) ) ;
#249 =( NAMED_UNIT ( * ) SI_UNIT ( $, .STERADIAN. ) SOLID_ANGLE_UNIT ( ) );
#250 = MANIFOLD_SOLID_BREP ( 'Revolve - Cutting Edge', #299 ) ;
#251 = FILL_AREA_STYLE_COLOUR ( '', #161 ) ;
#252 = CARTESIAN_POINT ( 'NONE',  ( 3.032960542342103792E-32, 1.625000000000000000, 0.000000000000000000 ) ) ;
#253 = CARTESIAN_POINT ( 'NONE',  ( 0.000000000000000000, 0.000000000000000000, -0.2500000000000000000 ) ) ;
#254 = SURFACE_STYLE_USAGE ( .BOTH. , #186 ) ;
#255 = FACE_OUTER_BOUND ( 'NONE', #272, .T. ) ;
#256 = DIRECTION ( 'NONE',  ( -0.000000000000000000, -1.000000000000000000, -0.000000000000000000 ) ) ;
#257 =( NAMED_UNIT ( * ) SI_UNIT ( $, .STERADIAN. ) SOLID_ANGLE_UNIT ( ) );
#258 =( NAMED_UNIT ( * ) SI_UNIT ( $, .STERADIAN. ) SOLID_ANGLE_UNIT ( ) );
#259 = AXIS2_PLACEMENT_3D ( 'NONE', #7, #226, #150 ) ;
#260 = AXIS2_PLACEMENT_3D ( 'NONE', #179, #262, #27 ) ;
#261 = VERTEX_POINT ( 'NONE', #253 ) ;
#262 = DIRECTION ( 'NONE',  ( -5.156407575357275299E-17, 1.000000000000000000, -0.000000000000000000 ) ) ;
#263 = MECHANICAL_DESIGN_GEOMETRIC_PRESENTATION_REPRESENTATION (  '', ( #224 ), #36 ) ;
#264 = ADVANCED_FACE ( 'NONE', ( #19 ), #28, .F. ) ;
#265 = DIRECTION ( 'NONE',  ( -0.000000000000000000, -1.000000000000000000, -0.000000000000000000 ) ) ;
#266 = DIRECTION ( 'NONE',  ( -1.000000000000000000, 0.000000000000000000, 0.000000000000000000 ) ) ;
#267 = CARTESIAN_POINT ( 'NONE',  ( 0.000000000000000000, 1.625000000000000000, 0.000000000000000000 ) ) ;
#268 = LENGTH_MEASURE_WITH_UNIT ( LENGTH_MEASURE( 0.02539999999999999897 ), #215 );
#269 = VERTEX_POINT ( 'NONE', #199 ) ;
#270 = DIMENSIONAL_EXPONENTS ( 1.000000000000000000, 0.000000000000000000, 0.000000000000000000, 0.000000000000000000, 0.000000000000000000, 0.000000000000000000, 0.000000000000000000 ) ;
#271 =( NAMED_UNIT ( * ) PLANE_ANGLE_UNIT ( ) SI_UNIT ( $, .RADIAN. ) );
#272 = EDGE_LOOP ( 'NONE', ( #201, #14, #153, #41 ) ) ;
#273 = ADVANCED_FACE ( 'NONE', ( #255 ), #155, .T. ) ;
#274 =( LENGTH_UNIT ( ) NAMED_UNIT ( * ) SI_UNIT ( $, .METRE. ) );
#275 = DIRECTION ( 'NONE',  ( -1.000000000000000000, 0.000000000000000000, 0.000000000000000000 ) ) ;
#276 = ORIENTED_EDGE ( 'NONE', *, *, #118, .T. ) ;
#277 =( CONVERSION_BASED_UNIT ( 'INCH', #131 ) LENGTH_UNIT ( ) NAMED_UNIT ( #197 ) );
#278 = EDGE_LOOP ( 'NONE', ( #52, #85 ) ) ;
#279 = PLANE ( 'NONE',  #233 ) ;
#280 = PRODUCT_CONTEXT ( 'NONE', #48, 'mechanical' ) ;
#281 = DIRECTION ( 'NONE',  ( -0.000000000000000000, -1.000000000000000000, -0.000000000000000000 ) ) ;
#282 = EDGE_CURVE ( 'NONE', #171, #231, #198, .T. ) ;
#283 = STYLED_ITEM ( 'NONE', ( #247 ), #154 ) ;
#284 = DIRECTION ( 'NONE',  ( 0.000000000000000000, -0.000000000000000000, 1.000000000000000000 ) ) ;
#285 = SURFACE_STYLE_FILL_AREA ( #111 ) ;
#286 =( GEOMETRIC_REPRESENTATION_CONTEXT ( 3 ) GLOBAL_UNCERTAINTY_ASSIGNED_CONTEXT ( ( #6 ) ) GLOBAL_UNIT_ASSIGNED_CONTEXT ( ( #55, #220, #249 ) ) REPRESENTATION_CONTEXT ( 'NONE', 'WORKASPACE' ) );
#287 = CIRCLE ( 'NONE', #115, 0.2500000000000000000 ) ;
#288 = AXIS2_PLACEMENT_3D ( 'NONE', #93, #214, #284 ) ;
#289 = CARTESIAN_POINT ( 'NONE',  ( 0.2499999999999999167, 4.000000000000000000, 3.061616997868383634E-17 ) ) ;
#290 = DIRECTION ( 'NONE',  ( -0.000000000000000000, -1.000000000000000000, -0.000000000000000000 ) ) ;
#291 = ORIENTED_EDGE ( 'NONE', *, *, #25, .F. ) ;
#292 = CYLINDRICAL_SURFACE ( 'NONE', #136, 0.2500000000000000000 ) ;
#293 = CARTESIAN_POINT ( 'NONE',  ( 3.061616997868383018E-17, 0.000000000000000000, 0.2500000000000000000 ) ) ;
#294 = PRESENTATION_LAYER_ASSIGNMENT (  '', '', ( #216 ) ) ;
#295 = COLOUR_RGB ( '',0.7921568627450980005, 0.8196078431372548767, 0.9333333333333333481 ) ;
#296 = PRESENTATION_STYLE_ASSIGNMENT (( #191 ) ) ;
#297 = FACE_OUTER_BOUND ( 'NONE', #234, .T. ) ;
#298 = DIMENSIONAL_EXPONENTS ( 1.000000000000000000, 0.000000000000000000, 0.000000000000000000, 0.000000000000000000, 0.000000000000000000, 0.000000000000000000, 0.000000000000000000 ) ;
#299 = CLOSED_SHELL ( 'NONE', ( #154, #190, #96, #12 ) ) ;
#300 = AXIS2_PLACEMENT_3D ( 'NONE', #245, #229, #11 ) ;
#301 = CIRCLE ( 'NONE', #170, 0.2500000000000000000 ) ;
#302 = EDGE_LOOP ( 'NONE', ( #165, #112, #180, #158 ) ) ;
#303 = CARTESIAN_POINT ( 'NONE',  ( 0.000000000000000000, 0.000000000000000000, 0.000000000000000000 ) ) ;
#304 = DIRECTION ( 'NONE',  ( 5.156407575357275916E-17, -1.000000000000000000, 0.000000000000000000 ) ) ;
#305 =( CONVERSION_BASED_UNIT ( 'INCH', #110 ) LENGTH_UNIT ( ) NAMED_UNIT ( #194 ) );
#306 = CARTESIAN_POINT ( 'NONE',  ( -0.2500000000000000000, 1.625000000000000000, 0.000000000000000000 ) ) ;
#307 = DIRECTION ( 'NONE',  ( -5.156407575357275299E-17, 1.000000000000000000, -0.000000000000000000 ) ) ;
#308 = COLOUR_RGB ( '',1.000000000000000000, 0.000000000000000000, 0.000000000000000000 ) ;
#309 = STYLED_ITEM ( 'NONE', ( #23 ), #190 ) ;
ENDSEC;
END-ISO-10303-21;
