ISO-10303-21;
HEADER;
FILE_DESCRIPTION (( 'STEP AP214' ),
    '1' );
FILE_NAME ('59632.STEP',
    '2023-07-24T15:51:03',
    ( '' ),
    ( '' ),
    'SwSTEP 2.0',
    'SolidWorks 2023',
    '' );
FILE_SCHEMA (( 'AUTOMOTIVE_DESIGN' ));
ENDSEC;

DATA;
#1 = PRESENTATION_STYLE_ASSIGNMENT (( #65 ) ) ;
#2 = CARTESIAN_POINT ( 'NONE',  ( 3.000000000000000444, 63.00000000000000000, 3.673940397442058882E-16 ) ) ;
#3 = CARTESIAN_POINT ( 'NONE',  ( 0.000000000000000000, 9.000000000000001776, 0.000000000000000000 ) ) ;
#4 = AXIS2_PLACEMENT_3D ( 'NONE', #18, #90, #146 ) ;
#5 = EDGE_LOOP ( 'NONE', ( #272, #60 ) ) ;
#6 = ORIENTED_EDGE ( 'NONE', *, *, #73, .T. ) ;
#7 = AXIS2_PLACEMENT_3D ( 'NONE', #268, #175, #61 ) ;
#8 = EDGE_CURVE ( 'NONE', #167, #147, #21, .T. ) ;
#9 = VERTEX_POINT ( 'NONE', #110 ) ;
#10 = SURFACE_STYLE_USAGE ( .BOTH. , #78 ) ;
#11 = CARTESIAN_POINT ( 'NONE',  ( 3.673940397442059868E-16, 0.000000000000000000, 3.000000000000000000 ) ) ;
#12 = CARTESIAN_POINT ( 'NONE',  ( 0.000000000000000000, 0.000000000000000000, 0.000000000000000000 ) ) ;
#13 = STYLED_ITEM ( 'NONE', ( #48 ), #199 ) ;
#14 =( NAMED_UNIT ( * ) SI_UNIT ( $, .STERADIAN. ) SOLID_ANGLE_UNIT ( ) );
#15 = DIRECTION ( 'NONE',  ( -0.000000000000000000, -1.000000000000000000, -0.000000000000000000 ) ) ;
#16 = ORIENTED_EDGE ( 'NONE', *, *, #122, .F. ) ;
#17 = SURFACE_STYLE_USAGE ( .BOTH. , #260 ) ;
#18 = CARTESIAN_POINT ( 'NONE',  ( 0.000000000000000000, 0.000000000000000000, 0.000000000000000000 ) ) ;
#19 = CARTESIAN_POINT ( 'NONE',  ( 0.000000000000000000, 0.000000000000000000, 0.000000000000000000 ) ) ;
#20 = ORIENTED_EDGE ( 'NONE', *, *, #8, .F. ) ;
#21 = CIRCLE ( 'NONE', #171, 3.000000000000000000 ) ;
#22 = EDGE_LOOP ( 'NONE', ( #246, #284, #149, #16 ) ) ;
#23 = EDGE_CURVE ( 'NONE', #147, #167, #87, .T. ) ;
#24 =( NAMED_UNIT ( * ) PLANE_ANGLE_UNIT ( ) SI_UNIT ( $, .RADIAN. ) );
#25 = DIRECTION ( 'NONE',  ( -1.000000000000000000, 0.000000000000000000, 0.000000000000000000 ) ) ;
#26 = DIRECTION ( 'NONE',  ( 2.721437331438562546E-17, 1.000000000000000000, -0.000000000000000000 ) ) ;
#27 = ORIENTED_EDGE ( 'NONE', *, *, #162, .F. ) ;
#28 = DIRECTION ( 'NONE',  ( -1.000000000000000000, 0.000000000000000000, 0.000000000000000000 ) ) ;
#29 = LINE ( 'NONE', #72, #113 ) ;
#30 = MANIFOLD_SOLID_BREP ( 'Revolve - Tool Body (Straight Shanked)', #124 ) ;
#31 = DIRECTION ( 'NONE',  ( 2.721437331438562546E-17, 1.000000000000000000, -0.000000000000000000 ) ) ;
#32 = PRODUCT ( '59632', '59632', '', ( #247 ) ) ;
#33 = PRESENTATION_LAYER_ASSIGNMENT (  '', '', ( #68 ) ) ;
#34 = FACE_OUTER_BOUND ( 'NONE', #257, .T. ) ;
#35 = DIRECTION ( 'NONE',  ( -0.000000000000000000, -1.000000000000000000, -0.000000000000000000 ) ) ;
#36 = ORIENTED_EDGE ( 'NONE', *, *, #23, .T. ) ;
#37 =( NAMED_UNIT ( * ) PLANE_ANGLE_UNIT ( ) SI_UNIT ( $, .RADIAN. ) );
#38 = PRODUCT_DEFINITION_CONTEXT ( 'detailed design', #39, 'design' ) ;
#39 = APPLICATION_CONTEXT ( 'automotive_design' ) ;
#40 =( NAMED_UNIT ( * ) SI_UNIT ( $, .STERADIAN. ) SOLID_ANGLE_UNIT ( ) );
#41 = DIRECTION ( 'NONE',  ( -1.000000000000000000, 0.000000000000000000, 0.000000000000000000 ) ) ;
#42 = ADVANCED_FACE ( 'NONE', ( #108 ), #267, .T. ) ;
#43 =( GEOMETRIC_REPRESENTATION_CONTEXT ( 3 ) GLOBAL_UNCERTAINTY_ASSIGNED_CONTEXT ( ( #145 ) ) GLOBAL_UNIT_ASSIGNED_CONTEXT ( ( #112, #37, #193 ) ) REPRESENTATION_CONTEXT ( 'NONE', 'WORKASPACE' ) );
#44 = APPLICATION_PROTOCOL_DEFINITION ( 'draft international standard', 'automotive_design', 1998, #39 ) ;
#45 = ADVANCED_FACE ( 'NONE', ( #202 ), #206, .F. ) ;
#46 = AXIS2_PLACEMENT_3D ( 'NONE', #227, #26, #183 ) ;
#47 = AXIS2_PLACEMENT_3D ( 'NONE', #82, #233, #55 ) ;
#48 = PRESENTATION_STYLE_ASSIGNMENT (( #10 ) ) ;
#49 = PRODUCT_DEFINITION ( 'UNKNOWN', '', #121, #38 ) ;
#50 = EDGE_LOOP ( 'NONE', ( #36, #59, #200, #134 ) ) ;
#51 = PRESENTATION_LAYER_ASSIGNMENT (  '', '', ( #219 ) ) ;
#52 = DIRECTION ( 'NONE',  ( 2.721437331438562546E-17, 1.000000000000000000, -0.000000000000000000 ) ) ;
#53 = CYLINDRICAL_SURFACE ( 'NONE', #234, 3.000000000000000000 ) ;
#54 = VERTEX_POINT ( 'NONE', #277 ) ;
#55 = DIRECTION ( 'NONE',  ( 0.000000000000000000, 0.000000000000000000, -1.000000000000000000 ) ) ;
#56 = CIRCLE ( 'NONE', #249, 2.999999999999998668 ) ;
#57 = UNCERTAINTY_MEASURE_WITH_UNIT (LENGTH_MEASURE( 1.000000000000000082E-05 ), #259, 'distance_accuracy_value', 'NONE');
#58 = DIRECTION ( 'NONE',  ( 2.721437331438562546E-17, 1.000000000000000000, -0.000000000000000000 ) ) ;
#59 = ORIENTED_EDGE ( 'NONE', *, *, #212, .T. ) ;
#60 = ORIENTED_EDGE ( 'NONE', *, *, #282, .F. ) ;
#61 = DIRECTION ( 'NONE',  ( 1.000000000000000000, -2.721437331438562546E-17, 0.000000000000000000 ) ) ;
#62 =( NAMED_UNIT ( * ) PLANE_ANGLE_UNIT ( ) SI_UNIT ( $, .RADIAN. ) );
#63 = PRESENTATION_STYLE_ASSIGNMENT (( #17 ) ) ;
#64 = COLOUR_RGB ( '',1.000000000000000000, 0.000000000000000000, 0.000000000000000000 ) ;
#65 = SURFACE_STYLE_USAGE ( .BOTH. , #211 ) ;
#66 = ORIENTED_EDGE ( 'NONE', *, *, #282, .T. ) ;
#67 = DIRECTION ( 'NONE',  ( 0.000000000000000000, 0.000000000000000000, -1.000000000000000000 ) ) ;
#68 = STYLED_ITEM ( 'NONE', ( #264 ), #95 ) ;
#69 = CARTESIAN_POINT ( 'NONE',  ( 3.000000000000000444, 9.000000000000001776, 3.673940397442059868E-16 ) ) ;
#70 = AXIS2_PLACEMENT_3D ( 'NONE', #130, #216, #189 ) ;
#71 = AXIS2_PLACEMENT_3D ( 'NONE', #105, #164, #255 ) ;
#72 = CARTESIAN_POINT ( 'NONE',  ( 0.000000000000000000, 0.000000000000000000, -3.000000000000000000 ) ) ;
#73 = EDGE_CURVE ( 'NONE', #228, #9, #177, .T. ) ;
#74 = ORIENTED_EDGE ( 'NONE', *, *, #23, .F. ) ;
#75 = CARTESIAN_POINT ( 'NONE',  ( 3.673940397442059868E-16, 9.000000000000000000, 3.000000000000000000 ) ) ;
#76 = ORIENTED_EDGE ( 'NONE', *, *, #162, .T. ) ;
#77 = CLOSED_SHELL ( 'NONE', ( #245, #199, #95, #42 ) ) ;
#78 = SURFACE_SIDE_STYLE ('',( #160 ) ) ;
#79 = EDGE_CURVE ( 'NONE', #191, #120, #96, .T. ) ;
#80 = COLOUR_RGB ( '',1.000000000000000000, 0.000000000000000000, 0.000000000000000000 ) ;
#81 = DIRECTION ( 'NONE',  ( 0.000000000000000000, 0.000000000000000000, -1.000000000000000000 ) ) ;
#82 = CARTESIAN_POINT ( 'NONE',  ( 0.000000000000000000, 9.000000000000000000, 0.000000000000000000 ) ) ;
#83 = EDGE_CURVE ( 'NONE', #54, #174, #198, .T. ) ;
#84 = SURFACE_STYLE_USAGE ( .BOTH. , #213 ) ;
#85 = SURFACE_STYLE_FILL_AREA ( #131 ) ;
#86 = FILL_AREA_STYLE ('',( #188 ) ) ;
#87 = CIRCLE ( 'NONE', #186, 3.000000000000000000 ) ;
#88 = MECHANICAL_DESIGN_GEOMETRIC_PRESENTATION_REPRESENTATION (  '', ( #219 ), #43 ) ;
#89 = UNCERTAINTY_MEASURE_WITH_UNIT (LENGTH_MEASURE( 1.000000000000000082E-05 ), #176, 'distance_accuracy_value', 'NONE');
#90 = DIRECTION ( 'NONE',  ( -0.000000000000000000, -1.000000000000000000, -0.000000000000000000 ) ) ;
#91 = PRESENTATION_STYLE_ASSIGNMENT (( #239 ) ) ;
#92 = PLANE ( 'NONE',  #7 ) ;
#93 = APPLICATION_CONTEXT ( 'automotive_design' ) ;
#94 =( LENGTH_UNIT ( ) NAMED_UNIT ( * ) SI_UNIT ( .MILLI., .METRE. ) );
#95 = ADVANCED_FACE ( 'NONE', ( #34 ), #151, .T. ) ;
#96 = CIRCLE ( 'NONE', #4, 3.000000000000000000 ) ;
#97 = PRESENTATION_LAYER_ASSIGNMENT (  '', '', ( #13 ) ) ;
#98 = CARTESIAN_POINT ( 'NONE',  ( 0.000000000000000000, 0.000000000000000000, 0.000000000000000000 ) ) ;
#99 =( GEOMETRIC_REPRESENTATION_CONTEXT ( 3 ) GLOBAL_UNCERTAINTY_ASSIGNED_CONTEXT ( ( #271 ) ) GLOBAL_UNIT_ASSIGNED_CONTEXT ( ( #275, #24, #254 ) ) REPRESENTATION_CONTEXT ( 'NONE', 'WORKASPACE' ) );
#100 = CIRCLE ( 'NONE', #118, 3.000000000000000000 ) ;
#101 = ADVANCED_BREP_SHAPE_REPRESENTATION ( '59632', ( #223, #30, #243 ), #274 ) ;
#102 = ADVANCED_FACE ( 'NONE', ( #156 ), #139, .T. ) ;
#103 = AXIS2_PLACEMENT_3D ( 'NONE', #117, #196, #232 ) ;
#104 = ORIENTED_EDGE ( 'NONE', *, *, #212, .F. ) ;
#105 = CARTESIAN_POINT ( 'NONE',  ( 0.000000000000000000, 9.000000000000000000, 0.000000000000000000 ) ) ;
#106 = DIRECTION ( 'NONE',  ( -0.000000000000000000, -1.000000000000000000, -0.000000000000000000 ) ) ;
#107 = DIRECTION ( 'NONE',  ( -1.000000000000000000, 0.000000000000000000, 0.000000000000000000 ) ) ;
#108 = FACE_OUTER_BOUND ( 'NONE', #154, .T. ) ;
#109 = FILL_AREA_STYLE_COLOUR ( '', #161 ) ;
#110 = CARTESIAN_POINT ( 'NONE',  ( 3.000000000000000444, 63.00000000000000000, 3.673940397442059868E-16 ) ) ;
#111 = EDGE_LOOP ( 'NONE', ( #6, #76 ) ) ;
#112 =( LENGTH_UNIT ( ) NAMED_UNIT ( * ) SI_UNIT ( .MILLI., .METRE. ) );
#113 = VECTOR ( 'NONE', #163, 1000.000000000000000 ) ;
#114 = SURFACE_STYLE_FILL_AREA ( #283 ) ;
#115 = CARTESIAN_POINT ( 'NONE',  ( 0.000000000000000000, 9.000000000000001776, 0.000000000000000000 ) ) ;
#116 = FILL_AREA_STYLE_COLOUR ( '', #80 ) ;
#117 = CARTESIAN_POINT ( 'NONE',  ( 0.000000000000000000, 0.000000000000000000, 0.000000000000000000 ) ) ;
#118 = AXIS2_PLACEMENT_3D ( 'NONE', #12, #106, #81 ) ;
#119 = ORIENTED_EDGE ( 'NONE', *, *, #201, .T. ) ;
#120 = VERTEX_POINT ( 'NONE', #142 ) ;
#121 = PRODUCT_DEFINITION_FORMATION_WITH_SPECIFIED_SOURCE ( 'ANY', '', #32, .NOT_KNOWN. ) ;
#122 = EDGE_CURVE ( 'NONE', #54, #120, #29, .T. ) ;
#123 = DIRECTION ( 'NONE',  ( -1.000000000000000000, 0.000000000000000000, 0.000000000000000000 ) ) ;
#124 = CLOSED_SHELL ( 'NONE', ( #155, #45, #102, #217 ) ) ;
#125 = LINE ( 'NONE', #2, #256 ) ;
#126 = SURFACE_STYLE_FILL_AREA ( #172 ) ;
#127 =( NAMED_UNIT ( * ) PLANE_ANGLE_UNIT ( ) SI_UNIT ( $, .RADIAN. ) );
#128 =( NAMED_UNIT ( * ) PLANE_ANGLE_UNIT ( ) SI_UNIT ( $, .RADIAN. ) );
#129 = MECHANICAL_DESIGN_GEOMETRIC_PRESENTATION_REPRESENTATION (  '', ( #68 ), #173 ) ;
#130 = CARTESIAN_POINT ( 'NONE',  ( 0.000000000000000000, 9.000000000000000000, 0.000000000000000000 ) ) ;
#131 = FILL_AREA_STYLE ('',( #194 ) ) ;
#132 =( NAMED_UNIT ( * ) SI_UNIT ( $, .STERADIAN. ) SOLID_ANGLE_UNIT ( ) );
#133 = DIRECTION ( 'NONE',  ( 0.000000000000000000, 0.000000000000000000, 1.000000000000000000 ) ) ;
#134 = ORIENTED_EDGE ( 'NONE', *, *, #201, .F. ) ;
#135 = VECTOR ( 'NONE', #31, 1000.000000000000000 ) ;
#136 = AXIS2_PLACEMENT_3D ( 'NONE', #262, #218, #67 ) ;
#137 = PRESENTATION_LAYER_ASSIGNMENT (  '', '', ( #229 ) ) ;
#138 = CYLINDRICAL_SURFACE ( 'NONE', #187, 2.999999999999999112 ) ;
#139 = CYLINDRICAL_SURFACE ( 'NONE', #261, 2.999999999999999112 ) ;
#140 =( GEOMETRIC_REPRESENTATION_CONTEXT ( 3 ) GLOBAL_UNCERTAINTY_ASSIGNED_CONTEXT ( ( #166 ) ) GLOBAL_UNIT_ASSIGNED_CONTEXT ( ( #94, #128, #214 ) ) REPRESENTATION_CONTEXT ( 'NONE', 'WORKASPACE' ) );
#141 = CARTESIAN_POINT ( 'NONE',  ( 1.469576158976823750E-15, 63.00000000000000000, 0.000000000000000000 ) ) ;
#142 = CARTESIAN_POINT ( 'NONE',  ( 0.000000000000000000, 0.000000000000000000, -3.000000000000000000 ) ) ;
#143 = ORIENTED_EDGE ( 'NONE', *, *, #122, .T. ) ;
#144 = FACE_OUTER_BOUND ( 'NONE', #111, .T. ) ;
#145 = UNCERTAINTY_MEASURE_WITH_UNIT (LENGTH_MEASURE( 1.000000000000000082E-05 ), #112, 'distance_accuracy_value', 'NONE');
#146 = DIRECTION ( 'NONE',  ( 0.000000000000000000, 0.000000000000000000, -1.000000000000000000 ) ) ;
#147 = VERTEX_POINT ( 'NONE', #179 ) ;
#148 = MECHANICAL_DESIGN_GEOMETRIC_PRESENTATION_REPRESENTATION (  '', ( #157 ), #140 ) ;
#149 = ORIENTED_EDGE ( 'NONE', *, *, #250, .F. ) ;
#150 = SURFACE_SIDE_STYLE ('',( #126 ) ) ;
#151 = CYLINDRICAL_SURFACE ( 'NONE', #103, 3.000000000000000000 ) ;
#152 = ORIENTED_EDGE ( 'NONE', *, *, #250, .T. ) ;
#153 =( NAMED_UNIT ( * ) SI_UNIT ( $, .STERADIAN. ) SOLID_ANGLE_UNIT ( ) );
#154 = EDGE_LOOP ( 'NONE', ( #152, #225 ) ) ;
#155 = ADVANCED_FACE ( 'NONE', ( #207 ), #138, .T. ) ;
#156 = FACE_OUTER_BOUND ( 'NONE', #278, .T. ) ;
#157 = STYLED_ITEM ( 'NONE', ( #91 ), #30 ) ;
#158 = MECHANICAL_DESIGN_GEOMETRIC_PRESENTATION_REPRESENTATION (  '', ( #229 ), #273 ) ;
#159 = ORIENTED_EDGE ( 'NONE', *, *, #79, .F. ) ;
#160 = SURFACE_STYLE_FILL_AREA ( #181 ) ;
#161 = COLOUR_RGB ( '',1.000000000000000000, 0.000000000000000000, 0.000000000000000000 ) ;
#162 = EDGE_CURVE ( 'NONE', #9, #228, #56, .T. ) ;
#163 = DIRECTION ( 'NONE',  ( -0.000000000000000000, -1.000000000000000000, -0.000000000000000000 ) ) ;
#164 = DIRECTION ( 'NONE',  ( 0.000000000000000000, 1.000000000000000000, 0.000000000000000000 ) ) ;
#165 = COLOUR_RGB ( '',0.7921568627450980005, 0.8196078431372548767, 0.9333333333333333481 ) ;
#166 = UNCERTAINTY_MEASURE_WITH_UNIT (LENGTH_MEASURE( 1.000000000000000082E-05 ), #94, 'distance_accuracy_value', 'NONE');
#167 = VERTEX_POINT ( 'NONE', #69 ) ;
#168 =( LENGTH_UNIT ( ) NAMED_UNIT ( * ) SI_UNIT ( .MILLI., .METRE. ) );
#169 = DIRECTION ( 'NONE',  ( 2.721437331438562546E-17, 1.000000000000000000, -0.000000000000000000 ) ) ;
#170 = LINE ( 'NONE', #236, #270 ) ;
#171 = AXIS2_PLACEMENT_3D ( 'NONE', #115, #169, #287 ) ;
#172 = FILL_AREA_STYLE ('',( #116 ) ) ;
#173 =( GEOMETRIC_REPRESENTATION_CONTEXT ( 3 ) GLOBAL_UNCERTAINTY_ASSIGNED_CONTEXT ( ( #263 ) ) GLOBAL_UNIT_ASSIGNED_CONTEXT ( ( #238, #62, #153 ) ) REPRESENTATION_CONTEXT ( 'NONE', 'WORKASPACE' ) );
#174 = VERTEX_POINT ( 'NONE', #75 ) ;
#175 = DIRECTION ( 'NONE',  ( -2.721437331438562546E-17, -1.000000000000000000, 0.000000000000000000 ) ) ;
#176 =( LENGTH_UNIT ( ) NAMED_UNIT ( * ) SI_UNIT ( .MILLI., .METRE. ) );
#177 = CIRCLE ( 'NONE', #209, 2.999999999999998668 ) ;
#178 = CARTESIAN_POINT ( 'NONE',  ( 1.469576158976823750E-15, 63.00000000000000000, 0.000000000000000000 ) ) ;
#179 = CARTESIAN_POINT ( 'NONE',  ( -3.000000000000000000, 9.000000000000001776, 0.000000000000000000 ) ) ;
#180 = COLOUR_RGB ( '',0.7921568627450980005, 0.8196078431372548767, 0.9333333333333333481 ) ;
#181 = FILL_AREA_STYLE ('',( #184 ) ) ;
#182 = ORIENTED_EDGE ( 'NONE', *, *, #8, .T. ) ;
#183 = DIRECTION ( 'NONE',  ( -1.000000000000000000, 2.721437331438562546E-17, 0.000000000000000000 ) ) ;
#184 = FILL_AREA_STYLE_COLOUR ( '', #64 ) ;
#185 = PRODUCT_DEFINITION_SHAPE ( 'NONE', 'NONE',  #49 ) ;
#186 = AXIS2_PLACEMENT_3D ( 'NONE', #3, #265, #41 ) ;
#187 = AXIS2_PLACEMENT_3D ( 'NONE', #251, #226, #28 ) ;
#188 = FILL_AREA_STYLE_COLOUR ( '', #180 ) ;
#189 = DIRECTION ( 'NONE',  ( 0.000000000000000000, 0.000000000000000000, -1.000000000000000000 ) ) ;
#190 =( NAMED_UNIT ( * ) PLANE_ANGLE_UNIT ( ) SI_UNIT ( $, .RADIAN. ) );
#191 = VERTEX_POINT ( 'NONE', #11 ) ;
#192 = COLOUR_RGB ( '',1.000000000000000000, 0.000000000000000000, 0.000000000000000000 ) ;
#193 =( NAMED_UNIT ( * ) SI_UNIT ( $, .STERADIAN. ) SOLID_ANGLE_UNIT ( ) );
#194 = FILL_AREA_STYLE_COLOUR ( '', #192 ) ;
#195 = PRESENTATION_STYLE_ASSIGNMENT (( #288 ) ) ;
#196 = DIRECTION ( 'NONE',  ( -0.000000000000000000, -1.000000000000000000, -0.000000000000000000 ) ) ;
#197 = SURFACE_STYLE_FILL_AREA ( #242 ) ;
#198 = CIRCLE ( 'NONE', #70, 3.000000000000000000 ) ;
#199 = ADVANCED_FACE ( 'NONE', ( #203 ), #276, .T. ) ;
#200 = ORIENTED_EDGE ( 'NONE', *, *, #73, .F. ) ;
#201 = EDGE_CURVE ( 'NONE', #147, #228, #231, .T. ) ;
#202 = FACE_OUTER_BOUND ( 'NONE', #210, .T. ) ;
#203 = FACE_OUTER_BOUND ( 'NONE', #5, .T. ) ;
#204 = PRODUCT_RELATED_PRODUCT_CATEGORY ( 'part', '', ( #32 ) ) ;
#205 = STYLED_ITEM ( 'NONE', ( #1 ), #42 ) ;
#206 = PLANE ( 'NONE',  #46 ) ;
#207 = FACE_OUTER_BOUND ( 'NONE', #50, .T. ) ;
#208 = CARTESIAN_POINT ( 'NONE',  ( 1.469576158976823750E-15, 63.00000000000000000, 0.000000000000000000 ) ) ;
#209 = AXIS2_PLACEMENT_3D ( 'NONE', #208, #58, #107 ) ;
#210 = EDGE_LOOP ( 'NONE', ( #74, #20 ) ) ;
#211 = SURFACE_SIDE_STYLE ('',( #85 ) ) ;
#212 = EDGE_CURVE ( 'NONE', #167, #9, #125, .T. ) ;
#213 = SURFACE_SIDE_STYLE ('',( #114 ) ) ;
#214 =( NAMED_UNIT ( * ) SI_UNIT ( $, .STERADIAN. ) SOLID_ANGLE_UNIT ( ) );
#215 = FILL_AREA_STYLE_COLOUR ( '', #165 ) ;
#216 = DIRECTION ( 'NONE',  ( -0.000000000000000000, -1.000000000000000000, -0.000000000000000000 ) ) ;
#217 = ADVANCED_FACE ( 'NONE', ( #144 ), #92, .F. ) ;
#218 = DIRECTION ( 'NONE',  ( 0.000000000000000000, -1.000000000000000000, -0.000000000000000000 ) ) ;
#219 = STYLED_ITEM ( 'NONE', ( #63 ), #223 ) ;
#220 = UNCERTAINTY_MEASURE_WITH_UNIT (LENGTH_MEASURE( 1.000000000000000082E-05 ), #168, 'distance_accuracy_value', 'NONE');
#221 = SHAPE_DEFINITION_REPRESENTATION ( #185, #101 ) ;
#222 = APPLICATION_PROTOCOL_DEFINITION ( 'draft international standard', 'automotive_design', 1998, #93 ) ;
#223 = MANIFOLD_SOLID_BREP ( 'Revolve - Cutting Edge', #77 ) ;
#224 = EDGE_CURVE ( 'NONE', #174, #191, #170, .T. ) ;
#225 = ORIENTED_EDGE ( 'NONE', *, *, #79, .T. ) ;
#226 = DIRECTION ( 'NONE',  ( 2.721437331438562546E-17, 1.000000000000000000, -0.000000000000000000 ) ) ;
#227 = CARTESIAN_POINT ( 'NONE',  ( 1.110933172342116556E-33, 9.000000000000000000, 0.000000000000000000 ) ) ;
#228 = VERTEX_POINT ( 'NONE', #266 ) ;
#229 = STYLED_ITEM ( 'NONE', ( #195 ), #245 ) ;
#230 = CARTESIAN_POINT ( 'NONE',  ( -2.999999999999997780, 63.00000000000000000, 0.000000000000000000 ) ) ;
#231 = LINE ( 'NONE', #230, #135 ) ;
#232 = DIRECTION ( 'NONE',  ( 0.000000000000000000, 0.000000000000000000, -1.000000000000000000 ) ) ;
#233 = DIRECTION ( 'NONE',  ( -0.000000000000000000, -1.000000000000000000, -0.000000000000000000 ) ) ;
#234 = AXIS2_PLACEMENT_3D ( 'NONE', #19, #15, #281 ) ;
#235 = SURFACE_SIDE_STYLE ('',( #197 ) ) ;
#236 = CARTESIAN_POINT ( 'NONE',  ( 3.673940397442059868E-16, 0.000000000000000000, 3.000000000000000000 ) ) ;
#237 = ORIENTED_EDGE ( 'NONE', *, *, #224, .F. ) ;
#238 =( LENGTH_UNIT ( ) NAMED_UNIT ( * ) SI_UNIT ( .MILLI., .METRE. ) );
#239 = SURFACE_STYLE_USAGE ( .BOTH. , #235 ) ;
#240 = DIRECTION ( 'NONE',  ( 2.721437331438562546E-17, 1.000000000000000000, -0.000000000000000000 ) ) ;
#241 = PRESENTATION_LAYER_ASSIGNMENT (  '', '', ( #157 ) ) ;
#242 = FILL_AREA_STYLE ('',( #215 ) ) ;
#243 = AXIS2_PLACEMENT_3D ( 'NONE', #98, #133, #248 ) ;
#244 =( NAMED_UNIT ( * ) PLANE_ANGLE_UNIT ( ) SI_UNIT ( $, .RADIAN. ) );
#245 = ADVANCED_FACE ( 'NONE', ( #258 ), #53, .T. ) ;
#246 = ORIENTED_EDGE ( 'NONE', *, *, #83, .T. ) ;
#247 = PRODUCT_CONTEXT ( 'NONE', #93, 'mechanical' ) ;
#248 = DIRECTION ( 'NONE',  ( 1.000000000000000000, 0.000000000000000000, 0.000000000000000000 ) ) ;
#249 = AXIS2_PLACEMENT_3D ( 'NONE', #178, #52, #25 ) ;
#250 = EDGE_CURVE ( 'NONE', #120, #191, #100, .T. ) ;
#251 = CARTESIAN_POINT ( 'NONE',  ( 1.469576158976823750E-15, 63.00000000000000000, 0.000000000000000000 ) ) ;
#252 = CIRCLE ( 'NONE', #47, 3.000000000000000000 ) ;
#253 = DIRECTION ( 'NONE',  ( 2.721437331438562546E-17, 1.000000000000000000, -0.000000000000000000 ) ) ;
#254 =( NAMED_UNIT ( * ) SI_UNIT ( $, .STERADIAN. ) SOLID_ANGLE_UNIT ( ) );
#255 = DIRECTION ( 'NONE',  ( 0.000000000000000000, -0.000000000000000000, 1.000000000000000000 ) ) ;
#256 = VECTOR ( 'NONE', #240, 1000.000000000000000 ) ;
#257 = EDGE_LOOP ( 'NONE', ( #237, #66, #143, #159 ) ) ;
#258 = FACE_OUTER_BOUND ( 'NONE', #22, .T. ) ;
#259 =( LENGTH_UNIT ( ) NAMED_UNIT ( * ) SI_UNIT ( .MILLI., .METRE. ) );
#260 = SURFACE_SIDE_STYLE ('',( #285 ) ) ;
#261 = AXIS2_PLACEMENT_3D ( 'NONE', #141, #253, #123 ) ;
#262 = CARTESIAN_POINT ( 'NONE',  ( 0.000000000000000000, 0.000000000000000000, 0.000000000000000000 ) ) ;
#263 = UNCERTAINTY_MEASURE_WITH_UNIT (LENGTH_MEASURE( 1.000000000000000082E-05 ), #238, 'distance_accuracy_value', 'NONE');
#264 = PRESENTATION_STYLE_ASSIGNMENT (( #84 ) ) ;
#265 = DIRECTION ( 'NONE',  ( 2.721437331438562546E-17, 1.000000000000000000, -0.000000000000000000 ) ) ;
#266 = CARTESIAN_POINT ( 'NONE',  ( -2.999999999999997335, 63.00000000000000000, 0.000000000000000000 ) ) ;
#267 = PLANE ( 'NONE',  #136 ) ;
#268 = CARTESIAN_POINT ( 'NONE',  ( 3.000000000000000000, 63.00000000000000000, 0.000000000000000000 ) ) ;
#269 =( GEOMETRIC_REPRESENTATION_CONTEXT ( 3 ) GLOBAL_UNCERTAINTY_ASSIGNED_CONTEXT ( ( #57 ) ) GLOBAL_UNIT_ASSIGNED_CONTEXT ( ( #259, #127, #14 ) ) REPRESENTATION_CONTEXT ( 'NONE', 'WORKASPACE' ) );
#270 = VECTOR ( 'NONE', #35, 1000.000000000000000 ) ;
#271 = UNCERTAINTY_MEASURE_WITH_UNIT (LENGTH_MEASURE( 1.000000000000000082E-05 ), #275, 'distance_accuracy_value', 'NONE');
#272 = ORIENTED_EDGE ( 'NONE', *, *, #83, .F. ) ;
#273 =( GEOMETRIC_REPRESENTATION_CONTEXT ( 3 ) GLOBAL_UNCERTAINTY_ASSIGNED_CONTEXT ( ( #89 ) ) GLOBAL_UNIT_ASSIGNED_CONTEXT ( ( #176, #244, #40 ) ) REPRESENTATION_CONTEXT ( 'NONE', 'WORKASPACE' ) );
#274 =( GEOMETRIC_REPRESENTATION_CONTEXT ( 3 ) GLOBAL_UNCERTAINTY_ASSIGNED_CONTEXT ( ( #220 ) ) GLOBAL_UNIT_ASSIGNED_CONTEXT ( ( #168, #190, #132 ) ) REPRESENTATION_CONTEXT ( 'NONE', 'WORKASPACE' ) );
#275 =( LENGTH_UNIT ( ) NAMED_UNIT ( * ) SI_UNIT ( .MILLI., .METRE. ) );
#276 = PLANE ( 'NONE',  #71 ) ;
#277 = CARTESIAN_POINT ( 'NONE',  ( 0.000000000000000000, 9.000000000000000000, -3.000000000000000000 ) ) ;
#278 = EDGE_LOOP ( 'NONE', ( #104, #182, #119, #27 ) ) ;
#279 = PRESENTATION_LAYER_ASSIGNMENT (  '', '', ( #205 ) ) ;
#280 = MECHANICAL_DESIGN_GEOMETRIC_PRESENTATION_REPRESENTATION (  '', ( #13 ), #99 ) ;
#281 = DIRECTION ( 'NONE',  ( 0.000000000000000000, 0.000000000000000000, -1.000000000000000000 ) ) ;
#282 = EDGE_CURVE ( 'NONE', #174, #54, #252, .T. ) ;
#283 = FILL_AREA_STYLE ('',( #109 ) ) ;
#284 = ORIENTED_EDGE ( 'NONE', *, *, #224, .T. ) ;
#285 = SURFACE_STYLE_FILL_AREA ( #86 ) ;
#286 = MECHANICAL_DESIGN_GEOMETRIC_PRESENTATION_REPRESENTATION (  '', ( #205 ), #269 ) ;
#287 = DIRECTION ( 'NONE',  ( -1.000000000000000000, 0.000000000000000000, 0.000000000000000000 ) ) ;
#288 = SURFACE_STYLE_USAGE ( .BOTH. , #150 ) ;
ENDSEC;
END-ISO-10303-21;
