ISO-10303-21;
HEADER;
FILE_DESCRIPTION (( 'STEP AP214' ),
    '1' );
FILE_NAME ('Micro_RSC-312-1.STEP',
    '2021-09-03T17:50:17',
    ( '' ),
    ( '' ),
    'SwSTEP 2.0',
    'SolidWorks 2020',
    '' );
FILE_SCHEMA (( 'AUTOMOTIVE_DESIGN' ));
ENDSEC;

DATA;
#1 = CARTESIAN_POINT ( 'NONE',  ( 0.1562500000000000000, 1.913510623667739463E-17, 2.500000000000000000 ) ) ;
#2 = STYLED_ITEM ( 'NONE', ( #58 ), #243 ) ;
#3 = AXIS2_PLACEMENT_3D ( 'NONE', #195, #65, #145 ) ;
#4 = DIRECTION ( 'NONE',  ( -1.000000000000000000, 0.0000000000000000000, 0.0000000000000000000 ) ) ;
#5 = DIRECTION ( 'NONE',  ( -1.000000000000000000, 0.0000000000000000000, 0.0000000000000000000 ) ) ;
#6 = DIRECTION ( 'NONE',  ( 1.000000000000000000, 0.0000000000000000000, 0.0000000000000000000 ) ) ;
#7 = ADVANCED_FACE ( 'NONE', ( #167 ), #96, .T. ) ;
#8 = CARTESIAN_POINT ( 'NONE',  ( 0.0000000000000000000, 0.0000000000000000000, 0.0000000000000000000 ) ) ;
#9 = LENGTH_MEASURE_WITH_UNIT ( LENGTH_MEASURE( 0.02539999999999999897 ), #31 );
#10 = EDGE_CURVE ( 'NONE', #172, #100, #141, .T. ) ;
#11 =( NAMED_UNIT ( * ) PLANE_ANGLE_UNIT ( ) SI_UNIT ( $, .RADIAN. ) );
#12 = DIRECTION ( 'NONE',  ( -1.000000000000000000, 0.0000000000000000000, 0.0000000000000000000 ) ) ;
#13 =( NAMED_UNIT ( * ) SI_UNIT ( $, .STERADIAN. ) SOLID_ANGLE_UNIT ( ) );
#14 = CARTESIAN_POINT ( 'NONE',  ( 0.0000000000000000000, 0.0000000000000000000, 2.500000000000000000 ) ) ;
#15 = DIRECTION ( 'NONE',  ( -1.000000000000000000, 0.0000000000000000000, 0.0000000000000000000 ) ) ;
#16 = VECTOR ( 'NONE', #136, 39.37007874015748854 ) ;
#17 = CIRCLE ( 'NONE', #246, 0.003999999999999999216 ) ;
#18 = PRODUCT_RELATED_PRODUCT_CATEGORY ( 'part', '', ( #137 ) ) ;
#19 = ORIENTED_EDGE ( 'NONE', *, *, #193, .T. ) ;
#20 =( NAMED_UNIT ( * ) PLANE_ANGLE_UNIT ( ) SI_UNIT ( $, .RADIAN. ) );
#21 = DIRECTION ( 'NONE',  ( 1.000000000000000000, 0.0000000000000000000, 0.0000000000000000000 ) ) ;
#22 = CIRCLE ( 'NONE', #49, 0.1562500000000000000 ) ;
#23 = ORIENTED_EDGE ( 'NONE', *, *, #10, .F. ) ;
#24 = ORIENTED_EDGE ( 'NONE', *, *, #157, .T. ) ;
#25 = FACE_OUTER_BOUND ( 'NONE', #180, .T. ) ;
#26 = UNCERTAINTY_MEASURE_WITH_UNIT (LENGTH_MEASURE( 1.000000000000000082E-05 ), #97, 'distance_accuracy_value', 'NONE');
#27 = CARTESIAN_POINT ( 'NONE',  ( 0.0000000000000000000, 0.0000000000000000000, 2.500000000000000000 ) ) ;
#28 = DIRECTION ( 'NONE',  ( -0.5000000000000012212, 6.123233995736780827E-17, 0.8660254037844377084 ) ) ;
#29 = EDGE_LOOP ( 'NONE', ( #40, #57, #19, #161 ) ) ;
#30 = CLOSED_SHELL ( 'NONE', ( #99, #200, #222, #188, #119, #59, #7, #56 ) ) ;
#31 =( LENGTH_UNIT ( ) NAMED_UNIT ( * ) SI_UNIT ( $, .METRE. ) );
#32 = CARTESIAN_POINT ( 'NONE',  ( 0.1562500000000000000, 1.913510623667739463E-17, 2.484999999999999432 ) ) ;
#33 = CARTESIAN_POINT ( 'NONE',  ( 0.003999999999999999216, 0.0000000000000000000, 0.0000000000000000000 ) ) ;
#34 = SURFACE_STYLE_FILL_AREA ( #226 ) ;
#35 = CARTESIAN_POINT ( 'NONE',  ( 0.0000000000000000000, 0.0000000000000000000, 2.484999999999999432 ) ) ;
#36 = FILL_AREA_STYLE_COLOUR ( '', #70 ) ;
#37 = SURFACE_STYLE_FILL_AREA ( #224 ) ;
#38 = PRESENTATION_LAYER_ASSIGNMENT (  '', '', ( #82 ) ) ;
#39 = SURFACE_SIDE_STYLE ('',( #34 ) ) ;
#40 = ORIENTED_EDGE ( 'NONE', *, *, #112, .F. ) ;
#41 =( GEOMETRIC_REPRESENTATION_CONTEXT ( 3 ) GLOBAL_UNCERTAINTY_ASSIGNED_CONTEXT ( ( #127 ) ) GLOBAL_UNIT_ASSIGNED_CONTEXT ( ( #152, #11, #13 ) ) REPRESENTATION_CONTEXT ( 'NONE', 'WORKASPACE' ) );
#42 = DIRECTION ( 'NONE',  ( -0.0000000000000000000, -0.0000000000000000000, -1.000000000000000000 ) ) ;
#43 = ORIENTED_EDGE ( 'NONE', *, *, #163, .T. ) ;
#44 = LINE ( 'NONE', #125, #61 ) ;
#45 = DIRECTION ( 'NONE',  ( 0.0000000000000000000, 0.0000000000000000000, 1.000000000000000000 ) ) ;
#46 = EDGE_CURVE ( 'NONE', #230, #144, #107, .T. ) ;
#47 = CARTESIAN_POINT ( 'NONE',  ( 0.1412499999999994871, 1.729813603795630110E-17, 2.500000000000000000 ) ) ;
#48 = DIRECTION ( 'NONE',  ( -1.000000000000000000, 0.0000000000000000000, 0.0000000000000000000 ) ) ;
#49 = AXIS2_PLACEMENT_3D ( 'NONE', #35, #168, #204 ) ;
#50 = CIRCLE ( 'NONE', #88, 0.1412499999999994871 ) ;
#51 = DIRECTION ( 'NONE',  ( -1.000000000000000000, 0.0000000000000000000, 0.0000000000000000000 ) ) ;
#52 = LENGTH_MEASURE_WITH_UNIT ( LENGTH_MEASURE( 0.02539999999999999897 ), #169 );
#53 = FACE_OUTER_BOUND ( 'NONE', #29, .T. ) ;
#54 = FACE_OUTER_BOUND ( 'NONE', #87, .T. ) ;
#55 =( LENGTH_UNIT ( ) NAMED_UNIT ( * ) SI_UNIT ( $, .METRE. ) );
#56 = ADVANCED_FACE ( 'NONE', ( #25 ), #179, .F. ) ;
#57 = ORIENTED_EDGE ( 'NONE', *, *, #10, .T. ) ;
#58 = PRESENTATION_STYLE_ASSIGNMENT (( #138 ) ) ;
#59 = ADVANCED_FACE ( 'NONE', ( #234 ), #190, .T. ) ;
#60 =( GEOMETRIC_REPRESENTATION_CONTEXT ( 3 ) GLOBAL_UNCERTAINTY_ASSIGNED_CONTEXT ( ( #26 ) ) GLOBAL_UNIT_ASSIGNED_CONTEXT ( ( #97, #20, #213 ) ) REPRESENTATION_CONTEXT ( 'NONE', 'WORKASPACE' ) );
#61 = VECTOR ( 'NONE', #28, 39.37007874015748854 ) ;
#62 = CARTESIAN_POINT ( 'NONE',  ( 0.0000000000000000000, 0.0000000000000000000, 2.500000000000000000 ) ) ;
#63 = CARTESIAN_POINT ( 'NONE',  ( 0.0000000000000000000, 0.0000000000000000000, 0.0000000000000000000 ) ) ;
#64 = PRODUCT_DEFINITION_SHAPE ( 'NONE', 'NONE',  #228 ) ;
#65 = DIRECTION ( 'NONE',  ( 0.0000000000000000000, 0.0000000000000000000, 1.000000000000000000 ) ) ;
#66 = DIRECTION ( 'NONE',  ( -0.0000000000000000000, -0.0000000000000000000, -1.000000000000000000 ) ) ;
#67 = DIRECTION ( 'NONE',  ( 0.0000000000000000000, 0.0000000000000000000, -1.000000000000000000 ) ) ;
#68 = EDGE_CURVE ( 'NONE', #144, #230, #208, .T. ) ;
#69 = FILL_AREA_STYLE_COLOUR ( '', #73 ) ;
#70 = COLOUR_RGB ( '',0.7921568627450980005, 0.8196078431372548767, 0.9333333333333333481 ) ;
#71 = AXIS2_PLACEMENT_3D ( 'NONE', #211, #159, #162 ) ;
#72 = DIRECTION ( 'NONE',  ( 0.0000000000000000000, 0.0000000000000000000, -1.000000000000000000 ) ) ;
#73 = COLOUR_RGB ( '',0.7921568627450980005, 0.8196078431372548767, 0.9333333333333333481 ) ;
#74 = LENGTH_MEASURE_WITH_UNIT ( LENGTH_MEASURE( 0.02539999999999999897 ), #55 );
#75 = DIMENSIONAL_EXPONENTS ( 1.000000000000000000, 0.0000000000000000000, 0.0000000000000000000, 0.0000000000000000000, 0.0000000000000000000, 0.0000000000000000000, 0.0000000000000000000 ) ;
#76 = ORIENTED_EDGE ( 'NONE', *, *, #116, .T. ) ;
#77 = ORIENTED_EDGE ( 'NONE', *, *, #92, .F. ) ;
#78 = ORIENTED_EDGE ( 'NONE', *, *, #116, .F. ) ;
#79 = APPLICATION_CONTEXT ( 'automotive_design' ) ;
#80 = EDGE_LOOP ( 'NONE', ( #191, #192, #130, #194 ) ) ;
#81 = APPLICATION_PROTOCOL_DEFINITION ( 'draft international standard', 'automotive_design', 1998, #79 ) ;
#82 = STYLED_ITEM ( 'NONE', ( #93 ), #238 ) ;
#83 = CARTESIAN_POINT ( 'NONE',  ( 0.0000000000000000000, 0.0000000000000000000, 0.2637047354523606724 ) ) ;
#84 = VECTOR ( 'NONE', #115, 39.37007874015748143 ) ;
#85 = CARTESIAN_POINT ( 'NONE',  ( 0.0000000000000000000, 0.0000000000000000000, 0.2637047354523606724 ) ) ;
#86 = DIRECTION ( 'NONE',  ( -1.000000000000000000, 0.0000000000000000000, 0.0000000000000000000 ) ) ;
#87 = EDGE_LOOP ( 'NONE', ( #78, #196, #248, #155 ) ) ;
#88 = AXIS2_PLACEMENT_3D ( 'NONE', #27, #89, #146 ) ;
#89 = DIRECTION ( 'NONE',  ( 0.0000000000000000000, 0.0000000000000000000, 1.000000000000000000 ) ) ;
#90 = CARTESIAN_POINT ( 'NONE',  ( -0.1412499999999994871, 0.0000000000000000000, 2.500000000000000000 ) ) ;
#91 = PRODUCT_DEFINITION_CONTEXT ( 'detailed design', #140, 'design' ) ;
#92 = EDGE_CURVE ( 'NONE', #101, #230, #44, .T. ) ;
#93 = PRESENTATION_STYLE_ASSIGNMENT (( #132 ) ) ;
#94 = DIRECTION ( 'NONE',  ( -0.0000000000000000000, -0.0000000000000000000, -1.000000000000000000 ) ) ;
#95 =( NAMED_UNIT ( * ) SI_UNIT ( $, .STERADIAN. ) SOLID_ANGLE_UNIT ( ) );
#96 = CONICAL_SURFACE ( 'NONE', #231, 0.003999999999999999216, 0.5235987755983003700 ) ;
#97 =( CONVERSION_BASED_UNIT ( 'INCH', #52 ) LENGTH_UNIT ( ) NAMED_UNIT ( #244 ) );
#98 = AXIS2_PLACEMENT_3D ( 'NONE', #134, #241, #15 ) ;
#99 = ADVANCED_FACE ( 'NONE', ( #110 ), #111, .T. ) ;
#100 = VERTEX_POINT ( 'NONE', #181 ) ;
#101 = VERTEX_POINT ( 'NONE', #128 ) ;
#102 = ORIENTED_EDGE ( 'NONE', *, *, #147, .F. ) ;
#103 = DIRECTION ( 'NONE',  ( 0.0000000000000000000, 0.0000000000000000000, 1.000000000000000000 ) ) ;
#104 = EDGE_CURVE ( 'NONE', #101, #176, #17, .T. ) ;
#105 = VECTOR ( 'NONE', #201, 39.37007874015748854 ) ;
#106 = DIRECTION ( 'NONE',  ( 1.000000000000000000, 0.0000000000000000000, 0.0000000000000000000 ) ) ;
#107 = CIRCLE ( 'NONE', #171, 0.1562500000000000000 ) ;
#108 = DIRECTION ( 'NONE',  ( 1.000000000000000000, 0.0000000000000000000, -0.0000000000000000000 ) ) ;
#109 = FACE_OUTER_BOUND ( 'NONE', #173, .T. ) ;
#110 = FACE_OUTER_BOUND ( 'NONE', #227, .T. ) ;
#111 = CONICAL_SURFACE ( 'NONE', #221, 0.003999999999999999216, 0.5235987755983003700 ) ;
#112 = EDGE_CURVE ( 'NONE', #172, #144, #216, .T. ) ;
#113 = SURFACE_SIDE_STYLE ('',( #37 ) ) ;
#114 = UNCERTAINTY_MEASURE_WITH_UNIT (LENGTH_MEASURE( 1.000000000000000082E-05 ), #184, 'distance_accuracy_value', 'NONE');
#115 = DIRECTION ( 'NONE',  ( -0.0000000000000000000, -0.0000000000000000000, -1.000000000000000000 ) ) ;
#116 = EDGE_CURVE ( 'NONE', #207, #249, #202, .T. ) ;
#117 = CARTESIAN_POINT ( 'NONE',  ( 0.0000000000000000000, 0.0000000000000000000, 2.500000000000000000 ) ) ;
#118 =( NAMED_UNIT ( * ) PLANE_ANGLE_UNIT ( ) SI_UNIT ( $, .RADIAN. ) );
#119 = ADVANCED_FACE ( 'NONE', ( #109 ), #214, .T. ) ;
#120 = AXIS2_PLACEMENT_3D ( 'NONE', #239, #67, #86 ) ;
#121 = APPLICATION_PROTOCOL_DEFINITION ( 'draft international standard', 'automotive_design', 1998, #140 ) ;
#122 = EDGE_CURVE ( 'NONE', #249, #207, #50, .T. ) ;
#123 = ORIENTED_EDGE ( 'NONE', *, *, #122, .F. ) ;
#124 = MECHANICAL_DESIGN_GEOMETRIC_PRESENTATION_REPRESENTATION (  '', ( #82 ), #219 ) ;
#125 = CARTESIAN_POINT ( 'NONE',  ( -0.003999999999999999216, 4.898587196589411612E-19, 0.0000000000000000000 ) ) ;
#126 = DIRECTION ( 'NONE',  ( -0.0000000000000000000, -0.0000000000000000000, -1.000000000000000000 ) ) ;
#127 = UNCERTAINTY_MEASURE_WITH_UNIT (LENGTH_MEASURE( 1.000000000000000082E-05 ), #152, 'distance_accuracy_value', 'NONE');
#128 = CARTESIAN_POINT ( 'NONE',  ( -0.003999999999999999216, 9.812482478168165875E-18, 0.0000000000000000000 ) ) ;
#129 = DIRECTION ( 'NONE',  ( 0.0000000000000000000, 0.0000000000000000000, 1.000000000000000000 ) ) ;
#130 = ORIENTED_EDGE ( 'NONE', *, *, #46, .F. ) ;
#131 = LINE ( 'NONE', #189, #84 ) ;
#132 = SURFACE_STYLE_USAGE ( .BOTH. , #113 ) ;
#133 = CARTESIAN_POINT ( 'NONE',  ( -0.1412499999999994871, 0.0000000000000000000, 2.500000000000000000 ) ) ;
#134 = CARTESIAN_POINT ( 'NONE',  ( 0.0000000000000000000, 0.0000000000000000000, 2.500000000000000000 ) ) ;
#135 = PRESENTATION_LAYER_ASSIGNMENT (  '', '', ( #2 ) ) ;
#136 = DIRECTION ( 'NONE',  ( 0.7071067811865410224, 8.659560562354852739E-17, -0.7071067811865539010 ) ) ;
#137 = PRODUCT ( 'Micro_RSC-312-1', 'Micro_RSC-312-1', '', ( #142 ) ) ;
#138 = SURFACE_STYLE_USAGE ( .BOTH. , #39 ) ;
#139 = AXIS2_PLACEMENT_3D ( 'NONE', #117, #72, #48 ) ;
#140 = APPLICATION_CONTEXT ( 'automotive_design' ) ;
#141 = CIRCLE ( 'NONE', #71, 0.1562500000000000000 ) ;
#142 = PRODUCT_CONTEXT ( 'NONE', #79, 'mechanical' ) ;
#143 = CARTESIAN_POINT ( 'NONE',  ( 0.0000000000000000000, 0.0000000000000000000, 0.0000000000000000000 ) ) ;
#144 = VERTEX_POINT ( 'NONE', #197 ) ;
#145 = DIRECTION ( 'NONE',  ( 1.000000000000000000, 0.0000000000000000000, 0.0000000000000000000 ) ) ;
#146 = DIRECTION ( 'NONE',  ( 1.000000000000000000, 0.0000000000000000000, 0.0000000000000000000 ) ) ;
#147 = EDGE_CURVE ( 'NONE', #207, #172, #217, .T. ) ;
#148 = AXIS2_PLACEMENT_3D ( 'NONE', #14, #94, #12 ) ;
#149 = AXIS2_PLACEMENT_3D ( 'NONE', #143, #233, #108 ) ;
#150 = CYLINDRICAL_SURFACE ( 'NONE', #98, 0.1562500000000000000 ) ;
#151 = DIRECTION ( 'NONE',  ( 0.5000000000000012212, 0.0000000000000000000, 0.8660254037844377084 ) ) ;
#152 =( CONVERSION_BASED_UNIT ( 'INCH', #74 ) LENGTH_UNIT ( ) NAMED_UNIT ( #75 ) );
#153 = ORIENTED_EDGE ( 'NONE', *, *, #46, .T. ) ;
#154 = EDGE_CURVE ( 'NONE', #249, #100, #186, .T. ) ;
#155 = ORIENTED_EDGE ( 'NONE', *, *, #154, .F. ) ;
#156 = DIRECTION ( 'NONE',  ( 0.0000000000000000000, 0.0000000000000000000, 1.000000000000000000 ) ) ;
#157 = EDGE_CURVE ( 'NONE', #176, #101, #158, .T. ) ;
#158 = CIRCLE ( 'NONE', #170, 0.003999999999999999216 ) ;
#159 = DIRECTION ( 'NONE',  ( 0.0000000000000000000, 0.0000000000000000000, -1.000000000000000000 ) ) ;
#160 = AXIS2_PLACEMENT_3D ( 'NONE', #62, #129, #198 ) ;
#161 = ORIENTED_EDGE ( 'NONE', *, *, #68, .F. ) ;
#162 = DIRECTION ( 'NONE',  ( 1.000000000000000000, 0.0000000000000000000, 0.0000000000000000000 ) ) ;
#163 = EDGE_CURVE ( 'NONE', #176, #144, #185, .T. ) ;
#164 = DIRECTION ( 'NONE',  ( -1.000000000000000000, 0.0000000000000000000, 0.0000000000000000000 ) ) ;
#165 = MECHANICAL_DESIGN_GEOMETRIC_PRESENTATION_REPRESENTATION (  '', ( #2 ), #41 ) ;
#166 = EDGE_CURVE ( 'NONE', #100, #172, #22, .T. ) ;
#167 = FACE_OUTER_BOUND ( 'NONE', #229, .T. ) ;
#168 = DIRECTION ( 'NONE',  ( 0.0000000000000000000, 0.0000000000000000000, -1.000000000000000000 ) ) ;
#169 =( LENGTH_UNIT ( ) NAMED_UNIT ( * ) SI_UNIT ( $, .METRE. ) );
#170 = AXIS2_PLACEMENT_3D ( 'NONE', #218, #220, #51 ) ;
#171 = AXIS2_PLACEMENT_3D ( 'NONE', #85, #42, #5 ) ;
#172 = VERTEX_POINT ( 'NONE', #32 ) ;
#173 = EDGE_LOOP ( 'NONE', ( #225, #76 ) ) ;
#174 = SHAPE_DEFINITION_REPRESENTATION ( #64, #243 ) ;
#175 = ORIENTED_EDGE ( 'NONE', *, *, #92, .T. ) ;
#176 = VERTEX_POINT ( 'NONE', #33 ) ;
#177 = ORIENTED_EDGE ( 'NONE', *, *, #163, .F. ) ;
#178 = ORIENTED_EDGE ( 'NONE', *, *, #104, .F. ) ;
#179 = PLANE ( 'NONE',  #149 ) ;
#180 = EDGE_LOOP ( 'NONE', ( #24, #212 ) ) ;
#181 = CARTESIAN_POINT ( 'NONE',  ( -0.1562500000000000000, 0.0000000000000000000, 2.484999999999999432 ) ) ;
#182 = EDGE_LOOP ( 'NONE', ( #102, #123, #209, #23 ) ) ;
#183 = AXIS2_PLACEMENT_3D ( 'NONE', #245, #156, #21 ) ;
#184 =( CONVERSION_BASED_UNIT ( 'INCH', #9 ) LENGTH_UNIT ( ) NAMED_UNIT ( #240 ) );
#185 = LINE ( 'NONE', #205, #242 ) ;
#186 = LINE ( 'NONE', #133, #105 ) ;
#187 = CARTESIAN_POINT ( 'NONE',  ( 0.1412499999999994871, 1.821662113731684786E-17, 2.500000000000000000 ) ) ;
#188 = ADVANCED_FACE ( 'NONE', ( #53 ), #150, .T. ) ;
#189 = CARTESIAN_POINT ( 'NONE',  ( -0.1562500000000000000, 0.0000000000000000000, 2.500000000000000000 ) ) ;
#190 = CONICAL_SURFACE ( 'NONE', #120, 0.1412499999999994871, 0.7853981633974391752 ) ;
#191 = ORIENTED_EDGE ( 'NONE', *, *, #166, .T. ) ;
#192 = ORIENTED_EDGE ( 'NONE', *, *, #112, .T. ) ;
#193 = EDGE_CURVE ( 'NONE', #100, #230, #131, .T. ) ;
#194 = ORIENTED_EDGE ( 'NONE', *, *, #193, .F. ) ;
#195 = CARTESIAN_POINT ( 'NONE',  ( 0.0000000000000000000, 0.0000000000000000000, 2.500000000000000000 ) ) ;
#196 = ORIENTED_EDGE ( 'NONE', *, *, #147, .T. ) ;
#197 = CARTESIAN_POINT ( 'NONE',  ( 0.1562500000000000000, 1.913510623667739463E-17, 0.2637047354523606724 ) ) ;
#198 = DIRECTION ( 'NONE',  ( 1.000000000000000000, 0.0000000000000000000, -0.0000000000000000000 ) ) ;
#199 = ORIENTED_EDGE ( 'NONE', *, *, #68, .T. ) ;
#200 = ADVANCED_FACE ( 'NONE', ( #54 ), #232, .T. ) ;
#201 = DIRECTION ( 'NONE',  ( -0.7071067811865410224, 0.0000000000000000000, -0.7071067811865539010 ) ) ;
#202 = CIRCLE ( 'NONE', #3, 0.1412499999999994871 ) ;
#203 = CARTESIAN_POINT ( 'NONE',  ( -0.1562500000000000000, 0.0000000000000000000, 0.2637047354523606724 ) ) ;
#204 = DIRECTION ( 'NONE',  ( 1.000000000000000000, 0.0000000000000000000, 0.0000000000000000000 ) ) ;
#205 = CARTESIAN_POINT ( 'NONE',  ( 0.003999999999999999216, 0.0000000000000000000, 0.0000000000000000000 ) ) ;
#206 = FACE_OUTER_BOUND ( 'NONE', #80, .T. ) ;
#207 = VERTEX_POINT ( 'NONE', #187 ) ;
#208 = CIRCLE ( 'NONE', #210, 0.1562500000000000000 ) ;
#209 = ORIENTED_EDGE ( 'NONE', *, *, #154, .T. ) ;
#210 = AXIS2_PLACEMENT_3D ( 'NONE', #83, #126, #164 ) ;
#211 = CARTESIAN_POINT ( 'NONE',  ( 0.0000000000000000000, 0.0000000000000000000, 2.484999999999999432 ) ) ;
#212 = ORIENTED_EDGE ( 'NONE', *, *, #104, .T. ) ;
#213 =( NAMED_UNIT ( * ) SI_UNIT ( $, .STERADIAN. ) SOLID_ANGLE_UNIT ( ) );
#214 = PLANE ( 'NONE',  #160 ) ;
#215 = PRODUCT_DEFINITION_FORMATION_WITH_SPECIFIED_SOURCE ( 'ANY', '', #137, .NOT_KNOWN. ) ;
#216 = LINE ( 'NONE', #1, #236 ) ;
#217 = LINE ( 'NONE', #47, #16 ) ;
#218 = CARTESIAN_POINT ( 'NONE',  ( 0.0000000000000000000, 0.0000000000000000000, 0.0000000000000000000 ) ) ;
#219 =( GEOMETRIC_REPRESENTATION_CONTEXT ( 3 ) GLOBAL_UNCERTAINTY_ASSIGNED_CONTEXT ( ( #114 ) ) GLOBAL_UNIT_ASSIGNED_CONTEXT ( ( #184, #118, #95 ) ) REPRESENTATION_CONTEXT ( 'NONE', 'WORKASPACE' ) );
#220 = DIRECTION ( 'NONE',  ( -0.0000000000000000000, -0.0000000000000000000, -1.000000000000000000 ) ) ;
#221 = AXIS2_PLACEMENT_3D ( 'NONE', #237, #45, #106 ) ;
#222 = ADVANCED_FACE ( 'NONE', ( #206 ), #223, .T. ) ;
#223 = CYLINDRICAL_SURFACE ( 'NONE', #148, 0.1562500000000000000 ) ;
#224 = FILL_AREA_STYLE ('',( #69 ) ) ;
#225 = ORIENTED_EDGE ( 'NONE', *, *, #122, .T. ) ;
#226 = FILL_AREA_STYLE ('',( #36 ) ) ;
#227 = EDGE_LOOP ( 'NONE', ( #178, #175, #153, #177 ) ) ;
#228 = PRODUCT_DEFINITION ( 'UNKNOWN', '', #215, #91 ) ;
#229 = EDGE_LOOP ( 'NONE', ( #77, #247, #43, #199 ) ) ;
#230 = VERTEX_POINT ( 'NONE', #203 ) ;
#231 = AXIS2_PLACEMENT_3D ( 'NONE', #63, #103, #6 ) ;
#232 = CONICAL_SURFACE ( 'NONE', #139, 0.1412499999999994871, 0.7853981633974391752 ) ;
#233 = DIRECTION ( 'NONE',  ( 0.0000000000000000000, 0.0000000000000000000, 1.000000000000000000 ) ) ;
#234 = FACE_OUTER_BOUND ( 'NONE', #182, .T. ) ;
#235 = DIRECTION ( 'NONE',  ( -0.0000000000000000000, -0.0000000000000000000, -1.000000000000000000 ) ) ;
#236 = VECTOR ( 'NONE', #66, 39.37007874015748143 ) ;
#237 = CARTESIAN_POINT ( 'NONE',  ( 0.0000000000000000000, 0.0000000000000000000, 0.0000000000000000000 ) ) ;
#238 = MANIFOLD_SOLID_BREP ( 'Cut-Revolve1', #30 ) ;
#239 = CARTESIAN_POINT ( 'NONE',  ( 0.0000000000000000000, 0.0000000000000000000, 2.500000000000000000 ) ) ;
#240 = DIMENSIONAL_EXPONENTS ( 1.000000000000000000, 0.0000000000000000000, 0.0000000000000000000, 0.0000000000000000000, 0.0000000000000000000, 0.0000000000000000000, 0.0000000000000000000 ) ;
#241 = DIRECTION ( 'NONE',  ( -0.0000000000000000000, -0.0000000000000000000, -1.000000000000000000 ) ) ;
#242 = VECTOR ( 'NONE', #151, 39.37007874015748854 ) ;
#243 = ADVANCED_BREP_SHAPE_REPRESENTATION ( 'Micro_RSC-312-1', ( #238, #183 ), #60 ) ;
#244 = DIMENSIONAL_EXPONENTS ( 1.000000000000000000, 0.0000000000000000000, 0.0000000000000000000, 0.0000000000000000000, 0.0000000000000000000, 0.0000000000000000000, 0.0000000000000000000 ) ;
#245 = CARTESIAN_POINT ( 'NONE',  ( 0.0000000000000000000, 0.0000000000000000000, 0.0000000000000000000 ) ) ;
#246 = AXIS2_PLACEMENT_3D ( 'NONE', #8, #235, #4 ) ;
#247 = ORIENTED_EDGE ( 'NONE', *, *, #157, .F. ) ;
#248 = ORIENTED_EDGE ( 'NONE', *, *, #166, .F. ) ;
#249 = VERTEX_POINT ( 'NONE', #90 ) ;
ENDSEC;
END-ISO-10303-21;
