ISO-10303-21;
HEADER;
FILE_DESCRIPTION (( 'STEP AP214' ),
    '1' );
FILE_NAME ('03707.STEP',
    '2023-06-22T15:41:41',
    ( '' ),
    ( '' ),
    'SwSTEP 2.0',
    'SolidWorks 2023',
    '' );
FILE_SCHEMA (( 'AUTOMOTIVE_DESIGN' ));
ENDSEC;

DATA;
#1 = APPLICATION_PROTOCOL_DEFINITION ( 'draft international standard', 'automotive_design', 1998, #121 ) ;
#2 = FILL_AREA_STYLE_COLOUR ( '', #31 ) ;
#3 =( LENGTH_UNIT ( ) NAMED_UNIT ( * ) SI_UNIT ( $, .METRE. ) );
#4 =( NAMED_UNIT ( * ) PLANE_ANGLE_UNIT ( ) SI_UNIT ( $, .RADIAN. ) );
#5 = CIRCLE ( 'NONE', #175, 0.3750000000000000555 ) ;
#6 = SURFACE_STYLE_USAGE ( .BOTH. , #33 ) ;
#7 = DIRECTION ( 'NONE',  ( 0.000000000000000000, 0.000000000000000000, -1.000000000000000000 ) ) ;
#8 = COLOUR_RGB ( '',0.7921568627450980005, 0.8196078431372548767, 0.9333333333333333481 ) ;
#9 = SURFACE_STYLE_USAGE ( .BOTH. , #61 ) ;
#10 = LENGTH_MEASURE_WITH_UNIT ( LENGTH_MEASURE( 0.02539999999999999897 ), #3 );
#11 =( NAMED_UNIT ( * ) PLANE_ANGLE_UNIT ( ) SI_UNIT ( $, .RADIAN. ) );
#12 = EDGE_CURVE ( 'NONE', #23, #284, #274, .T. ) ;
#13 =( LENGTH_UNIT ( ) NAMED_UNIT ( * ) SI_UNIT ( $, .METRE. ) );
#14 = AXIS2_PLACEMENT_3D ( 'NONE', #198, #63, #106 ) ;
#15 = PLANE ( 'NONE',  #36 ) ;
#16 = LENGTH_MEASURE_WITH_UNIT ( LENGTH_MEASURE( 0.02539999999999999897 ), #22 );
#17 = ADVANCED_FACE ( 'NONE', ( #210 ), #309, .T. ) ;
#18 = PRESENTATION_LAYER_ASSIGNMENT (  '', '', ( #289 ) ) ;
#19 = DIRECTION ( 'NONE',  ( 0.000000000000000000, 0.000000000000000000, -1.000000000000000000 ) ) ;
#20 = ORIENTED_EDGE ( 'NONE', *, *, #127, .F. ) ;
#21 = DIRECTION ( 'NONE',  ( -0.000000000000000000, -1.000000000000000000, -0.000000000000000000 ) ) ;
#22 =( LENGTH_UNIT ( ) NAMED_UNIT ( * ) SI_UNIT ( $, .METRE. ) );
#23 = VERTEX_POINT ( 'NONE', #254 ) ;
#24 = ORIENTED_EDGE ( 'NONE', *, *, #216, .F. ) ;
#25 = COLOUR_RGB ( '',1.000000000000000000, 0.000000000000000000, 0.000000000000000000 ) ;
#26 = LENGTH_MEASURE_WITH_UNIT ( LENGTH_MEASURE( 0.02539999999999999897 ), #124 );
#27 = APPLICATION_PROTOCOL_DEFINITION ( 'draft international standard', 'automotive_design', 1998, #29 ) ;
#28 = DIRECTION ( 'NONE',  ( -2.449293598294704072E-17, 1.000000000000000000, -0.000000000000000000 ) ) ;
#29 = APPLICATION_CONTEXT ( 'automotive_design' ) ;
#30 = DIRECTION ( 'NONE',  ( -1.000000000000000000, -2.449293598294703764E-17, 0.000000000000000000 ) ) ;
#31 = COLOUR_RGB ( '',1.000000000000000000, 0.000000000000000000, 0.000000000000000000 ) ;
#32 =( GEOMETRIC_REPRESENTATION_CONTEXT ( 3 ) GLOBAL_UNCERTAINTY_ASSIGNED_CONTEXT ( ( #182 ) ) GLOBAL_UNIT_ASSIGNED_CONTEXT ( ( #222, #62, #253 ) ) REPRESENTATION_CONTEXT ( 'NONE', 'WORKASPACE' ) );
#33 = SURFACE_SIDE_STYLE ('',( #241 ) ) ;
#34 = CARTESIAN_POINT ( 'NONE',  ( 0.000000000000000000, 0.000000000000000000, 0.000000000000000000 ) ) ;
#35 = FILL_AREA_STYLE_COLOUR ( '', #25 ) ;
#36 = AXIS2_PLACEMENT_3D ( 'NONE', #118, #231, #112 ) ;
#37 = FILL_AREA_STYLE_COLOUR ( '', #171 ) ;
#38 = EDGE_CURVE ( 'NONE', #235, #188, #128, .T. ) ;
#39 = LINE ( 'NONE', #108, #193 ) ;
#40 = SURFACE_STYLE_USAGE ( .BOTH. , #255 ) ;
#41 = VERTEX_POINT ( 'NONE', #47 ) ;
#42 = CARTESIAN_POINT ( 'NONE',  ( 0.000000000000000000, 0.000000000000000000, -0.3750000000000000555 ) ) ;
#43 = MECHANICAL_DESIGN_GEOMETRIC_PRESENTATION_REPRESENTATION (  '', ( #130 ), #137 ) ;
#44 =( NAMED_UNIT ( * ) PLANE_ANGLE_UNIT ( ) SI_UNIT ( $, .RADIAN. ) );
#45 = ORIENTED_EDGE ( 'NONE', *, *, #216, .T. ) ;
#46 = CARTESIAN_POINT ( 'NONE',  ( 0.000000000000000000, 4.000000000000000000, 0.000000000000000000 ) ) ;
#47 = CARTESIAN_POINT ( 'NONE',  ( 0.000000000000000000, 4.000000000000000000, -0.3750000000000000555 ) ) ;
#48 = SURFACE_SIDE_STYLE ('',( #306 ) ) ;
#49 = ORIENTED_EDGE ( 'NONE', *, *, #269, .F. ) ;
#50 = STYLED_ITEM ( 'NONE', ( #103 ), #75 ) ;
#51 = CLOSED_SHELL ( 'NONE', ( #301, #251, #77, #265 ) ) ;
#52 = FACE_OUTER_BOUND ( 'NONE', #229, .T. ) ;
#53 = EDGE_CURVE ( 'NONE', #307, #284, #271, .T. ) ;
#54 = AXIS2_PLACEMENT_3D ( 'NONE', #79, #239, #30 ) ;
#55 = AXIS2_PLACEMENT_3D ( 'NONE', #191, #150, #237 ) ;
#56 = DIRECTION ( 'NONE',  ( -2.449293598294704072E-17, 1.000000000000000000, -0.000000000000000000 ) ) ;
#57 = PLANE ( 'NONE',  #262 ) ;
#58 = CARTESIAN_POINT ( 'NONE',  ( 0.3750000000000000555, 6.500000000000000000, 0.000000000000000000 ) ) ;
#59 = CIRCLE ( 'NONE', #69, 0.3750000000000000555 ) ;
#60 = EDGE_CURVE ( 'NONE', #41, #188, #250, .T. ) ;
#61 = SURFACE_SIDE_STYLE ('',( #84 ) ) ;
#62 =( NAMED_UNIT ( * ) PLANE_ANGLE_UNIT ( ) SI_UNIT ( $, .RADIAN. ) );
#63 = DIRECTION ( 'NONE',  ( -0.000000000000000000, -1.000000000000000000, -0.000000000000000000 ) ) ;
#64 = AXIS2_PLACEMENT_3D ( 'NONE', #97, #93, #272 ) ;
#65 = FACE_OUTER_BOUND ( 'NONE', #114, .T. ) ;
#66 = SURFACE_STYLE_USAGE ( .BOTH. , #48 ) ;
#67 = ORIENTED_EDGE ( 'NONE', *, *, #60, .F. ) ;
#68 = ORIENTED_EDGE ( 'NONE', *, *, #53, .T. ) ;
#69 = AXIS2_PLACEMENT_3D ( 'NONE', #189, #28, #99 ) ;
#70 =( NAMED_UNIT ( * ) SI_UNIT ( $, .STERADIAN. ) SOLID_ANGLE_UNIT ( ) );
#71 = DIRECTION ( 'NONE',  ( -0.000000000000000000, -1.000000000000000000, -0.000000000000000000 ) ) ;
#72 = FILL_AREA_STYLE_COLOUR ( '', #298 ) ;
#73 = UNCERTAINTY_MEASURE_WITH_UNIT (LENGTH_MEASURE( 1.000000000000000082E-05 ), #223, 'distance_accuracy_value', 'NONE');
#74 = ORIENTED_EDGE ( 'NONE', *, *, #288, .F. ) ;
#75 = MANIFOLD_SOLID_BREP ( 'Revolve - Tool Body (Straight Shanked)', #257 ) ;
#76 =( NAMED_UNIT ( * ) PLANE_ANGLE_UNIT ( ) SI_UNIT ( $, .RADIAN. ) );
#77 = ADVANCED_FACE ( 'NONE', ( #52 ), #102, .T. ) ;
#78 = CIRCLE ( 'NONE', #258, 0.3750000000000000555 ) ;
#79 = CARTESIAN_POINT ( 'NONE',  ( 1.124819836996391367E-34, 4.000000000000000000, 0.000000000000000000 ) ) ;
#80 = EDGE_CURVE ( 'NONE', #284, #307, #152, .T. ) ;
#81 =( NAMED_UNIT ( * ) SI_UNIT ( $, .STERADIAN. ) SOLID_ANGLE_UNIT ( ) );
#82 = PRESENTATION_LAYER_ASSIGNMENT (  '', '', ( #130 ) ) ;
#83 = PRESENTATION_STYLE_ASSIGNMENT (( #9 ) ) ;
#84 = SURFACE_STYLE_FILL_AREA ( #290 ) ;
#85 =( NAMED_UNIT ( * ) SI_UNIT ( $, .STERADIAN. ) SOLID_ANGLE_UNIT ( ) );
#86 = CARTESIAN_POINT ( 'NONE',  ( -0.3750000000000000555, 4.000000000000000000, 0.000000000000000000 ) ) ;
#87 = VECTOR ( 'NONE', #300, 39.37007874015748143 ) ;
#88 = FACE_OUTER_BOUND ( 'NONE', #206, .T. ) ;
#89 = SURFACE_STYLE_USAGE ( .BOTH. , #197 ) ;
#90 = AXIS2_PLACEMENT_3D ( 'NONE', #34, #217, #7 ) ;
#91 = FILL_AREA_STYLE ('',( #72 ) ) ;
#92 = CARTESIAN_POINT ( 'NONE',  ( -6.123233995736759873E-17, 6.500000000000000000, 0.000000000000000000 ) ) ;
#93 = DIRECTION ( 'NONE',  ( -2.449293598294704072E-17, 1.000000000000000000, -0.000000000000000000 ) ) ;
#94 = ORIENTED_EDGE ( 'NONE', *, *, #288, .T. ) ;
#95 = ORIENTED_EDGE ( 'NONE', *, *, #60, .T. ) ;
#96 = VECTOR ( 'NONE', #109, 39.37007874015748143 ) ;
#97 = CARTESIAN_POINT ( 'NONE',  ( -6.123233995736759873E-17, 6.500000000000000000, 0.000000000000000000 ) ) ;
#98 = DIRECTION ( 'NONE',  ( -2.449293598294704072E-17, 1.000000000000000000, -0.000000000000000000 ) ) ;
#99 = DIRECTION ( 'NONE',  ( -1.000000000000000000, 0.000000000000000000, 0.000000000000000000 ) ) ;
#100 = AXIS2_PLACEMENT_3D ( 'NONE', #178, #160, #139 ) ;
#101 = CIRCLE ( 'NONE', #14, 0.3750000000000000555 ) ;
#102 = CYLINDRICAL_SURFACE ( 'NONE', #90, 0.3750000000000000555 ) ;
#103 = PRESENTATION_STYLE_ASSIGNMENT (( #6 ) ) ;
#104 = PRODUCT_DEFINITION_SHAPE ( 'NONE', 'NONE',  #141 ) ;
#105 = FILL_AREA_STYLE_COLOUR ( '', #179 ) ;
#106 = DIRECTION ( 'NONE',  ( 0.000000000000000000, 0.000000000000000000, -1.000000000000000000 ) ) ;
#107 = EDGE_CURVE ( 'NONE', #181, #23, #78, .T. ) ;
#108 = CARTESIAN_POINT ( 'NONE',  ( -0.3750000000000001665, 6.500000000000000000, 0.000000000000000000 ) ) ;
#109 = DIRECTION ( 'NONE',  ( -0.000000000000000000, -1.000000000000000000, -0.000000000000000000 ) ) ;
#110 = PRESENTATION_LAYER_ASSIGNMENT (  '', '', ( #240 ) ) ;
#111 = PRODUCT_RELATED_PRODUCT_CATEGORY ( 'part', '', ( #157 ) ) ;
#112 = DIRECTION ( 'NONE',  ( 0.000000000000000000, 0.000000000000000000, -1.000000000000000000 ) ) ;
#113 = DIMENSIONAL_EXPONENTS ( 1.000000000000000000, 0.000000000000000000, 0.000000000000000000, 0.000000000000000000, 0.000000000000000000, 0.000000000000000000, 0.000000000000000000 ) ;
#114 = EDGE_LOOP ( 'NONE', ( #120, #303, #74, #67 ) ) ;
#115 =( GEOMETRIC_REPRESENTATION_CONTEXT ( 3 ) GLOBAL_UNCERTAINTY_ASSIGNED_CONTEXT ( ( #116 ) ) GLOBAL_UNIT_ASSIGNED_CONTEXT ( ( #242, #4, #125 ) ) REPRESENTATION_CONTEXT ( 'NONE', 'WORKASPACE' ) );
#116 = UNCERTAINTY_MEASURE_WITH_UNIT (LENGTH_MEASURE( 1.000000000000000082E-05 ), #242, 'distance_accuracy_value', 'NONE');
#117 = ORIENTED_EDGE ( 'NONE', *, *, #180, .F. ) ;
#118 = CARTESIAN_POINT ( 'NONE',  ( 0.000000000000000000, 0.000000000000000000, 0.000000000000000000 ) ) ;
#119 = DIRECTION ( 'NONE',  ( 0.000000000000000000, 0.000000000000000000, -1.000000000000000000 ) ) ;
#120 = ORIENTED_EDGE ( 'NONE', *, *, #269, .T. ) ;
#121 = APPLICATION_CONTEXT ( 'automotive_design' ) ;
#122 = AXIS2_PLACEMENT_3D ( 'NONE', #226, #21, #119 ) ;
#123 = PRESENTATION_LAYER_ASSIGNMENT (  '', '', ( #230 ) ) ;
#124 =( LENGTH_UNIT ( ) NAMED_UNIT ( * ) SI_UNIT ( $, .METRE. ) );
#125 =( NAMED_UNIT ( * ) SI_UNIT ( $, .STERADIAN. ) SOLID_ANGLE_UNIT ( ) );
#126 = DIRECTION ( 'NONE',  ( -1.000000000000000000, 0.000000000000000000, 0.000000000000000000 ) ) ;
#127 = EDGE_CURVE ( 'NONE', #23, #181, #59, .T. ) ;
#128 = CIRCLE ( 'NONE', #122, 0.3750000000000000555 ) ;
#129 = LENGTH_MEASURE_WITH_UNIT ( LENGTH_MEASURE( 0.02539999999999999897 ), #134 );
#130 = STYLED_ITEM ( 'NONE', ( #173 ), #251 ) ;
#131 = DIMENSIONAL_EXPONENTS ( 1.000000000000000000, 0.000000000000000000, 0.000000000000000000, 0.000000000000000000, 0.000000000000000000, 0.000000000000000000, 0.000000000000000000 ) ;
#132 = DIRECTION ( 'NONE',  ( -2.449293598294703764E-17, 1.000000000000000000, -0.000000000000000000 ) ) ;
#133 = DIMENSIONAL_EXPONENTS ( 1.000000000000000000, 0.000000000000000000, 0.000000000000000000, 0.000000000000000000, 0.000000000000000000, 0.000000000000000000, 0.000000000000000000 ) ;
#134 =( LENGTH_UNIT ( ) NAMED_UNIT ( * ) SI_UNIT ( $, .METRE. ) );
#135 = UNCERTAINTY_MEASURE_WITH_UNIT (LENGTH_MEASURE( 1.000000000000000082E-05 ), #213, 'distance_accuracy_value', 'NONE');
#136 = AXIS2_PLACEMENT_3D ( 'NONE', #92, #305, #277 ) ;
#137 =( GEOMETRIC_REPRESENTATION_CONTEXT ( 3 ) GLOBAL_UNCERTAINTY_ASSIGNED_CONTEXT ( ( #73 ) ) GLOBAL_UNIT_ASSIGNED_CONTEXT ( ( #223, #11, #297 ) ) REPRESENTATION_CONTEXT ( 'NONE', 'WORKASPACE' ) );
#138 = UNCERTAINTY_MEASURE_WITH_UNIT (LENGTH_MEASURE( 1.000000000000000082E-05 ), #267, 'distance_accuracy_value', 'NONE');
#139 = DIRECTION ( 'NONE',  ( -1.000000000000000000, 0.000000000000000000, 0.000000000000000000 ) ) ;
#140 =( LENGTH_UNIT ( ) NAMED_UNIT ( * ) SI_UNIT ( $, .METRE. ) );
#141 = PRODUCT_DEFINITION ( 'UNKNOWN', '', #214, #233 ) ;
#142 = ORIENTED_EDGE ( 'NONE', *, *, #12, .T. ) ;
#143 = ORIENTED_EDGE ( 'NONE', *, *, #38, .F. ) ;
#144 = FACE_OUTER_BOUND ( 'NONE', #202, .T. ) ;
#145 = ORIENTED_EDGE ( 'NONE', *, *, #12, .F. ) ;
#146 = EDGE_LOOP ( 'NONE', ( #163, #142, #281, #184 ) ) ;
#147 = AXIS2_PLACEMENT_3D ( 'NONE', #172, #293, #221 ) ;
#148 = CARTESIAN_POINT ( 'NONE',  ( -0.3750000000000001665, 6.500000000000000000, 0.000000000000000000 ) ) ;
#149 = SURFACE_SIDE_STYLE ('',( #169 ) ) ;
#150 = DIRECTION ( 'NONE',  ( 0.000000000000000000, 0.000000000000000000, 1.000000000000000000 ) ) ;
#151 = CARTESIAN_POINT ( 'NONE',  ( -6.123233995736759873E-17, 6.500000000000000000, 0.000000000000000000 ) ) ;
#152 = CIRCLE ( 'NONE', #224, 0.3750000000000001110 ) ;
#153 = PRESENTATION_STYLE_ASSIGNMENT (( #287 ) ) ;
#154 = DIRECTION ( 'NONE',  ( 2.449293598294703764E-17, -1.000000000000000000, 0.000000000000000000 ) ) ;
#155 = STYLED_ITEM ( 'NONE', ( #162 ), #275 ) ;
#156 = LINE ( 'NONE', #246, #96 ) ;
#157 = PRODUCT ( '03707', '03707', '', ( #291 ) ) ;
#158 = MECHANICAL_DESIGN_GEOMETRIC_PRESENTATION_REPRESENTATION (  '', ( #230 ), #208 ) ;
#159 = SURFACE_STYLE_FILL_AREA ( #91 ) ;
#160 = DIRECTION ( 'NONE',  ( -2.449293598294704072E-17, 1.000000000000000000, -0.000000000000000000 ) ) ;
#161 = ADVANCED_FACE ( 'NONE', ( #192 ), #259, .F. ) ;
#162 = PRESENTATION_STYLE_ASSIGNMENT (( #66 ) ) ;
#163 = ORIENTED_EDGE ( 'NONE', *, *, #107, .T. ) ;
#164 = VERTEX_POINT ( 'NONE', #215 ) ;
#165 =( GEOMETRIC_REPRESENTATION_CONTEXT ( 3 ) GLOBAL_UNCERTAINTY_ASSIGNED_CONTEXT ( ( #135 ) ) GLOBAL_UNIT_ASSIGNED_CONTEXT ( ( #213, #76, #81 ) ) REPRESENTATION_CONTEXT ( 'NONE', 'WORKASPACE' ) );
#166 =( NAMED_UNIT ( * ) PLANE_ANGLE_UNIT ( ) SI_UNIT ( $, .RADIAN. ) );
#167 = EDGE_LOOP ( 'NONE', ( #49, #24 ) ) ;
#168 = ORIENTED_EDGE ( 'NONE', *, *, #80, .F. ) ;
#169 = SURFACE_STYLE_FILL_AREA ( #170 ) ;
#170 = FILL_AREA_STYLE ('',( #2 ) ) ;
#171 = COLOUR_RGB ( '',1.000000000000000000, 0.000000000000000000, 0.000000000000000000 ) ;
#172 = CARTESIAN_POINT ( 'NONE',  ( 0.000000000000000000, 0.000000000000000000, 0.000000000000000000 ) ) ;
#173 = PRESENTATION_STYLE_ASSIGNMENT (( #89 ) ) ;
#174 = CARTESIAN_POINT ( 'NONE',  ( 0.000000000000000000, 4.000000000000000000, 0.000000000000000000 ) ) ;
#175 = AXIS2_PLACEMENT_3D ( 'NONE', #201, #225, #183 ) ;
#176 = DIMENSIONAL_EXPONENTS ( 1.000000000000000000, 0.000000000000000000, 0.000000000000000000, 0.000000000000000000, 0.000000000000000000, 0.000000000000000000, 0.000000000000000000 ) ;
#177 = CYLINDRICAL_SURFACE ( 'NONE', #64, 0.3750000000000001110 ) ;
#178 = CARTESIAN_POINT ( 'NONE',  ( -6.123233995736759873E-17, 6.500000000000000000, 0.000000000000000000 ) ) ;
#179 = COLOUR_RGB ( '',0.7921568627450980005, 0.8196078431372548767, 0.9333333333333333481 ) ;
#180 = EDGE_CURVE ( 'NONE', #164, #235, #156, .T. ) ;
#181 = VERTEX_POINT ( 'NONE', #86 ) ;
#182 = UNCERTAINTY_MEASURE_WITH_UNIT (LENGTH_MEASURE( 1.000000000000000082E-05 ), #222, 'distance_accuracy_value', 'NONE');
#183 = DIRECTION ( 'NONE',  ( 0.000000000000000000, 0.000000000000000000, -1.000000000000000000 ) ) ;
#184 = ORIENTED_EDGE ( 'NONE', *, *, #211, .F. ) ;
#185 =( GEOMETRIC_REPRESENTATION_CONTEXT ( 3 ) GLOBAL_UNCERTAINTY_ASSIGNED_CONTEXT ( ( #212 ) ) GLOBAL_UNIT_ASSIGNED_CONTEXT ( ( #283, #166, #304 ) ) REPRESENTATION_CONTEXT ( 'NONE', 'WORKASPACE' ) );
#186 = LENGTH_MEASURE_WITH_UNIT ( LENGTH_MEASURE( 0.02539999999999999897 ), #140 );
#187 = UNCERTAINTY_MEASURE_WITH_UNIT (LENGTH_MEASURE( 1.000000000000000082E-05 ), #200, 'distance_accuracy_value', 'NONE');
#188 = VERTEX_POINT ( 'NONE', #292 ) ;
#189 = CARTESIAN_POINT ( 'NONE',  ( 7.582401355855259480E-33, 4.000000000000000000, 0.000000000000000000 ) ) ;
#190 = PRESENTATION_LAYER_ASSIGNMENT (  '', '', ( #155 ) ) ;
#191 = CARTESIAN_POINT ( 'NONE',  ( 0.000000000000000000, 0.000000000000000000, 0.000000000000000000 ) ) ;
#192 = FACE_OUTER_BOUND ( 'NONE', #252, .T. ) ;
#193 = VECTOR ( 'NONE', #132, 39.37007874015748143 ) ;
#194 = CARTESIAN_POINT ( 'NONE',  ( 4.592425496802575451E-17, 0.000000000000000000, 0.3750000000000000555 ) ) ;
#195 = FACE_OUTER_BOUND ( 'NONE', #167, .T. ) ;
#196 =( NAMED_UNIT ( * ) PLANE_ANGLE_UNIT ( ) SI_UNIT ( $, .RADIAN. ) );
#197 = SURFACE_SIDE_STYLE ('',( #270 ) ) ;
#198 = CARTESIAN_POINT ( 'NONE',  ( 0.000000000000000000, 4.000000000000000000, 0.000000000000000000 ) ) ;
#199 = AXIS2_PLACEMENT_3D ( 'NONE', #46, #276, #19 ) ;
#200 =( CONVERSION_BASED_UNIT ( 'INCH', #16 ) LENGTH_UNIT ( ) NAMED_UNIT ( #131 ) );
#201 = CARTESIAN_POINT ( 'NONE',  ( 0.000000000000000000, 0.000000000000000000, 0.000000000000000000 ) ) ;
#202 = EDGE_LOOP ( 'NONE', ( #145, #205, #234, #168 ) ) ;
#203 = CIRCLE ( 'NONE', #199, 0.3750000000000000555 ) ;
#204 = FILL_AREA_STYLE ('',( #248 ) ) ;
#205 = ORIENTED_EDGE ( 'NONE', *, *, #127, .T. ) ;
#206 = EDGE_LOOP ( 'NONE', ( #68, #249 ) ) ;
#207 = EDGE_LOOP ( 'NONE', ( #94, #279 ) ) ;
#208 =( GEOMETRIC_REPRESENTATION_CONTEXT ( 3 ) GLOBAL_UNCERTAINTY_ASSIGNED_CONTEXT ( ( #187 ) ) GLOBAL_UNIT_ASSIGNED_CONTEXT ( ( #200, #44, #70 ) ) REPRESENTATION_CONTEXT ( 'NONE', 'WORKASPACE' ) );
#209 = ADVANCED_BREP_SHAPE_REPRESENTATION ( '03707', ( #275, #75, #55 ), #219 ) ;
#210 = FACE_OUTER_BOUND ( 'NONE', #146, .T. ) ;
#211 = EDGE_CURVE ( 'NONE', #181, #307, #39, .T. ) ;
#212 = UNCERTAINTY_MEASURE_WITH_UNIT (LENGTH_MEASURE( 1.000000000000000082E-05 ), #283, 'distance_accuracy_value', 'NONE');
#213 =( CONVERSION_BASED_UNIT ( 'INCH', #285 ) LENGTH_UNIT ( ) NAMED_UNIT ( #133 ) );
#214 = PRODUCT_DEFINITION_FORMATION_WITH_SPECIFIED_SOURCE ( 'ANY', '', #157, .NOT_KNOWN. ) ;
#215 = CARTESIAN_POINT ( 'NONE',  ( 4.592425496802575451E-17, 4.000000000000000000, 0.3750000000000000555 ) ) ;
#216 = EDGE_CURVE ( 'NONE', #164, #41, #101, .T. ) ;
#217 = DIRECTION ( 'NONE',  ( -0.000000000000000000, -1.000000000000000000, -0.000000000000000000 ) ) ;
#218 = PRESENTATION_LAYER_ASSIGNMENT (  '', '', ( #50 ) ) ;
#219 =( GEOMETRIC_REPRESENTATION_CONTEXT ( 3 ) GLOBAL_UNCERTAINTY_ASSIGNED_CONTEXT ( ( #138 ) ) GLOBAL_UNIT_ASSIGNED_CONTEXT ( ( #267, #196, #85 ) ) REPRESENTATION_CONTEXT ( 'NONE', 'WORKASPACE' ) );
#220 = PLANE ( 'NONE',  #308 ) ;
#221 = DIRECTION ( 'NONE',  ( 0.000000000000000000, 0.000000000000000000, -1.000000000000000000 ) ) ;
#222 =( CONVERSION_BASED_UNIT ( 'INCH', #129 ) LENGTH_UNIT ( ) NAMED_UNIT ( #295 ) );
#223 =( CONVERSION_BASED_UNIT ( 'INCH', #264 ) LENGTH_UNIT ( ) NAMED_UNIT ( #113 ) );
#224 = AXIS2_PLACEMENT_3D ( 'NONE', #151, #56, #126 ) ;
#225 = DIRECTION ( 'NONE',  ( -0.000000000000000000, -1.000000000000000000, -0.000000000000000000 ) ) ;
#226 = CARTESIAN_POINT ( 'NONE',  ( 0.000000000000000000, 0.000000000000000000, 0.000000000000000000 ) ) ;
#227 = DIMENSIONAL_EXPONENTS ( 1.000000000000000000, 0.000000000000000000, 0.000000000000000000, 0.000000000000000000, 0.000000000000000000, 0.000000000000000000, 0.000000000000000000 ) ;
#228 = VECTOR ( 'NONE', #71, 39.37007874015748143 ) ;
#229 = EDGE_LOOP ( 'NONE', ( #117, #45, #95, #143 ) ) ;
#230 = STYLED_ITEM ( 'NONE', ( #278 ), #301 ) ;
#231 = DIRECTION ( 'NONE',  ( 0.000000000000000000, -1.000000000000000000, -0.000000000000000000 ) ) ;
#232 = CARTESIAN_POINT ( 'NONE',  ( 0.3750000000000000555, 6.500000000000000000, 4.592425496802576068E-17 ) ) ;
#233 = PRODUCT_DEFINITION_CONTEXT ( 'detailed design', #121, 'design' ) ;
#234 = ORIENTED_EDGE ( 'NONE', *, *, #211, .T. ) ;
#235 = VERTEX_POINT ( 'NONE', #194 ) ;
#236 = MECHANICAL_DESIGN_GEOMETRIC_PRESENTATION_REPRESENTATION (  '', ( #155 ), #185 ) ;
#237 = DIRECTION ( 'NONE',  ( 1.000000000000000000, 0.000000000000000000, 0.000000000000000000 ) ) ;
#238 = DIRECTION ( 'NONE',  ( -1.000000000000000000, 0.000000000000000000, 0.000000000000000000 ) ) ;
#239 = DIRECTION ( 'NONE',  ( -2.449293598294703764E-17, 1.000000000000000000, 0.000000000000000000 ) ) ;
#240 = STYLED_ITEM ( 'NONE', ( #153 ), #77 ) ;
#241 = SURFACE_STYLE_FILL_AREA ( #263 ) ;
#242 =( CONVERSION_BASED_UNIT ( 'INCH', #26 ) LENGTH_UNIT ( ) NAMED_UNIT ( #176 ) );
#243 = FILL_AREA_STYLE ('',( #37 ) ) ;
#244 = ADVANCED_FACE ( 'NONE', ( #88 ), #57, .F. ) ;
#245 = DIRECTION ( 'NONE',  ( 1.000000000000000000, 2.449293598294703764E-17, 0.000000000000000000 ) ) ;
#246 = CARTESIAN_POINT ( 'NONE',  ( 4.592425496802575451E-17, 0.000000000000000000, 0.3750000000000000555 ) ) ;
#247 = DIRECTION ( 'NONE',  ( 0.000000000000000000, -0.000000000000000000, 1.000000000000000000 ) ) ;
#248 = FILL_AREA_STYLE_COLOUR ( '', #8 ) ;
#249 = ORIENTED_EDGE ( 'NONE', *, *, #80, .T. ) ;
#250 = LINE ( 'NONE', #42, #228 ) ;
#251 = ADVANCED_FACE ( 'NONE', ( #195 ), #220, .T. ) ;
#252 = EDGE_LOOP ( 'NONE', ( #256, #20 ) ) ;
#253 =( NAMED_UNIT ( * ) SI_UNIT ( $, .STERADIAN. ) SOLID_ANGLE_UNIT ( ) );
#254 = CARTESIAN_POINT ( 'NONE',  ( 0.3750000000000000555, 4.000000000000000000, 4.592425496802576068E-17 ) ) ;
#255 = SURFACE_SIDE_STYLE ('',( #159 ) ) ;
#256 = ORIENTED_EDGE ( 'NONE', *, *, #107, .F. ) ;
#257 = CLOSED_SHELL ( 'NONE', ( #17, #161, #296, #244 ) ) ;
#258 = AXIS2_PLACEMENT_3D ( 'NONE', #261, #98, #238 ) ;
#259 = PLANE ( 'NONE',  #54 ) ;
#260 =( LENGTH_UNIT ( ) NAMED_UNIT ( * ) SI_UNIT ( $, .METRE. ) );
#261 = CARTESIAN_POINT ( 'NONE',  ( 7.582401355855259480E-33, 4.000000000000000000, 0.000000000000000000 ) ) ;
#262 = AXIS2_PLACEMENT_3D ( 'NONE', #58, #154, #245 ) ;
#263 = FILL_AREA_STYLE ('',( #105 ) ) ;
#264 = LENGTH_MEASURE_WITH_UNIT ( LENGTH_MEASURE( 0.02539999999999999897 ), #13 );
#265 = ADVANCED_FACE ( 'NONE', ( #266 ), #15, .T. ) ;
#266 = FACE_OUTER_BOUND ( 'NONE', #207, .T. ) ;
#267 =( CONVERSION_BASED_UNIT ( 'INCH', #10 ) LENGTH_UNIT ( ) NAMED_UNIT ( #227 ) );
#268 = DIRECTION ( 'NONE',  ( 0.000000000000000000, 1.000000000000000000, 0.000000000000000000 ) ) ;
#269 = EDGE_CURVE ( 'NONE', #41, #164, #203, .T. ) ;
#270 = SURFACE_STYLE_FILL_AREA ( #243 ) ;
#271 = CIRCLE ( 'NONE', #136, 0.3750000000000001110 ) ;
#272 = DIRECTION ( 'NONE',  ( -1.000000000000000000, 0.000000000000000000, 0.000000000000000000 ) ) ;
#273 = DIMENSIONAL_EXPONENTS ( 1.000000000000000000, 0.000000000000000000, 0.000000000000000000, 0.000000000000000000, 0.000000000000000000, 0.000000000000000000, 0.000000000000000000 ) ;
#274 = LINE ( 'NONE', #232, #87 ) ;
#275 = MANIFOLD_SOLID_BREP ( 'Revolve - Cutting Edge', #51 ) ;
#276 = DIRECTION ( 'NONE',  ( -0.000000000000000000, -1.000000000000000000, -0.000000000000000000 ) ) ;
#277 = DIRECTION ( 'NONE',  ( -1.000000000000000000, 0.000000000000000000, 0.000000000000000000 ) ) ;
#278 = PRESENTATION_STYLE_ASSIGNMENT (( #40 ) ) ;
#279 = ORIENTED_EDGE ( 'NONE', *, *, #38, .T. ) ;
#280 = MECHANICAL_DESIGN_GEOMETRIC_PRESENTATION_REPRESENTATION (  '', ( #240 ), #115 ) ;
#281 = ORIENTED_EDGE ( 'NONE', *, *, #53, .F. ) ;
#282 = MECHANICAL_DESIGN_GEOMETRIC_PRESENTATION_REPRESENTATION (  '', ( #289 ), #32 ) ;
#283 =( CONVERSION_BASED_UNIT ( 'INCH', #186 ) LENGTH_UNIT ( ) NAMED_UNIT ( #273 ) );
#284 = VERTEX_POINT ( 'NONE', #302 ) ;
#285 = LENGTH_MEASURE_WITH_UNIT ( LENGTH_MEASURE( 0.02539999999999999897 ), #260 );
#286 = SHAPE_DEFINITION_REPRESENTATION ( #104, #209 ) ;
#287 = SURFACE_STYLE_USAGE ( .BOTH. , #149 ) ;
#288 = EDGE_CURVE ( 'NONE', #188, #235, #5, .T. ) ;
#289 = STYLED_ITEM ( 'NONE', ( #83 ), #265 ) ;
#290 = FILL_AREA_STYLE ('',( #35 ) ) ;
#291 = PRODUCT_CONTEXT ( 'NONE', #29, 'mechanical' ) ;
#292 = CARTESIAN_POINT ( 'NONE',  ( 0.000000000000000000, 0.000000000000000000, -0.3750000000000000555 ) ) ;
#293 = DIRECTION ( 'NONE',  ( -0.000000000000000000, -1.000000000000000000, -0.000000000000000000 ) ) ;
#294 = MECHANICAL_DESIGN_GEOMETRIC_PRESENTATION_REPRESENTATION (  '', ( #50 ), #165 ) ;
#295 = DIMENSIONAL_EXPONENTS ( 1.000000000000000000, 0.000000000000000000, 0.000000000000000000, 0.000000000000000000, 0.000000000000000000, 0.000000000000000000, 0.000000000000000000 ) ;
#296 = ADVANCED_FACE ( 'NONE', ( #144 ), #177, .T. ) ;
#297 =( NAMED_UNIT ( * ) SI_UNIT ( $, .STERADIAN. ) SOLID_ANGLE_UNIT ( ) );
#298 = COLOUR_RGB ( '',1.000000000000000000, 0.000000000000000000, 0.000000000000000000 ) ;
#299 = CYLINDRICAL_SURFACE ( 'NONE', #147, 0.3750000000000000555 ) ;
#300 = DIRECTION ( 'NONE',  ( -2.449293598294703764E-17, 1.000000000000000000, -0.000000000000000000 ) ) ;
#301 = ADVANCED_FACE ( 'NONE', ( #65 ), #299, .T. ) ;
#302 = CARTESIAN_POINT ( 'NONE',  ( 0.3750000000000000555, 6.500000000000000000, 4.592425496802576068E-17 ) ) ;
#303 = ORIENTED_EDGE ( 'NONE', *, *, #180, .T. ) ;
#304 =( NAMED_UNIT ( * ) SI_UNIT ( $, .STERADIAN. ) SOLID_ANGLE_UNIT ( ) );
#305 = DIRECTION ( 'NONE',  ( -2.449293598294704072E-17, 1.000000000000000000, -0.000000000000000000 ) ) ;
#306 = SURFACE_STYLE_FILL_AREA ( #204 ) ;
#307 = VERTEX_POINT ( 'NONE', #148 ) ;
#308 = AXIS2_PLACEMENT_3D ( 'NONE', #174, #268, #247 ) ;
#309 = CYLINDRICAL_SURFACE ( 'NONE', #100, 0.3750000000000001110 ) ;
ENDSEC;
END-ISO-10303-21;
