ISO-10303-21;
HEADER;
FILE_DESCRIPTION (( 'STEP AP214' ),
    '1' );
FILE_NAME ('83292.STEP',
    '2023-06-30T22:58:50',
    ( '' ),
    ( '' ),
    'SwSTEP 2.0',
    'SolidWorks 2023',
    '' );
FILE_SCHEMA (( 'AUTOMOTIVE_DESIGN' ));
ENDSEC;

DATA;
#1 = SURFACE_STYLE_FILL_AREA ( #149 ) ;
#2 =( NAMED_UNIT ( * ) SI_UNIT ( $, .STERADIAN. ) SOLID_ANGLE_UNIT ( ) );
#3 = SURFACE_STYLE_FILL_AREA ( #154 ) ;
#4 = CIRCLE ( 'NONE', #148, 0.1875000000000000555 ) ;
#5 = ADVANCED_FACE ( 'NONE', ( #330 ), #112, .T. ) ;
#6 = CARTESIAN_POINT ( 'NONE',  ( -1.148106374200643555E-17, -3.414809992080329023E-17, 0.000000000000000000 ) ) ;
#7 = DIRECTION ( 'NONE',  ( -1.224646799147353454E-16, 1.000000000000000000, 0.000000000000000000 ) ) ;
#8 = CARTESIAN_POINT ( 'NONE',  ( 0.1874999999999997780, 3.000000000000000444, 2.296212748401286185E-17 ) ) ;
#9 = EDGE_CURVE ( 'NONE', #14, #131, #177, .T. ) ;
#10 = FILL_AREA_STYLE_COLOUR ( '', #228 ) ;
#11 = DIMENSIONAL_EXPONENTS ( 1.000000000000000000, 0.000000000000000000, 0.000000000000000000, 0.000000000000000000, 0.000000000000000000, 0.000000000000000000, 0.000000000000000000 ) ;
#12 = AXIS2_PLACEMENT_3D ( 'NONE', #265, #7, #296 ) ;
#13 = CARTESIAN_POINT ( 'NONE',  ( -1.224646799147353700E-16, 3.000000000000000444, 0.000000000000000000 ) ) ;
#14 = VERTEX_POINT ( 'NONE', #175 ) ;
#15 = CYLINDRICAL_SURFACE ( 'NONE', #77, 0.1874999999999999722 ) ;
#16 = DIMENSIONAL_EXPONENTS ( 1.000000000000000000, 0.000000000000000000, 0.000000000000000000, 0.000000000000000000, 0.000000000000000000, 0.000000000000000000, 0.000000000000000000 ) ;
#17 = FACE_OUTER_BOUND ( 'NONE', #279, .T. ) ;
#18 = AXIS2_PLACEMENT_3D ( 'NONE', #246, #19, #334 ) ;
#19 = DIRECTION ( 'NONE',  ( 0.000000000000000000, 1.000000000000000000, 0.000000000000000000 ) ) ;
#20 = AXIS2_PLACEMENT_3D ( 'NONE', #25, #147, #284 ) ;
#21 = LENGTH_MEASURE_WITH_UNIT ( LENGTH_MEASURE( 0.02539999999999999897 ), #56 );
#22 = MECHANICAL_DESIGN_GEOMETRIC_PRESENTATION_REPRESENTATION (  '', ( #83 ), #255 ) ;
#23 = FILL_AREA_STYLE_COLOUR ( '', #99 ) ;
#24 = ADVANCED_BREP_SHAPE_REPRESENTATION ( '83292', ( #115, #359, #118 ), #282 ) ;
#25 = CARTESIAN_POINT ( 'NONE',  ( -2.296212748401287726E-17, 0.1875000000000000278, 0.000000000000000000 ) ) ;
#26 = MECHANICAL_DESIGN_GEOMETRIC_PRESENTATION_REPRESENTATION (  '', ( #371 ), #370 ) ;
#27 = STYLED_ITEM ( 'NONE', ( #331 ), #359 ) ;
#28 = ORIENTED_EDGE ( 'NONE', *, *, #9, .F. ) ;
#29 =( CONVERSION_BASED_UNIT ( 'INCH', #343 ) LENGTH_UNIT ( ) NAMED_UNIT ( #272 ) );
#30 =( CONVERSION_BASED_UNIT ( 'INCH', #218 ) LENGTH_UNIT ( ) NAMED_UNIT ( #11 ) );
#31 = EDGE_CURVE ( 'NONE', #131, #297, #54, .T. ) ;
#32 = DIRECTION ( 'NONE',  ( -1.224646799147353454E-16, 1.000000000000000000, -0.000000000000000000 ) ) ;
#33 = DIRECTION ( 'NONE',  ( 0.000000000000000000, 0.000000000000000000, -1.000000000000000000 ) ) ;
#34 = DIRECTION ( 'NONE',  ( 0.000000000000000000, 0.000000000000000000, -1.000000000000000000 ) ) ;
#35 =( LENGTH_UNIT ( ) NAMED_UNIT ( * ) SI_UNIT ( $, .METRE. ) );
#36 =( NAMED_UNIT ( * ) SI_UNIT ( $, .STERADIAN. ) SOLID_ANGLE_UNIT ( ) );
#37 = DIRECTION ( 'NONE',  ( -0.000000000000000000, -1.000000000000000000, -0.000000000000000000 ) ) ;
#38 = CARTESIAN_POINT ( 'NONE',  ( -2.296212748401287726E-17, 0.1875000000000000278, 0.000000000000000000 ) ) ;
#39 = COLOUR_RGB ( '',1.000000000000000000, 0.000000000000000000, 0.000000000000000000 ) ;
#40 = STYLED_ITEM ( 'NONE', ( #189 ), #115 ) ;
#41 = DIRECTION ( 'NONE',  ( -1.224646799147353454E-16, 1.000000000000000000, -0.000000000000000000 ) ) ;
#42 = SURFACE_SIDE_STYLE ('',( #304 ) ) ;
#43 = ORIENTED_EDGE ( 'NONE', *, *, #152, .F. ) ;
#44 = SURFACE_SIDE_STYLE ('',( #105 ) ) ;
#45 = ORIENTED_EDGE ( 'NONE', *, *, #156, .T. ) ;
#46 = APPLICATION_PROTOCOL_DEFINITION ( 'draft international standard', 'automotive_design', 1998, #82 ) ;
#47 = SURFACE_SIDE_STYLE ('',( #352 ) ) ;
#48 = CARTESIAN_POINT ( 'NONE',  ( 0.000000000000000000, 0.000000000000000000, 0.000000000000000000 ) ) ;
#49 = CIRCLE ( 'NONE', #257, 0.1875000000000000278 ) ;
#50 = FILL_AREA_STYLE ('',( #266 ) ) ;
#51 = CARTESIAN_POINT ( 'NONE',  ( 0.1874999999999999167, 3.000000000000000444, 2.296212748401287109E-17 ) ) ;
#52 = DIRECTION ( 'NONE',  ( 0.000000000000000000, 0.000000000000000000, -1.000000000000000000 ) ) ;
#53 = CYLINDRICAL_SURFACE ( 'NONE', #207, 0.1874999999999999722 ) ;
#54 = CIRCLE ( 'NONE', #20, 0.1875000000000000555 ) ;
#55 =( NAMED_UNIT ( * ) SI_UNIT ( $, .STERADIAN. ) SOLID_ANGLE_UNIT ( ) );
#56 =( LENGTH_UNIT ( ) NAMED_UNIT ( * ) SI_UNIT ( $, .METRE. ) );
#57 = EDGE_CURVE ( 'NONE', #72, #120, #106, .T. ) ;
#58 = VERTEX_POINT ( 'NONE', #87 ) ;
#59 = VECTOR ( 'NONE', #66, 39.37007874015748143 ) ;
#60 =( GEOMETRIC_REPRESENTATION_CONTEXT ( 3 ) GLOBAL_UNCERTAINTY_ASSIGNED_CONTEXT ( ( #268 ) ) GLOBAL_UNIT_ASSIGNED_CONTEXT ( ( #187, #127, #2 ) ) REPRESENTATION_CONTEXT ( 'NONE', 'WORKASPACE' ) );
#61 = UNCERTAINTY_MEASURE_WITH_UNIT (LENGTH_MEASURE( 1.000000000000000082E-05 ), #203, 'distance_accuracy_value', 'NONE');
#62 = DIRECTION ( 'NONE',  ( 1.000000000000000000, 0.000000000000000000, 0.000000000000000000 ) ) ;
#63 = DIRECTION ( 'NONE',  ( 1.000000000000000000, 0.000000000000000000, -1.224646799147353207E-16 ) ) ;
#64 = CARTESIAN_POINT ( 'NONE',  ( 0.000000000000000000, 0.000000000000000000, 0.000000000000000000 ) ) ;
#65 = CARTESIAN_POINT ( 'NONE',  ( -0.1874999999999996392, 0.8749999999999997780, 0.000000000000000000 ) ) ;
#66 = DIRECTION ( 'NONE',  ( -0.000000000000000000, -1.000000000000000000, -0.000000000000000000 ) ) ;
#67 = PRESENTATION_STYLE_ASSIGNMENT (( #348 ) ) ;
#68 =( GEOMETRIC_REPRESENTATION_CONTEXT ( 3 ) GLOBAL_UNCERTAINTY_ASSIGNED_CONTEXT ( ( #61 ) ) GLOBAL_UNIT_ASSIGNED_CONTEXT ( ( #203, #117, #55 ) ) REPRESENTATION_CONTEXT ( 'NONE', 'WORKASPACE' ) );
#69 =( NAMED_UNIT ( * ) SI_UNIT ( $, .STERADIAN. ) SOLID_ANGLE_UNIT ( ) );
#70 = VERTEX_POINT ( 'NONE', #339 ) ;
#71 =( NAMED_UNIT ( * ) PLANE_ANGLE_UNIT ( ) SI_UNIT ( $, .RADIAN. ) );
#72 = VERTEX_POINT ( 'NONE', #206 ) ;
#73 = LINE ( 'NONE', #8, #367 ) ;
#74 = ORIENTED_EDGE ( 'NONE', *, *, #168, .T. ) ;
#75 =( NAMED_UNIT ( * ) SI_UNIT ( $, .STERADIAN. ) SOLID_ANGLE_UNIT ( ) );
#76 = FILL_AREA_STYLE_COLOUR ( '', #324 ) ;
#77 = AXIS2_PLACEMENT_3D ( 'NONE', #64, #92, #238 ) ;
#78 = FILL_AREA_STYLE_COLOUR ( '', #89 ) ;
#79 = VERTEX_POINT ( 'NONE', #51 ) ;
#80 = CARTESIAN_POINT ( 'NONE',  ( 0.000000000000000000, 0.1875000000000000555, 0.000000000000000000 ) ) ;
#81 =( NAMED_UNIT ( * ) SI_UNIT ( $, .STERADIAN. ) SOLID_ANGLE_UNIT ( ) );
#82 = APPLICATION_CONTEXT ( 'automotive_design' ) ;
#83 = STYLED_ITEM ( 'NONE', ( #195 ), #250 ) ;
#84 =( NAMED_UNIT ( * ) PLANE_ANGLE_UNIT ( ) SI_UNIT ( $, .RADIAN. ) );
#85 =( CONVERSION_BASED_UNIT ( 'INCH', #21 ) LENGTH_UNIT ( ) NAMED_UNIT ( #326 ) );
#86 = DIRECTION ( 'NONE',  ( 0.000000000000000000, 0.000000000000000000, -1.000000000000000000 ) ) ;
#87 = CARTESIAN_POINT ( 'NONE',  ( 2.296212748401286493E-17, 0.8750000000000000000, 0.1874999999999999167 ) ) ;
#88 = DIRECTION ( 'NONE',  ( 0.000000000000000000, 0.000000000000000000, 1.000000000000000000 ) ) ;
#89 = COLOUR_RGB ( '',1.000000000000000000, 0.000000000000000000, 0.000000000000000000 ) ;
#90 = CARTESIAN_POINT ( 'NONE',  ( 0.1875000000000000278, 0.1875000000000000555, 0.000000000000000000 ) ) ;
#91 = MECHANICAL_DESIGN_GEOMETRIC_PRESENTATION_REPRESENTATION (  '', ( #40 ), #124 ) ;
#92 = DIRECTION ( 'NONE',  ( -0.000000000000000000, -1.000000000000000000, -0.000000000000000000 ) ) ;
#93 = DIRECTION ( 'NONE',  ( -0.000000000000000000, -1.000000000000000000, -0.000000000000000000 ) ) ;
#94 = UNCERTAINTY_MEASURE_WITH_UNIT (LENGTH_MEASURE( 1.000000000000000082E-05 ), #260, 'distance_accuracy_value', 'NONE');
#95 = ORIENTED_EDGE ( 'NONE', *, *, #31, .T. ) ;
#96 =( LENGTH_UNIT ( ) NAMED_UNIT ( * ) SI_UNIT ( $, .METRE. ) );
#97 = EDGE_CURVE ( 'NONE', #70, #134, #49, .T. ) ;
#98 = CARTESIAN_POINT ( 'NONE',  ( -0.1875000000000000555, 3.000000000000000444, 0.000000000000000000 ) ) ;
#99 = COLOUR_RGB ( '',1.000000000000000000, 0.000000000000000000, 0.000000000000000000 ) ;
#100 =( NAMED_UNIT ( * ) PLANE_ANGLE_UNIT ( ) SI_UNIT ( $, .RADIAN. ) );
#101 = SPHERICAL_SURFACE ( 'NONE', #280, 0.1875000000000000555 ) ;
#102 = DIRECTION ( 'NONE',  ( 0.000000000000000000, 0.000000000000000000, -1.000000000000000000 ) ) ;
#103 = LENGTH_MEASURE_WITH_UNIT ( LENGTH_MEASURE( 0.02539999999999999897 ), #190 );
#104 = ADVANCED_FACE ( 'NONE', ( #172 ), #53, .T. ) ;
#105 = SURFACE_STYLE_FILL_AREA ( #245 ) ;
#106 = CIRCLE ( 'NONE', #363, 0.1874999999999997780 ) ;
#107 = ORIENTED_EDGE ( 'NONE', *, *, #168, .F. ) ;
#108 = FILL_AREA_STYLE ('',( #78 ) ) ;
#109 = CARTESIAN_POINT ( 'NONE',  ( 0.1874999999999999167, 3.000000000000000444, 0.000000000000000000 ) ) ;
#110 = DIRECTION ( 'NONE',  ( 0.000000000000000000, 0.000000000000000000, 1.000000000000000000 ) ) ;
#111 = CIRCLE ( 'NONE', #179, 0.1874999999999997780 ) ;
#112 = SPHERICAL_SURFACE ( 'NONE', #286, 0.1875000000000000555 ) ;
#113 = ADVANCED_FACE ( 'NONE', ( #322 ), #213, .F. ) ;
#114 = PRODUCT_DEFINITION_SHAPE ( 'NONE', 'NONE',  #283 ) ;
#115 = MANIFOLD_SOLID_BREP ( 'Revolve - Cutting Edge', #125 ) ;
#116 = DIRECTION ( 'NONE',  ( 0.000000000000000000, 0.000000000000000000, 1.000000000000000000 ) ) ;
#117 =( NAMED_UNIT ( * ) PLANE_ANGLE_UNIT ( ) SI_UNIT ( $, .RADIAN. ) );
#118 = AXIS2_PLACEMENT_3D ( 'NONE', #48, #110, #312 ) ;
#119 = DIRECTION ( 'NONE',  ( -0.000000000000000000, -1.000000000000000000, -0.000000000000000000 ) ) ;
#120 = VERTEX_POINT ( 'NONE', #65 ) ;
#121 = CARTESIAN_POINT ( 'NONE',  ( 1.377727649040772882E-16, 0.8749999999999997780, 0.000000000000000000 ) ) ;
#122 = SURFACE_SIDE_STYLE ('',( #1 ) ) ;
#123 =( NAMED_UNIT ( * ) SI_UNIT ( $, .STERADIAN. ) SOLID_ANGLE_UNIT ( ) );
#124 =( GEOMETRIC_REPRESENTATION_CONTEXT ( 3 ) GLOBAL_UNCERTAINTY_ASSIGNED_CONTEXT ( ( #94 ) ) GLOBAL_UNIT_ASSIGNED_CONTEXT ( ( #260, #100, #123 ) ) REPRESENTATION_CONTEXT ( 'NONE', 'WORKASPACE' ) );
#125 = CLOSED_SHELL ( 'NONE', ( #5, #250, #191, #104, #317 ) ) ;
#126 = SURFACE_SIDE_STYLE ('',( #3 ) ) ;
#127 =( NAMED_UNIT ( * ) PLANE_ANGLE_UNIT ( ) SI_UNIT ( $, .RADIAN. ) );
#128 = UNCERTAINTY_MEASURE_WITH_UNIT (LENGTH_MEASURE( 1.000000000000000082E-05 ), #29, 'distance_accuracy_value', 'NONE');
#129 = AXIS2_PLACEMENT_3D ( 'NONE', #211, #184, #33 ) ;
#130 = PLANE ( 'NONE',  #230 ) ;
#131 = VERTEX_POINT ( 'NONE', #90 ) ;
#132 = UNCERTAINTY_MEASURE_WITH_UNIT (LENGTH_MEASURE( 1.000000000000000082E-05 ), #137, 'distance_accuracy_value', 'NONE');
#133 = SURFACE_STYLE_USAGE ( .BOTH. , #122 ) ;
#134 = VERTEX_POINT ( 'NONE', #208 ) ;
#135 = FILL_AREA_STYLE_COLOUR ( '', #39 ) ;
#136 = SURFACE_STYLE_USAGE ( .BOTH. , #42 ) ;
#137 =( CONVERSION_BASED_UNIT ( 'INCH', #335 ) LENGTH_UNIT ( ) NAMED_UNIT ( #16 ) );
#138 = ORIENTED_EDGE ( 'NONE', *, *, #315, .F. ) ;
#139 = DIRECTION ( 'NONE',  ( 0.000000000000000000, 0.000000000000000000, -1.000000000000000000 ) ) ;
#140 = ORIENTED_EDGE ( 'NONE', *, *, #271, .F. ) ;
#141 = CIRCLE ( 'NONE', #194, 0.1875000000000000278 ) ;
#142 =( LENGTH_UNIT ( ) NAMED_UNIT ( * ) SI_UNIT ( $, .METRE. ) );
#143 = SURFACE_SIDE_STYLE ('',( #287 ) ) ;
#144 = PRESENTATION_LAYER_ASSIGNMENT (  '', '', ( #338 ) ) ;
#145 = EDGE_CURVE ( 'NONE', #134, #297, #313, .T. ) ;
#146 = MECHANICAL_DESIGN_GEOMETRIC_PRESENTATION_REPRESENTATION (  '', ( #264 ), #60 ) ;
#147 = DIRECTION ( 'NONE',  ( 0.000000000000000000, 0.000000000000000000, -1.000000000000000000 ) ) ;
#148 = AXIS2_PLACEMENT_3D ( 'NONE', #236, #347, #186 ) ;
#149 = FILL_AREA_STYLE ('',( #291 ) ) ;
#150 =( NAMED_UNIT ( * ) PLANE_ANGLE_UNIT ( ) SI_UNIT ( $, .RADIAN. ) );
#151 = DIRECTION ( 'NONE',  ( -1.224646799147353454E-16, 1.000000000000000000, -0.000000000000000000 ) ) ;
#152 = EDGE_CURVE ( 'NONE', #79, #221, #310, .T. ) ;
#153 = FACE_OUTER_BOUND ( 'NONE', #333, .T. ) ;
#154 = FILL_AREA_STYLE ('',( #10 ) ) ;
#155 = LENGTH_MEASURE_WITH_UNIT ( LENGTH_MEASURE( 0.02539999999999999897 ), #96 );
#156 = EDGE_CURVE ( 'NONE', #58, #70, #235, .T. ) ;
#157 = DIRECTION ( 'NONE',  ( -0.000000000000000000, -1.000000000000000000, -0.000000000000000000 ) ) ;
#158 =( GEOMETRIC_REPRESENTATION_CONTEXT ( 3 ) GLOBAL_UNCERTAINTY_ASSIGNED_CONTEXT ( ( #128 ) ) GLOBAL_UNIT_ASSIGNED_CONTEXT ( ( #29, #294, #36 ) ) REPRESENTATION_CONTEXT ( 'NONE', 'WORKASPACE' ) );
#159 = DIRECTION ( 'NONE',  ( -1.224646799147353454E-16, 1.000000000000000000, -0.000000000000000000 ) ) ;
#160 = AXIS2_PLACEMENT_3D ( 'NONE', #174, #119, #86 ) ;
#161 = ORIENTED_EDGE ( 'NONE', *, *, #329, .F. ) ;
#162 = DIRECTION ( 'NONE',  ( 1.224646799147353454E-16, -1.000000000000000000, 0.000000000000000000 ) ) ;
#163 = ORIENTED_EDGE ( 'NONE', *, *, #31, .F. ) ;
#164 = CARTESIAN_POINT ( 'NONE',  ( -0.1875000000000001943, 3.000000000000000444, 0.000000000000000000 ) ) ;
#165 = EDGE_LOOP ( 'NONE', ( #336, #220, #198, #161 ) ) ;
#166 = MECHANICAL_DESIGN_GEOMETRIC_PRESENTATION_REPRESENTATION (  '', ( #337 ), #68 ) ;
#167 = SHAPE_DEFINITION_REPRESENTATION ( #114, #24 ) ;
#168 = EDGE_CURVE ( 'NONE', #134, #14, #344, .T. ) ;
#169 = ORIENTED_EDGE ( 'NONE', *, *, #293, .F. ) ;
#170 = FILL_AREA_STYLE ('',( #76 ) ) ;
#171 = PRODUCT_CONTEXT ( 'NONE', #314, 'mechanical' ) ;
#172 = FACE_OUTER_BOUND ( 'NONE', #201, .T. ) ;
#173 = CIRCLE ( 'NONE', #199, 0.1874999999999999167 ) ;
#174 = CARTESIAN_POINT ( 'NONE',  ( 0.000000000000000000, 0.1875000000000000555, 0.000000000000000000 ) ) ;
#175 = CARTESIAN_POINT ( 'NONE',  ( 0.000000000000000000, 0.1875000000000000555, -0.1875000000000000278 ) ) ;
#176 = AXIS2_PLACEMENT_3D ( 'NONE', #181, #151, #261 ) ;
#177 = CIRCLE ( 'NONE', #160, 0.1875000000000000278 ) ;
#178 = CARTESIAN_POINT ( 'NONE',  ( -2.296212748401287726E-17, 0.1875000000000000278, 0.000000000000000000 ) ) ;
#179 = AXIS2_PLACEMENT_3D ( 'NONE', #295, #32, #263 ) ;
#180 = LINE ( 'NONE', #98, #318 ) ;
#181 = CARTESIAN_POINT ( 'NONE',  ( -1.224646799147353700E-16, 3.000000000000000444, 0.000000000000000000 ) ) ;
#182 = DIMENSIONAL_EXPONENTS ( 1.000000000000000000, 0.000000000000000000, 0.000000000000000000, 0.000000000000000000, 0.000000000000000000, 0.000000000000000000, 0.000000000000000000 ) ;
#183 = DIRECTION ( 'NONE',  ( 0.000000000000000000, 0.000000000000000000, -1.000000000000000000 ) ) ;
#184 = DIRECTION ( 'NONE',  ( -0.000000000000000000, -1.000000000000000000, -0.000000000000000000 ) ) ;
#185 = EDGE_CURVE ( 'NONE', #256, #58, #285, .T. ) ;
#186 = DIRECTION ( 'NONE',  ( -1.000000000000000000, 0.000000000000000000, 0.000000000000000000 ) ) ;
#187 =( CONVERSION_BASED_UNIT ( 'INCH', #325 ) LENGTH_UNIT ( ) NAMED_UNIT ( #188 ) );
#188 = DIMENSIONAL_EXPONENTS ( 1.000000000000000000, 0.000000000000000000, 0.000000000000000000, 0.000000000000000000, 0.000000000000000000, 0.000000000000000000, 0.000000000000000000 ) ;
#189 = PRESENTATION_STYLE_ASSIGNMENT (( #267 ) ) ;
#190 =( LENGTH_UNIT ( ) NAMED_UNIT ( * ) SI_UNIT ( $, .METRE. ) );
#191 = ADVANCED_FACE ( 'NONE', ( #327 ), #278, .T. ) ;
#192 = FACE_OUTER_BOUND ( 'NONE', #165, .T. ) ;
#193 = DIRECTION ( 'NONE',  ( -1.224646799147353454E-16, 1.000000000000000000, -0.000000000000000000 ) ) ;
#194 = AXIS2_PLACEMENT_3D ( 'NONE', #80, #157, #102 ) ;
#195 = PRESENTATION_STYLE_ASSIGNMENT (( #355 ) ) ;
#196 = ORIENTED_EDGE ( 'NONE', *, *, #156, .F. ) ;
#197 = EDGE_CURVE ( 'NONE', #131, #70, #141, .T. ) ;
#198 = ORIENTED_EDGE ( 'NONE', *, *, #309, .F. ) ;
#199 = AXIS2_PLACEMENT_3D ( 'NONE', #298, #37, #183 ) ;
#200 = AXIS2_PLACEMENT_3D ( 'NONE', #217, #205, #328 ) ;
#201 = EDGE_LOOP ( 'NONE', ( #196, #288, #249, #107, #305 ) ) ;
#202 = DIRECTION ( 'NONE',  ( -0.000000000000000000, -1.000000000000000000, -0.000000000000000000 ) ) ;
#203 =( CONVERSION_BASED_UNIT ( 'INCH', #251 ) LENGTH_UNIT ( ) NAMED_UNIT ( #214 ) );
#204 = CARTESIAN_POINT ( 'NONE',  ( -2.296212748401287726E-17, 0.1875000000000000278, 0.000000000000000000 ) ) ;
#205 = DIRECTION ( 'NONE',  ( -1.224646799147353454E-16, 1.000000000000000000, -0.000000000000000000 ) ) ;
#206 = CARTESIAN_POINT ( 'NONE',  ( 0.1874999999999999167, 0.8749999999999997780, 2.296212748401287109E-17 ) ) ;
#207 = AXIS2_PLACEMENT_3D ( 'NONE', #237, #240, #34 ) ;
#208 = CARTESIAN_POINT ( 'NONE',  ( -0.1875000000000000555, 0.1875000000000000555, 2.296212748401288034E-17 ) ) ;
#209 = DIMENSIONAL_EXPONENTS ( 1.000000000000000000, 0.000000000000000000, 0.000000000000000000, 0.000000000000000000, 0.000000000000000000, 0.000000000000000000, 0.000000000000000000 ) ;
#210 = CARTESIAN_POINT ( 'NONE',  ( 0.000000000000000000, 0.8750000000000000000, -0.1874999999999999167 ) ) ;
#211 = CARTESIAN_POINT ( 'NONE',  ( 0.000000000000000000, 0.1875000000000000555, 0.000000000000000000 ) ) ;
#212 = LINE ( 'NONE', #321, #59 ) ;
#213 = PLANE ( 'NONE',  #12 ) ;
#214 = DIMENSIONAL_EXPONENTS ( 1.000000000000000000, 0.000000000000000000, 0.000000000000000000, 0.000000000000000000, 0.000000000000000000, 0.000000000000000000, 0.000000000000000000 ) ;
#215 = ORIENTED_EDGE ( 'NONE', *, *, #57, .F. ) ;
#216 = UNCERTAINTY_MEASURE_WITH_UNIT (LENGTH_MEASURE( 1.000000000000000082E-05 ), #30, 'distance_accuracy_value', 'NONE');
#217 = CARTESIAN_POINT ( 'NONE',  ( -1.224646799147353700E-16, 3.000000000000000444, 0.000000000000000000 ) ) ;
#218 = LENGTH_MEASURE_WITH_UNIT ( LENGTH_MEASURE( 0.02539999999999999897 ), #269 );
#219 = EDGE_LOOP ( 'NONE', ( #277, #231, #244, #43 ) ) ;
#220 = ORIENTED_EDGE ( 'NONE', *, *, #351, .T. ) ;
#221 = VERTEX_POINT ( 'NONE', #164 ) ;
#222 = CYLINDRICAL_SURFACE ( 'NONE', #200, 0.1874999999999999167 ) ;
#223 = ORIENTED_EDGE ( 'NONE', *, *, #9, .T. ) ;
#224 =( LENGTH_UNIT ( ) NAMED_UNIT ( * ) SI_UNIT ( $, .METRE. ) );
#225 = MECHANICAL_DESIGN_GEOMETRIC_PRESENTATION_REPRESENTATION (  '', ( #338 ), #258 ) ;
#226 = ADVANCED_FACE ( 'NONE', ( #192 ), #248, .T. ) ;
#227 = DIRECTION ( 'NONE',  ( -0.000000000000000000, -1.000000000000000000, -0.000000000000000000 ) ) ;
#228 = COLOUR_RGB ( '',0.7921568627450980005, 0.8196078431372548767, 0.9333333333333333481 ) ;
#229 = DIRECTION ( 'NONE',  ( -1.224646799147353454E-16, 1.000000000000000000, -0.000000000000000000 ) ) ;
#230 = AXIS2_PLACEMENT_3D ( 'NONE', #109, #162, #243 ) ;
#231 = ORIENTED_EDGE ( 'NONE', *, *, #57, .T. ) ;
#232 = DIRECTION ( 'NONE',  ( -1.000000000000000000, 0.000000000000000000, 0.000000000000000000 ) ) ;
#233 =( LENGTH_UNIT ( ) NAMED_UNIT ( * ) SI_UNIT ( $, .METRE. ) );
#234 = CLOSED_SHELL ( 'NONE', ( #226, #113, #342, #239 ) ) ;
#235 = LINE ( 'NONE', #345, #252 ) ;
#236 = CARTESIAN_POINT ( 'NONE',  ( -1.224646799147353700E-16, 3.000000000000000444, 0.000000000000000000 ) ) ;
#237 = CARTESIAN_POINT ( 'NONE',  ( 0.000000000000000000, 0.000000000000000000, 0.000000000000000000 ) ) ;
#238 = DIRECTION ( 'NONE',  ( 0.000000000000000000, 0.000000000000000000, -1.000000000000000000 ) ) ;
#239 = ADVANCED_FACE ( 'NONE', ( #17 ), #130, .F. ) ;
#240 = DIRECTION ( 'NONE',  ( -0.000000000000000000, -1.000000000000000000, -0.000000000000000000 ) ) ;
#241 = MECHANICAL_DESIGN_GEOMETRIC_PRESENTATION_REPRESENTATION (  '', ( #27 ), #158 ) ;
#242 = PRESENTATION_LAYER_ASSIGNMENT (  '', '', ( #27 ) ) ;
#243 = DIRECTION ( 'NONE',  ( 1.000000000000000000, 1.224646799147353454E-16, 0.000000000000000000 ) ) ;
#244 = ORIENTED_EDGE ( 'NONE', *, *, #329, .T. ) ;
#245 = FILL_AREA_STYLE ('',( #135 ) ) ;
#246 = CARTESIAN_POINT ( 'NONE',  ( 0.000000000000000000, 0.8750000000000000000, 0.000000000000000000 ) ) ;
#247 = EDGE_LOOP ( 'NONE', ( #169, #215 ) ) ;
#248 = CYLINDRICAL_SURFACE ( 'NONE', #292, 0.1874999999999999167 ) ;
#249 = ORIENTED_EDGE ( 'NONE', *, *, #315, .T. ) ;
#250 = ADVANCED_FACE ( 'NONE', ( #276 ), #15, .T. ) ;
#251 = LENGTH_MEASURE_WITH_UNIT ( LENGTH_MEASURE( 0.02539999999999999897 ), #142 );
#252 = VECTOR ( 'NONE', #93, 39.37007874015748143 ) ;
#253 = SURFACE_STYLE_USAGE ( .BOTH. , #361 ) ;
#254 = PRESENTATION_LAYER_ASSIGNMENT (  '', '', ( #40 ) ) ;
#255 =( GEOMETRIC_REPRESENTATION_CONTEXT ( 3 ) GLOBAL_UNCERTAINTY_ASSIGNED_CONTEXT ( ( #216 ) ) GLOBAL_UNIT_ASSIGNED_CONTEXT ( ( #30, #150, #69 ) ) REPRESENTATION_CONTEXT ( 'NONE', 'WORKASPACE' ) );
#256 = VERTEX_POINT ( 'NONE', #210 ) ;
#257 = AXIS2_PLACEMENT_3D ( 'NONE', #366, #202, #52 ) ;
#258 =( GEOMETRIC_REPRESENTATION_CONTEXT ( 3 ) GLOBAL_UNCERTAINTY_ASSIGNED_CONTEXT ( ( #132 ) ) GLOBAL_UNIT_ASSIGNED_CONTEXT ( ( #137, #71, #75 ) ) REPRESENTATION_CONTEXT ( 'NONE', 'WORKASPACE' ) );
#259 =( NAMED_UNIT ( * ) PLANE_ANGLE_UNIT ( ) SI_UNIT ( $, .RADIAN. ) );
#260 =( CONVERSION_BASED_UNIT ( 'INCH', #155 ) LENGTH_UNIT ( ) NAMED_UNIT ( #182 ) );
#261 = DIRECTION ( 'NONE',  ( -1.000000000000000000, 0.000000000000000000, 0.000000000000000000 ) ) ;
#262 = PRESENTATION_LAYER_ASSIGNMENT (  '', '', ( #337 ) ) ;
#263 = DIRECTION ( 'NONE',  ( -1.000000000000000000, 0.000000000000000000, 0.000000000000000000 ) ) ;
#264 = STYLED_ITEM ( 'NONE', ( #67 ), #104 ) ;
#265 = CARTESIAN_POINT ( 'NONE',  ( 1.377727649040772389E-16, 0.8750000000000000000, 0.000000000000000000 ) ) ;
#266 = FILL_AREA_STYLE_COLOUR ( '', #274 ) ;
#267 = SURFACE_STYLE_USAGE ( .BOTH. , #126 ) ;
#268 = UNCERTAINTY_MEASURE_WITH_UNIT (LENGTH_MEASURE( 1.000000000000000082E-05 ), #187, 'distance_accuracy_value', 'NONE');
#269 =( LENGTH_UNIT ( ) NAMED_UNIT ( * ) SI_UNIT ( $, .METRE. ) );
#270 = ORIENTED_EDGE ( 'NONE', *, *, #145, .F. ) ;
#271 = EDGE_CURVE ( 'NONE', #58, #256, #173, .T. ) ;
#272 = DIMENSIONAL_EXPONENTS ( 1.000000000000000000, 0.000000000000000000, 0.000000000000000000, 0.000000000000000000, 0.000000000000000000, 0.000000000000000000, 0.000000000000000000 ) ;
#273 =( CONVERSION_BASED_UNIT ( 'INCH', #103 ) LENGTH_UNIT ( ) NAMED_UNIT ( #209 ) );
#274 = COLOUR_RGB ( '',1.000000000000000000, 0.000000000000000000, 0.000000000000000000 ) ;
#275 = EDGE_LOOP ( 'NONE', ( #332, #45, #358, #28, #138 ) ) ;
#276 = FACE_OUTER_BOUND ( 'NONE', #275, .T. ) ;
#277 = ORIENTED_EDGE ( 'NONE', *, *, #351, .F. ) ;
#278 = PLANE ( 'NONE',  #18 ) ;
#279 = EDGE_LOOP ( 'NONE', ( #372, #290 ) ) ;
#280 = AXIS2_PLACEMENT_3D ( 'NONE', #38, #88, #62 ) ;
#281 = SURFACE_STYLE_USAGE ( .BOTH. , #47 ) ;
#282 =( GEOMETRIC_REPRESENTATION_CONTEXT ( 3 ) GLOBAL_UNCERTAINTY_ASSIGNED_CONTEXT ( ( #353 ) ) GLOBAL_UNIT_ASSIGNED_CONTEXT ( ( #273, #259, #81 ) ) REPRESENTATION_CONTEXT ( 'NONE', 'WORKASPACE' ) );
#283 = PRODUCT_DEFINITION ( 'UNKNOWN', '', #369, #349 ) ;
#284 = DIRECTION ( 'NONE',  ( -1.000000000000000000, 0.000000000000000000, 0.000000000000000000 ) ) ;
#285 = CIRCLE ( 'NONE', #289, 0.1874999999999999167 ) ;
#286 = AXIS2_PLACEMENT_3D ( 'NONE', #204, #116, #368 ) ;
#287 = SURFACE_STYLE_FILL_AREA ( #340 ) ;
#288 = ORIENTED_EDGE ( 'NONE', *, *, #271, .T. ) ;
#289 = AXIS2_PLACEMENT_3D ( 'NONE', #300, #227, #139 ) ;
#290 = ORIENTED_EDGE ( 'NONE', *, *, #152, .T. ) ;
#291 = FILL_AREA_STYLE_COLOUR ( '', #350 ) ;
#292 = AXIS2_PLACEMENT_3D ( 'NONE', #13, #41, #360 ) ;
#293 = EDGE_CURVE ( 'NONE', #120, #72, #111, .T. ) ;
#294 =( NAMED_UNIT ( * ) PLANE_ANGLE_UNIT ( ) SI_UNIT ( $, .RADIAN. ) );
#295 = CARTESIAN_POINT ( 'NONE',  ( 1.377727649040772882E-16, 0.8749999999999997780, 0.000000000000000000 ) ) ;
#296 = DIRECTION ( 'NONE',  ( -1.000000000000000000, -1.224646799147353454E-16, 0.000000000000000000 ) ) ;
#297 = VERTEX_POINT ( 'NONE', #6 ) ;
#298 = CARTESIAN_POINT ( 'NONE',  ( 0.000000000000000000, 0.8750000000000000000, 0.000000000000000000 ) ) ;
#299 = EDGE_LOOP ( 'NONE', ( #301, #373, #163, #354 ) ) ;
#300 = CARTESIAN_POINT ( 'NONE',  ( 0.000000000000000000, 0.8750000000000000000, 0.000000000000000000 ) ) ;
#301 = ORIENTED_EDGE ( 'NONE', *, *, #97, .T. ) ;
#302 = FACE_OUTER_BOUND ( 'NONE', #219, .T. ) ;
#303 = PRODUCT_RELATED_PRODUCT_CATEGORY ( 'part', '', ( #364 ) ) ;
#304 = SURFACE_STYLE_FILL_AREA ( #170 ) ;
#305 = ORIENTED_EDGE ( 'NONE', *, *, #97, .F. ) ;
#306 = PRESENTATION_STYLE_ASSIGNMENT (( #281 ) ) ;
#307 = PRESENTATION_STYLE_ASSIGNMENT (( #136 ) ) ;
#308 = EDGE_LOOP ( 'NONE', ( #319, #140 ) ) ;
#309 = EDGE_CURVE ( 'NONE', #221, #79, #4, .T. ) ;
#310 = CIRCLE ( 'NONE', #176, 0.1875000000000000555 ) ;
#311 = PRESENTATION_LAYER_ASSIGNMENT (  '', '', ( #264 ) ) ;
#312 = DIRECTION ( 'NONE',  ( 1.000000000000000000, 0.000000000000000000, 0.000000000000000000 ) ) ;
#313 = CIRCLE ( 'NONE', #362, 0.1875000000000000555 ) ;
#314 = APPLICATION_CONTEXT ( 'automotive_design' ) ;
#315 = EDGE_CURVE ( 'NONE', #256, #14, #212, .T. ) ;
#316 = UNCERTAINTY_MEASURE_WITH_UNIT (LENGTH_MEASURE( 1.000000000000000082E-05 ), #85, 'distance_accuracy_value', 'NONE');
#317 = ADVANCED_FACE ( 'NONE', ( #153 ), #101, .T. ) ;
#318 = VECTOR ( 'NONE', #193, 39.37007874015748143 ) ;
#319 = ORIENTED_EDGE ( 'NONE', *, *, #185, .F. ) ;
#320 = DIRECTION ( 'NONE',  ( 1.224646799147353207E-16, -0.000000000000000000, 1.000000000000000000 ) ) ;
#321 = CARTESIAN_POINT ( 'NONE',  ( 0.000000000000000000, 0.000000000000000000, -0.1874999999999999722 ) ) ;
#322 = FACE_OUTER_BOUND ( 'NONE', #247, .T. ) ;
#323 = PRESENTATION_LAYER_ASSIGNMENT (  '', '', ( #83 ) ) ;
#324 = COLOUR_RGB ( '',1.000000000000000000, 0.000000000000000000, 0.000000000000000000 ) ;
#325 = LENGTH_MEASURE_WITH_UNIT ( LENGTH_MEASURE( 0.02539999999999999897 ), #35 );
#326 = DIMENSIONAL_EXPONENTS ( 1.000000000000000000, 0.000000000000000000, 0.000000000000000000, 0.000000000000000000, 0.000000000000000000, 0.000000000000000000, 0.000000000000000000 ) ;
#327 = FACE_OUTER_BOUND ( 'NONE', #308, .T. ) ;
#328 = DIRECTION ( 'NONE',  ( -1.000000000000000000, 0.000000000000000000, 0.000000000000000000 ) ) ;
#329 = EDGE_CURVE ( 'NONE', #120, #221, #180, .T. ) ;
#330 = FACE_OUTER_BOUND ( 'NONE', #299, .T. ) ;
#331 = PRESENTATION_STYLE_ASSIGNMENT (( #133 ) ) ;
#332 = ORIENTED_EDGE ( 'NONE', *, *, #185, .T. ) ;
#333 = EDGE_LOOP ( 'NONE', ( #270, #74, #223, #95 ) ) ;
#334 = DIRECTION ( 'NONE',  ( 0.000000000000000000, -0.000000000000000000, 1.000000000000000000 ) ) ;
#335 = LENGTH_MEASURE_WITH_UNIT ( LENGTH_MEASURE( 0.02539999999999999897 ), #224 );
#336 = ORIENTED_EDGE ( 'NONE', *, *, #293, .T. ) ;
#337 = STYLED_ITEM ( 'NONE', ( #346 ), #317 ) ;
#338 = STYLED_ITEM ( 'NONE', ( #306 ), #191 ) ;
#339 = CARTESIAN_POINT ( 'NONE',  ( 2.296212748401287109E-17, 0.1875000000000000555, 0.1875000000000000278 ) ) ;
#340 = FILL_AREA_STYLE ('',( #23 ) ) ;
#341 =( NAMED_UNIT ( * ) SI_UNIT ( $, .STERADIAN. ) SOLID_ANGLE_UNIT ( ) );
#342 = ADVANCED_FACE ( 'NONE', ( #302 ), #222, .T. ) ;
#343 = LENGTH_MEASURE_WITH_UNIT ( LENGTH_MEASURE( 0.02539999999999999897 ), #233 );
#344 = CIRCLE ( 'NONE', #129, 0.1875000000000000278 ) ;
#345 = CARTESIAN_POINT ( 'NONE',  ( 2.296212748401286801E-17, 0.000000000000000000, 0.1874999999999999722 ) ) ;
#346 = PRESENTATION_STYLE_ASSIGNMENT (( #253 ) ) ;
#347 = DIRECTION ( 'NONE',  ( -1.224646799147353454E-16, 1.000000000000000000, -0.000000000000000000 ) ) ;
#348 = SURFACE_STYLE_USAGE ( .BOTH. , #143 ) ;
#349 = PRODUCT_DEFINITION_CONTEXT ( 'detailed design', #82, 'design' ) ;
#350 = COLOUR_RGB ( '',0.7921568627450980005, 0.8196078431372548767, 0.9333333333333333481 ) ;
#351 = EDGE_CURVE ( 'NONE', #72, #79, #73, .T. ) ;
#352 = SURFACE_STYLE_FILL_AREA ( #108 ) ;
#353 = UNCERTAINTY_MEASURE_WITH_UNIT (LENGTH_MEASURE( 1.000000000000000082E-05 ), #273, 'distance_accuracy_value', 'NONE');
#354 = ORIENTED_EDGE ( 'NONE', *, *, #197, .T. ) ;
#355 = SURFACE_STYLE_USAGE ( .BOTH. , #44 ) ;
#356 = PRESENTATION_LAYER_ASSIGNMENT (  '', '', ( #371 ) ) ;
#357 = APPLICATION_PROTOCOL_DEFINITION ( 'draft international standard', 'automotive_design', 1998, #314 ) ;
#358 = ORIENTED_EDGE ( 'NONE', *, *, #197, .F. ) ;
#359 = MANIFOLD_SOLID_BREP ( 'Revolve - Tool Body (Straight Shanked)', #234 ) ;
#360 = DIRECTION ( 'NONE',  ( -1.000000000000000000, 0.000000000000000000, 0.000000000000000000 ) ) ;
#361 = SURFACE_SIDE_STYLE ('',( #365 ) ) ;
#362 = AXIS2_PLACEMENT_3D ( 'NONE', #178, #320, #63 ) ;
#363 = AXIS2_PLACEMENT_3D ( 'NONE', #121, #229, #232 ) ;
#364 = PRODUCT ( '83292', '83292', '', ( #171 ) ) ;
#365 = SURFACE_STYLE_FILL_AREA ( #50 ) ;
#366 = CARTESIAN_POINT ( 'NONE',  ( 0.000000000000000000, 0.1875000000000000555, 0.000000000000000000 ) ) ;
#367 = VECTOR ( 'NONE', #159, 39.37007874015748143 ) ;
#368 = DIRECTION ( 'NONE',  ( 1.000000000000000000, 0.000000000000000000, 0.000000000000000000 ) ) ;
#369 = PRODUCT_DEFINITION_FORMATION_WITH_SPECIFIED_SOURCE ( 'ANY', '', #364, .NOT_KNOWN. ) ;
#370 =( GEOMETRIC_REPRESENTATION_CONTEXT ( 3 ) GLOBAL_UNCERTAINTY_ASSIGNED_CONTEXT ( ( #316 ) ) GLOBAL_UNIT_ASSIGNED_CONTEXT ( ( #85, #84, #341 ) ) REPRESENTATION_CONTEXT ( 'NONE', 'WORKASPACE' ) );
#371 = STYLED_ITEM ( 'NONE', ( #307 ), #5 ) ;
#372 = ORIENTED_EDGE ( 'NONE', *, *, #309, .T. ) ;
#373 = ORIENTED_EDGE ( 'NONE', *, *, #145, .T. ) ;
ENDSEC;
END-ISO-10303-21;
