ISO-10303-21;
HEADER;
FILE_DESCRIPTION (( 'STEP AP214' ),
    '1' );
FILE_NAME ('49030.STEP',
    '2023-06-30T21:55:19',
    ( '' ),
    ( '' ),
    'SwSTEP 2.0',
    'SolidWorks 2023',
    '' );
FILE_SCHEMA (( 'AUTOMOTIVE_DESIGN' ));
ENDSEC;

DATA;
#1 = ORIENTED_EDGE ( 'NONE', *, *, #84, .F. ) ;
#2 = EDGE_CURVE ( 'NONE', #347, #97, #298, .T. ) ;
#3 =( GEOMETRIC_REPRESENTATION_CONTEXT ( 3 ) GLOBAL_UNCERTAINTY_ASSIGNED_CONTEXT ( ( #129 ) ) GLOBAL_UNIT_ASSIGNED_CONTEXT ( ( #26, #336, #219 ) ) REPRESENTATION_CONTEXT ( 'NONE', 'WORKASPACE' ) );
#4 = EDGE_LOOP ( 'NONE', ( #25, #329, #5, #343, #333 ) ) ;
#5 = ORIENTED_EDGE ( 'NONE', *, *, #296, .F. ) ;
#6 = ORIENTED_EDGE ( 'NONE', *, *, #72, .T. ) ;
#7 =( NAMED_UNIT ( * ) PLANE_ANGLE_UNIT ( ) SI_UNIT ( $, .RADIAN. ) );
#8 =( LENGTH_UNIT ( ) NAMED_UNIT ( * ) SI_UNIT ( $, .METRE. ) );
#9 = FILL_AREA_STYLE ('',( #240 ) ) ;
#10 = PRESENTATION_STYLE_ASSIGNMENT (( #203 ) ) ;
#11 = EDGE_CURVE ( 'NONE', #201, #287, #326, .T. ) ;
#12 = DIRECTION ( 'NONE',  ( 0.000000000000000000, 0.000000000000000000, -1.000000000000000000 ) ) ;
#13 = MECHANICAL_DESIGN_GEOMETRIC_PRESENTATION_REPRESENTATION (  '', ( #255 ), #92 ) ;
#14 = AXIS2_PLACEMENT_3D ( 'NONE', #134, #69, #155 ) ;
#15 = PRESENTATION_STYLE_ASSIGNMENT (( #268 ) ) ;
#16 = ORIENTED_EDGE ( 'NONE', *, *, #119, .T. ) ;
#17 = DIRECTION ( 'NONE',  ( -0.000000000000000000, -1.000000000000000000, -0.000000000000000000 ) ) ;
#18 = DIRECTION ( 'NONE',  ( -0.000000000000000000, -1.000000000000000000, -0.000000000000000000 ) ) ;
#19 = DIRECTION ( 'NONE',  ( -1.219888675382006564E-16, 1.000000000000000000, -0.000000000000000000 ) ) ;
#20 = ORIENTED_EDGE ( 'NONE', *, *, #351, .F. ) ;
#21 = AXIS2_PLACEMENT_3D ( 'NONE', #173, #289, #156 ) ;
#22 = FILL_AREA_STYLE_COLOUR ( '', #131 ) ;
#23 = AXIS2_PLACEMENT_3D ( 'NONE', #76, #43, #359 ) ;
#24 = CARTESIAN_POINT ( 'NONE',  ( 7.654042494670951382E-18, 0.000000000000000000, 0.06249999999999995143 ) ) ;
#25 = ORIENTED_EDGE ( 'NONE', *, *, #35, .T. ) ;
#26 =( CONVERSION_BASED_UNIT ( 'INCH', #310 ) LENGTH_UNIT ( ) NAMED_UNIT ( #51 ) );
#27 =( NAMED_UNIT ( * ) SI_UNIT ( $, .STERADIAN. ) SOLID_ANGLE_UNIT ( ) );
#28 = MANIFOLD_SOLID_BREP ( 'Revolve - Tool Body (Straight Shanked)', #206 ) ;
#29 = SURFACE_STYLE_USAGE ( .BOTH. , #224 ) ;
#30 = CARTESIAN_POINT ( 'NONE',  ( -7.654042494670957545E-18, 0.06250000000000001388, 0.000000000000000000 ) ) ;
#31 = AXIS2_PLACEMENT_3D ( 'NONE', #104, #294, #348 ) ;
#32 = DIMENSIONAL_EXPONENTS ( 1.000000000000000000, 0.000000000000000000, 0.000000000000000000, 0.000000000000000000, 0.000000000000000000, 0.000000000000000000, 0.000000000000000000 ) ;
#33 =( GEOMETRIC_REPRESENTATION_CONTEXT ( 3 ) GLOBAL_UNCERTAINTY_ASSIGNED_CONTEXT ( ( #322 ) ) GLOBAL_UNIT_ASSIGNED_CONTEXT ( ( #39, #264, #27 ) ) REPRESENTATION_CONTEXT ( 'NONE', 'WORKASPACE' ) );
#34 = SURFACE_STYLE_FILL_AREA ( #193 ) ;
#35 = EDGE_CURVE ( 'NONE', #229, #113, #235, .T. ) ;
#36 = EDGE_LOOP ( 'NONE', ( #231, #195, #354, #94 ) ) ;
#37 = PRESENTATION_STYLE_ASSIGNMENT (( #130 ) ) ;
#38 = EDGE_CURVE ( 'NONE', #347, #274, #163, .T. ) ;
#39 =( CONVERSION_BASED_UNIT ( 'INCH', #178 ) LENGTH_UNIT ( ) NAMED_UNIT ( #32 ) );
#40 = SURFACE_STYLE_FILL_AREA ( #67 ) ;
#41 = DIRECTION ( 'NONE',  ( 0.000000000000000000, 0.000000000000000000, -1.000000000000000000 ) ) ;
#42 = STYLED_ITEM ( 'NONE', ( #371 ), #269 ) ;
#43 = DIRECTION ( 'NONE',  ( -1.219888675382006564E-16, 1.000000000000000000, -0.000000000000000000 ) ) ;
#44 = ADVANCED_FACE ( 'NONE', ( #216 ), #280, .T. ) ;
#45 = CARTESIAN_POINT ( 'NONE',  ( -3.827021247335479543E-18, 3.414809992080329023E-17, 0.000000000000000000 ) ) ;
#46 = ORIENTED_EDGE ( 'NONE', *, *, #372, .T. ) ;
#47 = PRESENTATION_LAYER_ASSIGNMENT (  '', '', ( #184 ) ) ;
#48 = PLANE ( 'NONE',  #175 ) ;
#49 = DIRECTION ( 'NONE',  ( -1.219888675382006564E-16, 1.000000000000000000, 0.000000000000000000 ) ) ;
#50 = FILL_AREA_STYLE ('',( #86 ) ) ;
#51 = DIMENSIONAL_EXPONENTS ( 1.000000000000000000, 0.000000000000000000, 0.000000000000000000, 0.000000000000000000, 0.000000000000000000, 0.000000000000000000, 0.000000000000000000 ) ;
#52 = LENGTH_MEASURE_WITH_UNIT ( LENGTH_MEASURE( 0.02539999999999999897 ), #341 );
#53 = PRESENTATION_LAYER_ASSIGNMENT (  '', '', ( #122 ) ) ;
#54 = STYLED_ITEM ( 'NONE', ( #15 ), #91 ) ;
#55 = ADVANCED_FACE ( 'NONE', ( #304 ), #243, .F. ) ;
#56 = AXIS2_PLACEMENT_3D ( 'NONE', #30, #338, #305 ) ;
#57 = CARTESIAN_POINT ( 'NONE',  ( 5.811124641243243013E-16, 0.2500000000000000555, 0.000000000000000000 ) ) ;
#58 = DIRECTION ( 'NONE',  ( -1.219888675382006564E-16, 1.000000000000000000, -0.000000000000000000 ) ) ;
#59 = DIRECTION ( 'NONE',  ( -1.000000000000000000, 0.000000000000000000, 0.000000000000000000 ) ) ;
#60 = ORIENTED_EDGE ( 'NONE', *, *, #35, .F. ) ;
#61 = COLOUR_RGB ( '',0.7921568627450980005, 0.8196078431372548767, 0.9333333333333333481 ) ;
#62 = PRESENTATION_LAYER_ASSIGNMENT (  '', '', ( #42 ) ) ;
#63 = AXIS2_PLACEMENT_3D ( 'NONE', #80, #363, #90 ) ;
#64 = UNCERTAINTY_MEASURE_WITH_UNIT (LENGTH_MEASURE( 1.000000000000000082E-05 ), #323, 'distance_accuracy_value', 'NONE');
#65 = DIRECTION ( 'NONE',  ( -0.000000000000000000, -1.000000000000000000, -0.000000000000000000 ) ) ;
#66 = ADVANCED_FACE ( 'NONE', ( #356 ), #247, .T. ) ;
#67 = FILL_AREA_STYLE ('',( #151 ) ) ;
#68 = SURFACE_STYLE_FILL_AREA ( #299 ) ;
#69 = DIRECTION ( 'NONE',  ( -0.000000000000000000, -1.000000000000000000, -0.000000000000000000 ) ) ;
#70 = SURFACE_STYLE_FILL_AREA ( #9 ) ;
#71 = CARTESIAN_POINT ( 'NONE',  ( 0.000000000000000000, 0.2500000000000000555, 0.000000000000000000 ) ) ;
#72 = EDGE_CURVE ( 'NONE', #259, #205, #170, .T. ) ;
#73 = FILL_AREA_STYLE_COLOUR ( '', #214 ) ;
#74 = DIRECTION ( 'NONE',  ( -1.219888675382006564E-16, 1.000000000000000000, -0.000000000000000000 ) ) ;
#75 = COLOUR_RGB ( '',1.000000000000000000, 0.000000000000000000, 0.000000000000000000 ) ;
#76 = CARTESIAN_POINT ( 'NONE',  ( 4.286263797015735609E-16, 1.499999999999999778, 0.000000000000000000 ) ) ;
#77 = PRESENTATION_STYLE_ASSIGNMENT (( #29 ) ) ;
#78 = CARTESIAN_POINT ( 'NONE',  ( 7.654042494670951382E-18, 0.2500000000000000555, 0.06249999999999995143 ) ) ;
#79 = EDGE_LOOP ( 'NONE', ( #335, #16, #1, #361 ) ) ;
#80 = CARTESIAN_POINT ( 'NONE',  ( 0.000000000000000000, 0.000000000000000000, 0.000000000000000000 ) ) ;
#81 =( CONVERSION_BASED_UNIT ( 'INCH', #89 ) LENGTH_UNIT ( ) NAMED_UNIT ( #226 ) );
#82 = CARTESIAN_POINT ( 'NONE',  ( 0.000000000000000000, 0.2500000000000000555, 0.000000000000000000 ) ) ;
#83 = VERTEX_POINT ( 'NONE', #181 ) ;
#84 = EDGE_CURVE ( 'NONE', #274, #83, #107, .T. ) ;
#85 = AXIS2_PLACEMENT_3D ( 'NONE', #71, #320, #180 ) ;
#86 = FILL_AREA_STYLE_COLOUR ( '', #75 ) ;
#87 = AXIS2_PLACEMENT_3D ( 'NONE', #179, #261, #355 ) ;
#88 = CARTESIAN_POINT ( 'NONE',  ( 4.286263797015735609E-16, 1.499999999999999778, 0.000000000000000000 ) ) ;
#89 = LENGTH_MEASURE_WITH_UNIT ( LENGTH_MEASURE( 0.02539999999999999897 ), #302 );
#90 = DIRECTION ( 'NONE',  ( 1.000000000000000000, 0.000000000000000000, 0.000000000000000000 ) ) ;
#91 = ADVANCED_FACE ( 'NONE', ( #293 ), #241, .T. ) ;
#92 =( GEOMETRIC_REPRESENTATION_CONTEXT ( 3 ) GLOBAL_UNCERTAINTY_ASSIGNED_CONTEXT ( ( #265 ) ) GLOBAL_UNIT_ASSIGNED_CONTEXT ( ( #81, #218, #164 ) ) REPRESENTATION_CONTEXT ( 'NONE', 'WORKASPACE' ) );
#93 = AXIS2_PLACEMENT_3D ( 'NONE', #132, #204, #350 ) ;
#94 = ORIENTED_EDGE ( 'NONE', *, *, #140, .F. ) ;
#95 =( GEOMETRIC_REPRESENTATION_CONTEXT ( 3 ) GLOBAL_UNCERTAINTY_ASSIGNED_CONTEXT ( ( #260 ) ) GLOBAL_UNIT_ASSIGNED_CONTEXT ( ( #112, #166, #146 ) ) REPRESENTATION_CONTEXT ( 'NONE', 'WORKASPACE' ) );
#96 = ORIENTED_EDGE ( 'NONE', *, *, #372, .F. ) ;
#97 = VERTEX_POINT ( 'NONE', #262 ) ;
#98 = DIRECTION ( 'NONE',  ( -1.219888675382006564E-16, 1.000000000000000000, -0.000000000000000000 ) ) ;
#99 = SURFACE_SIDE_STYLE ('',( #70 ) ) ;
#100 =( GEOMETRIC_REPRESENTATION_CONTEXT ( 3 ) GLOBAL_UNCERTAINTY_ASSIGNED_CONTEXT ( ( #186 ) ) GLOBAL_UNIT_ASSIGNED_CONTEXT ( ( #174, #177, #238 ) ) REPRESENTATION_CONTEXT ( 'NONE', 'WORKASPACE' ) );
#101 =( LENGTH_UNIT ( ) NAMED_UNIT ( * ) SI_UNIT ( $, .METRE. ) );
#102 = ORIENTED_EDGE ( 'NONE', *, *, #2, .F. ) ;
#103 = FACE_OUTER_BOUND ( 'NONE', #79, .T. ) ;
#104 = CARTESIAN_POINT ( 'NONE',  ( 0.000000000000000000, 0.06250000000000001388, 0.000000000000000000 ) ) ;
#105 = CARTESIAN_POINT ( 'NONE',  ( -7.654042494670957545E-18, 0.06250000000000001388, 0.000000000000000000 ) ) ;
#106 = ORIENTED_EDGE ( 'NONE', *, *, #315, .F. ) ;
#107 = CIRCLE ( 'NONE', #327, 0.06249999999999952122 ) ;
#108 = CARTESIAN_POINT ( 'NONE',  ( -0.06249999999999901468, 1.499999999999999778, 0.000000000000000000 ) ) ;
#109 = DIRECTION ( 'NONE',  ( -0.000000000000000000, -1.000000000000000000, -0.000000000000000000 ) ) ;
#110 = DIRECTION ( 'NONE',  ( 0.000000000000000000, -0.000000000000000000, 1.000000000000000000 ) ) ;
#111 = EDGE_LOOP ( 'NONE', ( #102, #317 ) ) ;
#112 =( CONVERSION_BASED_UNIT ( 'INCH', #114 ) LENGTH_UNIT ( ) NAMED_UNIT ( #340 ) );
#113 = VERTEX_POINT ( 'NONE', #78 ) ;
#114 = LENGTH_MEASURE_WITH_UNIT ( LENGTH_MEASURE( 0.02539999999999999897 ), #213 );
#115 = AXIS2_PLACEMENT_3D ( 'NONE', #105, #139, #245 ) ;
#116 = CARTESIAN_POINT ( 'NONE',  ( -0.06249999999999996531, 0.06250000000000001388, 7.654042494670952923E-18 ) ) ;
#117 = DIMENSIONAL_EXPONENTS ( 1.000000000000000000, 0.000000000000000000, 0.000000000000000000, 0.000000000000000000, 0.000000000000000000, 0.000000000000000000, 0.000000000000000000 ) ;
#118 =( LENGTH_UNIT ( ) NAMED_UNIT ( * ) SI_UNIT ( $, .METRE. ) );
#119 = EDGE_CURVE ( 'NONE', #97, #83, #246, .T. ) ;
#120 = APPLICATION_PROTOCOL_DEFINITION ( 'draft international standard', 'automotive_design', 1998, #142 ) ;
#121 = DIMENSIONAL_EXPONENTS ( 1.000000000000000000, 0.000000000000000000, 0.000000000000000000, 0.000000000000000000, 0.000000000000000000, 0.000000000000000000, 0.000000000000000000 ) ;
#122 = STYLED_ITEM ( 'NONE', ( #10 ), #28 ) ;
#123 = EDGE_LOOP ( 'NONE', ( #154, #172, #171, #352, #106 ) ) ;
#124 = MECHANICAL_DESIGN_GEOMETRIC_PRESENTATION_REPRESENTATION (  '', ( #54 ), #33 ) ;
#125 = EDGE_LOOP ( 'NONE', ( #96, #286, #276, #6 ) ) ;
#126 = PRODUCT_DEFINITION ( 'UNKNOWN', '', #275, #208 ) ;
#127 = EDGE_LOOP ( 'NONE', ( #217, #366 ) ) ;
#128 = MECHANICAL_DESIGN_GEOMETRIC_PRESENTATION_REPRESENTATION (  '', ( #220 ), #95 ) ;
#129 = UNCERTAINTY_MEASURE_WITH_UNIT (LENGTH_MEASURE( 1.000000000000000082E-05 ), #26, 'distance_accuracy_value', 'NONE');
#130 = SURFACE_STYLE_USAGE ( .BOTH. , #99 ) ;
#131 = COLOUR_RGB ( '',1.000000000000000000, 0.000000000000000000, 0.000000000000000000 ) ;
#132 = CARTESIAN_POINT ( 'NONE',  ( -7.654042494670957545E-18, 0.06250000000000001388, 0.000000000000000000 ) ) ;
#133 = LENGTH_MEASURE_WITH_UNIT ( LENGTH_MEASURE( 0.02539999999999999897 ), #292 );
#134 = CARTESIAN_POINT ( 'NONE',  ( 0.000000000000000000, 0.000000000000000000, 0.000000000000000000 ) ) ;
#135 = DIRECTION ( 'NONE',  ( -1.000000000000000000, 0.000000000000000000, 0.000000000000000000 ) ) ;
#136 = CARTESIAN_POINT ( 'NONE',  ( -0.06249999999999909100, 1.499999999999999778, 0.000000000000000000 ) ) ;
#137 = SURFACE_STYLE_USAGE ( .BOTH. , #253 ) ;
#138 = VECTOR ( 'NONE', #17, 39.37007874015748143 ) ;
#139 = DIRECTION ( 'NONE',  ( 0.000000000000000000, 0.000000000000000000, 1.000000000000000000 ) ) ;
#140 = EDGE_CURVE ( 'NONE', #83, #274, #273, .T. ) ;
#141 = CARTESIAN_POINT ( 'NONE',  ( 0.000000000000000000, 0.06250000000000001388, 0.000000000000000000 ) ) ;
#142 = APPLICATION_CONTEXT ( 'automotive_design' ) ;
#143 = FILL_AREA_STYLE_COLOUR ( '', #157 ) ;
#144 = CARTESIAN_POINT ( 'NONE',  ( 0.000000000000000000, 0.2500000000000000555, -0.06249999999999995143 ) ) ;
#145 = AXIS2_PLACEMENT_3D ( 'NONE', #57, #98, #210 ) ;
#146 =( NAMED_UNIT ( * ) SI_UNIT ( $, .STERADIAN. ) SOLID_ANGLE_UNIT ( ) );
#147 = CIRCLE ( 'NONE', #291, 0.06249999999999995143 ) ;
#148 = DIMENSIONAL_EXPONENTS ( 1.000000000000000000, 0.000000000000000000, 0.000000000000000000, 0.000000000000000000, 0.000000000000000000, 0.000000000000000000, 0.000000000000000000 ) ;
#149 = MANIFOLD_SOLID_BREP ( 'Revolve - Cutting Edge', #150 ) ;
#150 = CLOSED_SHELL ( 'NONE', ( #91, #269, #66, #332, #44 ) ) ;
#151 = FILL_AREA_STYLE_COLOUR ( '', #61 ) ;
#152 = AXIS2_PLACEMENT_3D ( 'NONE', #88, #19, #135 ) ;
#153 = UNCERTAINTY_MEASURE_WITH_UNIT (LENGTH_MEASURE( 1.000000000000000082E-05 ), #221, 'distance_accuracy_value', 'NONE');
#154 = ORIENTED_EDGE ( 'NONE', *, *, #233, .F. ) ;
#155 = DIRECTION ( 'NONE',  ( 0.000000000000000000, 0.000000000000000000, -1.000000000000000000 ) ) ;
#156 = DIRECTION ( 'NONE',  ( 0.000000000000000000, 0.000000000000000000, -1.000000000000000000 ) ) ;
#157 = COLOUR_RGB ( '',0.7921568627450980005, 0.8196078431372548767, 0.9333333333333333481 ) ;
#158 = DIRECTION ( 'NONE',  ( -1.219888675382006564E-16, 1.000000000000000000, -0.000000000000000000 ) ) ;
#159 = DIRECTION ( 'NONE',  ( -1.219888675382006564E-16, 1.000000000000000000, -0.000000000000000000 ) ) ;
#160 = LINE ( 'NONE', #24, #138 ) ;
#161 = ORIENTED_EDGE ( 'NONE', *, *, #296, .T. ) ;
#162 = FACE_OUTER_BOUND ( 'NONE', #36, .T. ) ;
#163 = LINE ( 'NONE', #108, #284 ) ;
#164 =( NAMED_UNIT ( * ) SI_UNIT ( $, .STERADIAN. ) SOLID_ANGLE_UNIT ( ) );
#165 = ADVANCED_FACE ( 'NONE', ( #162 ), #189, .T. ) ;
#166 =( NAMED_UNIT ( * ) PLANE_ANGLE_UNIT ( ) SI_UNIT ( $, .RADIAN. ) );
#167 =( CONVERSION_BASED_UNIT ( 'INCH', #52 ) LENGTH_UNIT ( ) NAMED_UNIT ( #148 ) );
#168 = AXIS2_PLACEMENT_3D ( 'NONE', #188, #252, #364 ) ;
#169 = ORIENTED_EDGE ( 'NONE', *, *, #72, .F. ) ;
#170 = CIRCLE ( 'NONE', #281, 0.06249999999999997918 ) ;
#171 = ORIENTED_EDGE ( 'NONE', *, *, #303, .T. ) ;
#172 = ORIENTED_EDGE ( 'NONE', *, *, #351, .T. ) ;
#173 = CARTESIAN_POINT ( 'NONE',  ( 0.000000000000000000, 0.06250000000000001388, 0.000000000000000000 ) ) ;
#174 =( CONVERSION_BASED_UNIT ( 'INCH', #133 ) LENGTH_UNIT ( ) NAMED_UNIT ( #121 ) );
#175 = AXIS2_PLACEMENT_3D ( 'NONE', #191, #49, #249 ) ;
#176 = CARTESIAN_POINT ( 'NONE',  ( 0.000000000000000000, 0.000000000000000000, -0.06249999999999995143 ) ) ;
#177 =( NAMED_UNIT ( * ) PLANE_ANGLE_UNIT ( ) SI_UNIT ( $, .RADIAN. ) );
#178 = LENGTH_MEASURE_WITH_UNIT ( LENGTH_MEASURE( 0.02539999999999999897 ), #8 );
#179 = CARTESIAN_POINT ( 'NONE',  ( 0.000000000000000000, 0.000000000000000000, 0.000000000000000000 ) ) ;
#180 = DIRECTION ( 'NONE',  ( 0.000000000000000000, 0.000000000000000000, -1.000000000000000000 ) ) ;
#181 = CARTESIAN_POINT ( 'NONE',  ( 0.06249999999999993755, 1.499999999999999778, 7.654042494670892834E-18 ) ) ;
#182 = CARTESIAN_POINT ( 'NONE',  ( 4.286263797015735609E-16, 1.499999999999999778, 0.000000000000000000 ) ) ;
#183 = PRESENTATION_LAYER_ASSIGNMENT (  '', '', ( #220 ) ) ;
#184 = STYLED_ITEM ( 'NONE', ( #325 ), #66 ) ;
#185 = CIRCLE ( 'NONE', #358, 0.06249999999999995143 ) ;
#186 = UNCERTAINTY_MEASURE_WITH_UNIT (LENGTH_MEASURE( 1.000000000000000082E-05 ), #174, 'distance_accuracy_value', 'NONE');
#187 = CYLINDRICAL_SURFACE ( 'NONE', #87, 0.06249999999999995143 ) ;
#188 = CARTESIAN_POINT ( 'NONE',  ( 0.06249999999999995143, 1.499999999999999778, 0.000000000000000000 ) ) ;
#189 = CYLINDRICAL_SURFACE ( 'NONE', #23, 0.06249999999999944489 ) ;
#190 =( LENGTH_UNIT ( ) NAMED_UNIT ( * ) SI_UNIT ( $, .METRE. ) );
#191 = CARTESIAN_POINT ( 'NONE',  ( 5.811124641243243013E-16, 0.2500000000000000555, 0.000000000000000000 ) ) ;
#192 = APPLICATION_CONTEXT ( 'automotive_design' ) ;
#193 = FILL_AREA_STYLE ('',( #334 ) ) ;
#194 = CARTESIAN_POINT ( 'NONE',  ( -7.654042494670957545E-18, 0.06250000000000001388, 0.000000000000000000 ) ) ;
#195 = ORIENTED_EDGE ( 'NONE', *, *, #282, .T. ) ;
#196 = AXIS2_PLACEMENT_3D ( 'NONE', #212, #271, #59 ) ;
#197 = DIRECTION ( 'NONE',  ( 0.000000000000000000, 0.000000000000000000, -1.000000000000000000 ) ) ;
#198 = ADVANCED_BREP_SHAPE_REPRESENTATION ( '49030', ( #149, #28, #63 ), #199 ) ;
#199 =( GEOMETRIC_REPRESENTATION_CONTEXT ( 3 ) GLOBAL_UNCERTAINTY_ASSIGNED_CONTEXT ( ( #153 ) ) GLOBAL_UNIT_ASSIGNED_CONTEXT ( ( #221, #277, #339 ) ) REPRESENTATION_CONTEXT ( 'NONE', 'WORKASPACE' ) );
#200 = ADVANCED_FACE ( 'NONE', ( #337 ), #48, .F. ) ;
#201 = VERTEX_POINT ( 'NONE', #116 ) ;
#202 = CIRCLE ( 'NONE', #31, 0.06249999999999995143 ) ;
#203 = SURFACE_STYLE_USAGE ( .BOTH. , #232 ) ;
#204 = DIRECTION ( 'NONE',  ( 1.224646799147353207E-16, -0.000000000000000000, 1.000000000000000000 ) ) ;
#205 = VERTEX_POINT ( 'NONE', #45 ) ;
#206 = CLOSED_SHELL ( 'NONE', ( #311, #200, #165, #55 ) ) ;
#207 = PRODUCT_DEFINITION_SHAPE ( 'NONE', 'NONE',  #126 ) ;
#208 = PRODUCT_DEFINITION_CONTEXT ( 'detailed design', #192, 'design' ) ;
#209 = CARTESIAN_POINT ( 'NONE',  ( -0.06249999999999878569, 0.2500000000000000555, 0.000000000000000000 ) ) ;
#210 = DIRECTION ( 'NONE',  ( -1.000000000000000000, 0.000000000000000000, 0.000000000000000000 ) ) ;
#211 = DIRECTION ( 'NONE',  ( -1.000000000000000000, 0.000000000000000000, 0.000000000000000000 ) ) ;
#212 = CARTESIAN_POINT ( 'NONE',  ( 5.811124641243243013E-16, 0.2500000000000000555, 0.000000000000000000 ) ) ;
#213 =( LENGTH_UNIT ( ) NAMED_UNIT ( * ) SI_UNIT ( $, .METRE. ) );
#214 = COLOUR_RGB ( '',1.000000000000000000, 0.000000000000000000, 0.000000000000000000 ) ;
#215 = SURFACE_STYLE_FILL_AREA ( #50 ) ;
#216 = FACE_OUTER_BOUND ( 'NONE', #125, .T. ) ;
#217 = ORIENTED_EDGE ( 'NONE', *, *, #84, .T. ) ;
#218 =( NAMED_UNIT ( * ) PLANE_ANGLE_UNIT ( ) SI_UNIT ( $, .RADIAN. ) );
#219 =( NAMED_UNIT ( * ) SI_UNIT ( $, .STERADIAN. ) SOLID_ANGLE_UNIT ( ) );
#220 = STYLED_ITEM ( 'NONE', ( #77 ), #44 ) ;
#221 =( CONVERSION_BASED_UNIT ( 'INCH', #301 ) LENGTH_UNIT ( ) NAMED_UNIT ( #117 ) );
#222 = MECHANICAL_DESIGN_GEOMETRIC_PRESENTATION_REPRESENTATION (  '', ( #184 ), #3 ) ;
#223 = MECHANICAL_DESIGN_GEOMETRIC_PRESENTATION_REPRESENTATION (  '', ( #244 ), #236 ) ;
#224 = SURFACE_SIDE_STYLE ('',( #368 ) ) ;
#225 = FACE_OUTER_BOUND ( 'NONE', #4, .T. ) ;
#226 = DIMENSIONAL_EXPONENTS ( 1.000000000000000000, 0.000000000000000000, 0.000000000000000000, 0.000000000000000000, 0.000000000000000000, 0.000000000000000000, 0.000000000000000000 ) ;
#227 = SURFACE_STYLE_USAGE ( .BOTH. , #256 ) ;
#228 = COLOUR_RGB ( '',1.000000000000000000, 0.000000000000000000, 0.000000000000000000 ) ;
#229 = VERTEX_POINT ( 'NONE', #144 ) ;
#230 = COLOUR_RGB ( '',1.000000000000000000, 0.000000000000000000, 0.000000000000000000 ) ;
#231 = ORIENTED_EDGE ( 'NONE', *, *, #119, .F. ) ;
#232 = SURFACE_SIDE_STYLE ('',( #40 ) ) ;
#233 = EDGE_CURVE ( 'NONE', #113, #308, #160, .T. ) ;
#234 = CARTESIAN_POINT ( 'NONE',  ( 7.654042494670951382E-18, 0.06250000000000001388, 0.06249999999999995143 ) ) ;
#235 = CIRCLE ( 'NONE', #85, 0.06249999999999995143 ) ;
#236 =( GEOMETRIC_REPRESENTATION_CONTEXT ( 3 ) GLOBAL_UNCERTAINTY_ASSIGNED_CONTEXT ( ( #64 ) ) GLOBAL_UNIT_ASSIGNED_CONTEXT ( ( #323, #7, #237 ) ) REPRESENTATION_CONTEXT ( 'NONE', 'WORKASPACE' ) );
#237 =( NAMED_UNIT ( * ) SI_UNIT ( $, .STERADIAN. ) SOLID_ANGLE_UNIT ( ) );
#238 =( NAMED_UNIT ( * ) SI_UNIT ( $, .STERADIAN. ) SOLID_ANGLE_UNIT ( ) );
#239 = PRODUCT ( '49030', '49030', '', ( #309 ) ) ;
#240 = FILL_AREA_STYLE_COLOUR ( '', #230 ) ;
#241 = SPHERICAL_SURFACE ( 'NONE', #56, 0.06249999999999997918 ) ;
#242 = CYLINDRICAL_SURFACE ( 'NONE', #342, 0.06249999999999944489 ) ;
#243 = PLANE ( 'NONE',  #168 ) ;
#244 = STYLED_ITEM ( 'NONE', ( #37 ), #332 ) ;
#245 = DIRECTION ( 'NONE',  ( 1.000000000000000000, 0.000000000000000000, 0.000000000000000000 ) ) ;
#246 = LINE ( 'NONE', #328, #373 ) ;
#247 = PLANE ( 'NONE',  #316 ) ;
#248 = SURFACE_STYLE_USAGE ( .BOTH. , #331 ) ;
#249 = DIRECTION ( 'NONE',  ( -1.000000000000000000, -1.219888675382006564E-16, 0.000000000000000000 ) ) ;
#250 = DIRECTION ( 'NONE',  ( -1.000000000000000000, 0.000000000000000000, 0.000000000000000000 ) ) ;
#251 = EDGE_CURVE ( 'NONE', #287, #259, #147, .T. ) ;
#252 = DIRECTION ( 'NONE',  ( 1.219888675382006564E-16, -1.000000000000000000, 0.000000000000000000 ) ) ;
#253 = SURFACE_SIDE_STYLE ('',( #365 ) ) ;
#254 = MECHANICAL_DESIGN_GEOMETRIC_PRESENTATION_REPRESENTATION (  '', ( #122 ), #100 ) ;
#255 = STYLED_ITEM ( 'NONE', ( #300 ), #149 ) ;
#256 = SURFACE_SIDE_STYLE ('',( #34 ) ) ;
#257 =( NAMED_UNIT ( * ) PLANE_ANGLE_UNIT ( ) SI_UNIT ( $, .RADIAN. ) );
#258 = PRESENTATION_LAYER_ASSIGNMENT (  '', '', ( #54 ) ) ;
#259 = VERTEX_POINT ( 'NONE', #279 ) ;
#260 = UNCERTAINTY_MEASURE_WITH_UNIT (LENGTH_MEASURE( 1.000000000000000082E-05 ), #112, 'distance_accuracy_value', 'NONE');
#261 = DIRECTION ( 'NONE',  ( -0.000000000000000000, -1.000000000000000000, -0.000000000000000000 ) ) ;
#262 = CARTESIAN_POINT ( 'NONE',  ( 0.06249999999999993755, 0.2500000000000000555, 7.654042494670892834E-18 ) ) ;
#263 = FACE_OUTER_BOUND ( 'NONE', #123, .T. ) ;
#264 =( NAMED_UNIT ( * ) PLANE_ANGLE_UNIT ( ) SI_UNIT ( $, .RADIAN. ) );
#265 = UNCERTAINTY_MEASURE_WITH_UNIT (LENGTH_MEASURE( 1.000000000000000082E-05 ), #81, 'distance_accuracy_value', 'NONE');
#266 = CARTESIAN_POINT ( 'NONE',  ( 0.000000000000000000, 0.2500000000000000555, 0.000000000000000000 ) ) ;
#267 = VECTOR ( 'NONE', #18, 39.37007874015748143 ) ;
#268 = SURFACE_STYLE_USAGE ( .BOTH. , #290 ) ;
#269 = ADVANCED_FACE ( 'NONE', ( #225 ), #187, .T. ) ;
#270 = CARTESIAN_POINT ( 'NONE',  ( 0.000000000000000000, 0.06250000000000001388, 0.000000000000000000 ) ) ;
#271 = DIRECTION ( 'NONE',  ( -1.219888675382006564E-16, 1.000000000000000000, -0.000000000000000000 ) ) ;
#272 = FILL_AREA_STYLE ('',( #22 ) ) ;
#273 = CIRCLE ( 'NONE', #152, 0.06249999999999952122 ) ;
#274 = VERTEX_POINT ( 'NONE', #136 ) ;
#275 = PRODUCT_DEFINITION_FORMATION_WITH_SPECIFIED_SOURCE ( 'ANY', '', #239, .NOT_KNOWN. ) ;
#276 = ORIENTED_EDGE ( 'NONE', *, *, #251, .T. ) ;
#277 =( NAMED_UNIT ( * ) PLANE_ANGLE_UNIT ( ) SI_UNIT ( $, .RADIAN. ) );
#278 = FILL_AREA_STYLE ('',( #143 ) ) ;
#279 = CARTESIAN_POINT ( 'NONE',  ( 0.06249999999999996531, 0.06250000000000001388, 0.000000000000000000 ) ) ;
#280 = SPHERICAL_SURFACE ( 'NONE', #115, 0.06249999999999997918 ) ;
#281 = AXIS2_PLACEMENT_3D ( 'NONE', #194, #306, #250 ) ;
#282 = EDGE_CURVE ( 'NONE', #97, #347, #349, .T. ) ;
#283 = EDGE_LOOP ( 'NONE', ( #313, #46, #169, #161 ) ) ;
#284 = VECTOR ( 'NONE', #159, 39.37007874015748143 ) ;
#285 = CIRCLE ( 'NONE', #370, 0.06249999999999995143 ) ;
#286 = ORIENTED_EDGE ( 'NONE', *, *, #11, .T. ) ;
#287 = VERTEX_POINT ( 'NONE', #353 ) ;
#288 = PRODUCT_RELATED_PRODUCT_CATEGORY ( 'part', '', ( #239 ) ) ;
#289 = DIRECTION ( 'NONE',  ( -0.000000000000000000, -1.000000000000000000, -0.000000000000000000 ) ) ;
#290 = SURFACE_SIDE_STYLE ('',( #68 ) ) ;
#291 = AXIS2_PLACEMENT_3D ( 'NONE', #141, #109, #197 ) ;
#292 =( LENGTH_UNIT ( ) NAMED_UNIT ( * ) SI_UNIT ( $, .METRE. ) );
#293 = FACE_OUTER_BOUND ( 'NONE', #283, .T. ) ;
#294 = DIRECTION ( 'NONE',  ( -0.000000000000000000, -1.000000000000000000, -0.000000000000000000 ) ) ;
#295 = LENGTH_MEASURE_WITH_UNIT ( LENGTH_MEASURE( 0.02539999999999999897 ), #101 );
#296 = EDGE_CURVE ( 'NONE', #259, #308, #285, .T. ) ;
#297 = DIRECTION ( 'NONE',  ( -1.000000000000000000, 0.000000000000000000, 0.000000000000000000 ) ) ;
#298 = CIRCLE ( 'NONE', #145, 0.06249999999999936856 ) ;
#299 = FILL_AREA_STYLE ('',( #73 ) ) ;
#300 = PRESENTATION_STYLE_ASSIGNMENT (( #137 ) ) ;
#301 = LENGTH_MEASURE_WITH_UNIT ( LENGTH_MEASURE( 0.02539999999999999897 ), #118 );
#302 =( LENGTH_UNIT ( ) NAMED_UNIT ( * ) SI_UNIT ( $, .METRE. ) );
#303 = EDGE_CURVE ( 'NONE', #229, #287, #324, .T. ) ;
#304 = FACE_OUTER_BOUND ( 'NONE', #127, .T. ) ;
#305 = DIRECTION ( 'NONE',  ( 1.000000000000000000, 0.000000000000000000, 0.000000000000000000 ) ) ;
#306 = DIRECTION ( 'NONE',  ( 0.000000000000000000, 0.000000000000000000, -1.000000000000000000 ) ) ;
#307 =( GEOMETRIC_REPRESENTATION_CONTEXT ( 3 ) GLOBAL_UNCERTAINTY_ASSIGNED_CONTEXT ( ( #345 ) ) GLOBAL_UNIT_ASSIGNED_CONTEXT ( ( #167, #257, #314 ) ) REPRESENTATION_CONTEXT ( 'NONE', 'WORKASPACE' ) );
#308 = VERTEX_POINT ( 'NONE', #234 ) ;
#309 = PRODUCT_CONTEXT ( 'NONE', #142, 'mechanical' ) ;
#310 = LENGTH_MEASURE_WITH_UNIT ( LENGTH_MEASURE( 0.02539999999999999897 ), #190 );
#311 = ADVANCED_FACE ( 'NONE', ( #103 ), #242, .T. ) ;
#312 = PRESENTATION_LAYER_ASSIGNMENT (  '', '', ( #244 ) ) ;
#313 = ORIENTED_EDGE ( 'NONE', *, *, #315, .T. ) ;
#314 =( NAMED_UNIT ( * ) SI_UNIT ( $, .STERADIAN. ) SOLID_ANGLE_UNIT ( ) );
#315 = EDGE_CURVE ( 'NONE', #308, #201, #202, .T. ) ;
#316 = AXIS2_PLACEMENT_3D ( 'NONE', #82, #360, #110 ) ;
#317 = ORIENTED_EDGE ( 'NONE', *, *, #282, .F. ) ;
#318 = DIRECTION ( 'NONE',  ( -0.000000000000000000, -1.000000000000000000, -0.000000000000000000 ) ) ;
#319 = MECHANICAL_DESIGN_GEOMETRIC_PRESENTATION_REPRESENTATION (  '', ( #42 ), #307 ) ;
#320 = DIRECTION ( 'NONE',  ( -0.000000000000000000, -1.000000000000000000, -0.000000000000000000 ) ) ;
#321 = CIRCLE ( 'NONE', #93, 0.06249999999999997918 ) ;
#322 = UNCERTAINTY_MEASURE_WITH_UNIT (LENGTH_MEASURE( 1.000000000000000082E-05 ), #39, 'distance_accuracy_value', 'NONE');
#323 =( CONVERSION_BASED_UNIT ( 'INCH', #295 ) LENGTH_UNIT ( ) NAMED_UNIT ( #369 ) );
#324 = LINE ( 'NONE', #176, #267 ) ;
#325 = PRESENTATION_STYLE_ASSIGNMENT (( #248 ) ) ;
#326 = CIRCLE ( 'NONE', #21, 0.06249999999999995143 ) ;
#327 = AXIS2_PLACEMENT_3D ( 'NONE', #344, #58, #211 ) ;
#328 = CARTESIAN_POINT ( 'NONE',  ( 0.06249999999999986816, 1.499999999999999778, 7.654042494670889752E-18 ) ) ;
#329 = ORIENTED_EDGE ( 'NONE', *, *, #233, .T. ) ;
#330 = SHAPE_DEFINITION_REPRESENTATION ( #207, #198 ) ;
#331 = SURFACE_SIDE_STYLE ('',( #215 ) ) ;
#332 = ADVANCED_FACE ( 'NONE', ( #263 ), #346, .T. ) ;
#333 = ORIENTED_EDGE ( 'NONE', *, *, #303, .F. ) ;
#334 = FILL_AREA_STYLE_COLOUR ( '', #228 ) ;
#335 = ORIENTED_EDGE ( 'NONE', *, *, #2, .T. ) ;
#336 =( NAMED_UNIT ( * ) PLANE_ANGLE_UNIT ( ) SI_UNIT ( $, .RADIAN. ) );
#337 = FACE_OUTER_BOUND ( 'NONE', #111, .T. ) ;
#338 = DIRECTION ( 'NONE',  ( 0.000000000000000000, 0.000000000000000000, 1.000000000000000000 ) ) ;
#339 =( NAMED_UNIT ( * ) SI_UNIT ( $, .STERADIAN. ) SOLID_ANGLE_UNIT ( ) );
#340 = DIMENSIONAL_EXPONENTS ( 1.000000000000000000, 0.000000000000000000, 0.000000000000000000, 0.000000000000000000, 0.000000000000000000, 0.000000000000000000, 0.000000000000000000 ) ;
#341 =( LENGTH_UNIT ( ) NAMED_UNIT ( * ) SI_UNIT ( $, .METRE. ) );
#342 = AXIS2_PLACEMENT_3D ( 'NONE', #182, #74, #297 ) ;
#343 = ORIENTED_EDGE ( 'NONE', *, *, #251, .F. ) ;
#344 = CARTESIAN_POINT ( 'NONE',  ( 4.286263797015735609E-16, 1.499999999999999778, 0.000000000000000000 ) ) ;
#345 = UNCERTAINTY_MEASURE_WITH_UNIT (LENGTH_MEASURE( 1.000000000000000082E-05 ), #167, 'distance_accuracy_value', 'NONE');
#346 = CYLINDRICAL_SURFACE ( 'NONE', #14, 0.06249999999999995143 ) ;
#347 = VERTEX_POINT ( 'NONE', #209 ) ;
#348 = DIRECTION ( 'NONE',  ( 0.000000000000000000, 0.000000000000000000, -1.000000000000000000 ) ) ;
#349 = CIRCLE ( 'NONE', #196, 0.06249999999999936856 ) ;
#350 = DIRECTION ( 'NONE',  ( 1.000000000000000000, 0.000000000000000000, -1.224646799147353454E-16 ) ) ;
#351 = EDGE_CURVE ( 'NONE', #113, #229, #185, .T. ) ;
#352 = ORIENTED_EDGE ( 'NONE', *, *, #11, .F. ) ;
#353 = CARTESIAN_POINT ( 'NONE',  ( 0.000000000000000000, 0.06250000000000001388, -0.06249999999999995143 ) ) ;
#354 = ORIENTED_EDGE ( 'NONE', *, *, #38, .T. ) ;
#355 = DIRECTION ( 'NONE',  ( 0.000000000000000000, 0.000000000000000000, -1.000000000000000000 ) ) ;
#356 = FACE_OUTER_BOUND ( 'NONE', #362, .T. ) ;
#357 = PRESENTATION_LAYER_ASSIGNMENT (  '', '', ( #255 ) ) ;
#358 = AXIS2_PLACEMENT_3D ( 'NONE', #266, #318, #12 ) ;
#359 = DIRECTION ( 'NONE',  ( -1.000000000000000000, 0.000000000000000000, 0.000000000000000000 ) ) ;
#360 = DIRECTION ( 'NONE',  ( 0.000000000000000000, 1.000000000000000000, 0.000000000000000000 ) ) ;
#361 = ORIENTED_EDGE ( 'NONE', *, *, #38, .F. ) ;
#362 = EDGE_LOOP ( 'NONE', ( #60, #20 ) ) ;
#363 = DIRECTION ( 'NONE',  ( 0.000000000000000000, 0.000000000000000000, 1.000000000000000000 ) ) ;
#364 = DIRECTION ( 'NONE',  ( 1.000000000000000000, 1.219888675382006564E-16, 0.000000000000000000 ) ) ;
#365 = SURFACE_STYLE_FILL_AREA ( #278 ) ;
#366 = ORIENTED_EDGE ( 'NONE', *, *, #140, .T. ) ;
#367 = APPLICATION_PROTOCOL_DEFINITION ( 'draft international standard', 'automotive_design', 1998, #192 ) ;
#368 = SURFACE_STYLE_FILL_AREA ( #272 ) ;
#369 = DIMENSIONAL_EXPONENTS ( 1.000000000000000000, 0.000000000000000000, 0.000000000000000000, 0.000000000000000000, 0.000000000000000000, 0.000000000000000000, 0.000000000000000000 ) ;
#370 = AXIS2_PLACEMENT_3D ( 'NONE', #270, #65, #41 ) ;
#371 = PRESENTATION_STYLE_ASSIGNMENT (( #227 ) ) ;
#372 = EDGE_CURVE ( 'NONE', #201, #205, #321, .T. ) ;
#373 = VECTOR ( 'NONE', #158, 39.37007874015748143 ) ;
ENDSEC;
END-ISO-10303-21;
