ISO-10303-21;
HEADER;
FILE_DESCRIPTION (( 'STEP AP214' ),
    '1' );
FILE_NAME ('03195.STEP',
    '2023-06-22T15:02:01',
    ( '' ),
    ( '' ),
    'SwSTEP 2.0',
    'SolidWorks 2023',
    '' );
FILE_SCHEMA (( 'AUTOMOTIVE_DESIGN' ));
ENDSEC;

DATA;
#1 =( GEOMETRIC_REPRESENTATION_CONTEXT ( 3 ) GLOBAL_UNCERTAINTY_ASSIGNED_CONTEXT ( ( #172 ) ) GLOBAL_UNIT_ASSIGNED_CONTEXT ( ( #105, #240, #264 ) ) REPRESENTATION_CONTEXT ( 'NONE', 'WORKASPACE' ) );
#2 = PLANE ( 'NONE',  #296 ) ;
#3 = ORIENTED_EDGE ( 'NONE', *, *, #54, .T. ) ;
#4 = EDGE_CURVE ( 'NONE', #261, #263, #116, .T. ) ;
#5 =( LENGTH_UNIT ( ) NAMED_UNIT ( * ) SI_UNIT ( $, .METRE. ) );
#6 = EDGE_CURVE ( 'NONE', #263, #218, #228, .T. ) ;
#7 = DIRECTION ( 'NONE',  ( 0.000000000000000000, 0.000000000000000000, -1.000000000000000000 ) ) ;
#8 = MECHANICAL_DESIGN_GEOMETRIC_PRESENTATION_REPRESENTATION (  '', ( #63 ), #70 ) ;
#9 =( NAMED_UNIT ( * ) SI_UNIT ( $, .STERADIAN. ) SOLID_ANGLE_UNIT ( ) );
#10 =( NAMED_UNIT ( * ) SI_UNIT ( $, .STERADIAN. ) SOLID_ANGLE_UNIT ( ) );
#11 = CYLINDRICAL_SURFACE ( 'NONE', #36, 0.1250000000000000278 ) ;
#12 = SURFACE_SIDE_STYLE ('',( #88 ) ) ;
#13 = ORIENTED_EDGE ( 'NONE', *, *, #95, .T. ) ;
#14 = EDGE_CURVE ( 'NONE', #218, #263, #42, .T. ) ;
#15 = UNCERTAINTY_MEASURE_WITH_UNIT (LENGTH_MEASURE( 1.000000000000000082E-05 ), #227, 'distance_accuracy_value', 'NONE');
#16 = PRESENTATION_STYLE_ASSIGNMENT (( #285 ) ) ;
#17 = ORIENTED_EDGE ( 'NONE', *, *, #131, .T. ) ;
#18 = CARTESIAN_POINT ( 'NONE',  ( 0.000000000000000000, 1.250000000000000000, 0.000000000000000000 ) ) ;
#19 = ORIENTED_EDGE ( 'NONE', *, *, #54, .F. ) ;
#20 = AXIS2_PLACEMENT_3D ( 'NONE', #237, #300, #96 ) ;
#21 = APPLICATION_CONTEXT ( 'automotive_design' ) ;
#22 = COLOUR_RGB ( '',1.000000000000000000, 0.000000000000000000, 0.000000000000000000 ) ;
#23 = DIRECTION ( 'NONE',  ( -0.000000000000000000, -1.000000000000000000, -0.000000000000000000 ) ) ;
#24 = ORIENTED_EDGE ( 'NONE', *, *, #78, .T. ) ;
#25 = ORIENTED_EDGE ( 'NONE', *, *, #6, .T. ) ;
#26 = FACE_OUTER_BOUND ( 'NONE', #307, .T. ) ;
#27 = VECTOR ( 'NONE', #114, 39.37007874015748143 ) ;
#28 = FILL_AREA_STYLE ('',( #171 ) ) ;
#29 = CARTESIAN_POINT ( 'NONE',  ( 0.000000000000000000, 1.250000000000000000, 0.000000000000000000 ) ) ;
#30 = PRESENTATION_STYLE_ASSIGNMENT (( #276 ) ) ;
#31 =( NAMED_UNIT ( * ) PLANE_ANGLE_UNIT ( ) SI_UNIT ( $, .RADIAN. ) );
#32 = VECTOR ( 'NONE', #302, 39.37007874015748143 ) ;
#33 = MECHANICAL_DESIGN_GEOMETRIC_PRESENTATION_REPRESENTATION (  '', ( #155 ), #1 ) ;
#34 = UNCERTAINTY_MEASURE_WITH_UNIT (LENGTH_MEASURE( 1.000000000000000082E-05 ), #192, 'distance_accuracy_value', 'NONE');
#35 = CARTESIAN_POINT ( 'NONE',  ( 0.000000000000000000, 0.000000000000000000, -0.1250000000000000000 ) ) ;
#36 = AXIS2_PLACEMENT_3D ( 'NONE', #66, #213, #140 ) ;
#37 = COLOUR_RGB ( '',1.000000000000000000, 0.000000000000000000, 0.000000000000000000 ) ;
#38 = FACE_OUTER_BOUND ( 'NONE', #216, .T. ) ;
#39 = DIRECTION ( 'NONE',  ( -3.498990854706726443E-17, 1.000000000000000000, -0.000000000000000000 ) ) ;
#40 = UNCERTAINTY_MEASURE_WITH_UNIT (LENGTH_MEASURE( 1.000000000000000082E-05 ), #250, 'distance_accuracy_value', 'NONE');
#41 = CYLINDRICAL_SURFACE ( 'NONE', #125, 0.1250000000000000000 ) ;
#42 = CIRCLE ( 'NONE', #119, 0.1250000000000000555 ) ;
#43 = STYLED_ITEM ( 'NONE', ( #286 ), #229 ) ;
#44 = DIRECTION ( 'NONE',  ( 0.000000000000000000, 0.000000000000000000, -1.000000000000000000 ) ) ;
#45 = ORIENTED_EDGE ( 'NONE', *, *, #95, .F. ) ;
#46 = PRESENTATION_STYLE_ASSIGNMENT (( #269 ) ) ;
#47 = LENGTH_MEASURE_WITH_UNIT ( LENGTH_MEASURE( 0.02539999999999999897 ), #51 );
#48 = EDGE_LOOP ( 'NONE', ( #71, #141 ) ) ;
#49 = CARTESIAN_POINT ( 'NONE',  ( -0.1250000000000001110, 3.000000000000000444, 0.000000000000000000 ) ) ;
#50 = CARTESIAN_POINT ( 'NONE',  ( 0.000000000000000000, 1.250000000000000000, -0.1250000000000000278 ) ) ;
#51 =( LENGTH_UNIT ( ) NAMED_UNIT ( * ) SI_UNIT ( $, .METRE. ) );
#52 = COLOUR_RGB ( '',1.000000000000000000, 0.000000000000000000, 0.000000000000000000 ) ;
#53 = CARTESIAN_POINT ( 'NONE',  ( 0.000000000000000000, 0.000000000000000000, -0.1250000000000000000 ) ) ;
#54 = EDGE_CURVE ( 'NONE', #117, #73, #84, .T. ) ;
#55 =( NAMED_UNIT ( * ) PLANE_ANGLE_UNIT ( ) SI_UNIT ( $, .RADIAN. ) );
#56 = FILL_AREA_STYLE_COLOUR ( '', #37 ) ;
#57 =( GEOMETRIC_REPRESENTATION_CONTEXT ( 3 ) GLOBAL_UNCERTAINTY_ASSIGNED_CONTEXT ( ( #40 ) ) GLOBAL_UNIT_ASSIGNED_CONTEXT ( ( #250, #58, #10 ) ) REPRESENTATION_CONTEXT ( 'NONE', 'WORKASPACE' ) );
#58 =( NAMED_UNIT ( * ) PLANE_ANGLE_UNIT ( ) SI_UNIT ( $, .RADIAN. ) );
#59 = DIRECTION ( 'NONE',  ( 0.000000000000000000, -1.000000000000000000, -0.000000000000000000 ) ) ;
#60 = UNCERTAINTY_MEASURE_WITH_UNIT (LENGTH_MEASURE( 1.000000000000000082E-05 ), #111, 'distance_accuracy_value', 'NONE');
#61 = LENGTH_MEASURE_WITH_UNIT ( LENGTH_MEASURE( 0.02539999999999999897 ), #292 );
#62 = AXIS2_PLACEMENT_3D ( 'NONE', #157, #118, #93 ) ;
#63 = STYLED_ITEM ( 'NONE', ( #30 ), #253 ) ;
#64 =( NAMED_UNIT ( * ) SI_UNIT ( $, .STERADIAN. ) SOLID_ANGLE_UNIT ( ) );
#65 = CARTESIAN_POINT ( 'NONE',  ( -0.1250000000000001110, 3.000000000000000444, 0.000000000000000000 ) ) ;
#66 = CARTESIAN_POINT ( 'NONE',  ( -6.123233995736772199E-17, 3.000000000000000444, 0.000000000000000000 ) ) ;
#67 = ORIENTED_EDGE ( 'NONE', *, *, #92, .F. ) ;
#68 = CARTESIAN_POINT ( 'NONE',  ( 1.530808498934191509E-17, 0.000000000000000000, 0.1250000000000000000 ) ) ;
#69 = AXIS2_PLACEMENT_3D ( 'NONE', #239, #234, #44 ) ;
#70 =( GEOMETRIC_REPRESENTATION_CONTEXT ( 3 ) GLOBAL_UNCERTAINTY_ASSIGNED_CONTEXT ( ( #60 ) ) GLOBAL_UNIT_ASSIGNED_CONTEXT ( ( #111, #205, #87 ) ) REPRESENTATION_CONTEXT ( 'NONE', 'WORKASPACE' ) );
#71 = ORIENTED_EDGE ( 'NONE', *, *, #156, .F. ) ;
#72 = SURFACE_STYLE_FILL_AREA ( #77 ) ;
#73 = VERTEX_POINT ( 'NONE', #53 ) ;
#74 = ORIENTED_EDGE ( 'NONE', *, *, #14, .T. ) ;
#75 = CIRCLE ( 'NONE', #20, 0.1250000000000000278 ) ;
#76 =( GEOMETRIC_REPRESENTATION_CONTEXT ( 3 ) GLOBAL_UNCERTAINTY_ASSIGNED_CONTEXT ( ( #15 ) ) GLOBAL_UNIT_ASSIGNED_CONTEXT ( ( #227, #55, #271 ) ) REPRESENTATION_CONTEXT ( 'NONE', 'WORKASPACE' ) );
#77 = FILL_AREA_STYLE ('',( #120 ) ) ;
#78 = EDGE_CURVE ( 'NONE', #121, #223, #112, .T. ) ;
#79 = FILL_AREA_STYLE_COLOUR ( '', #275 ) ;
#80 = DIRECTION ( 'NONE',  ( 0.000000000000000000, 0.000000000000000000, -1.000000000000000000 ) ) ;
#81 = CARTESIAN_POINT ( 'NONE',  ( -6.123233995736772199E-17, 3.000000000000000444, 0.000000000000000000 ) ) ;
#82 = AXIS2_PLACEMENT_3D ( 'NONE', #18, #258, #256 ) ;
#83 =( CONVERSION_BASED_UNIT ( 'INCH', #61 ) LENGTH_UNIT ( ) NAMED_UNIT ( #279 ) );
#84 = CIRCLE ( 'NONE', #148, 0.1250000000000000000 ) ;
#85 = PRESENTATION_LAYER_ASSIGNMENT (  '', '', ( #43 ) ) ;
#86 = SURFACE_SIDE_STYLE ('',( #132 ) ) ;
#87 =( NAMED_UNIT ( * ) SI_UNIT ( $, .STERADIAN. ) SOLID_ANGLE_UNIT ( ) );
#88 = SURFACE_STYLE_FILL_AREA ( #235 ) ;
#89 = ADVANCED_BREP_SHAPE_REPRESENTATION ( '03195', ( #224, #229, #191 ), #113 ) ;
#90 = AXIS2_PLACEMENT_3D ( 'NONE', #214, #163, #254 ) ;
#91 = PRODUCT ( '03195', '03195', '', ( #299 ) ) ;
#92 = EDGE_CURVE ( 'NONE', #121, #117, #115, .T. ) ;
#93 = DIRECTION ( 'NONE',  ( -1.000000000000000000, -3.498990854706726443E-17, 0.000000000000000000 ) ) ;
#94 = PRESENTATION_LAYER_ASSIGNMENT (  '', '', ( #242 ) ) ;
#95 = EDGE_CURVE ( 'NONE', #73, #117, #175, .T. ) ;
#96 = DIRECTION ( 'NONE',  ( -1.000000000000000000, 0.000000000000000000, 0.000000000000000000 ) ) ;
#97 = LINE ( 'NONE', #65, #177 ) ;
#98 = CARTESIAN_POINT ( 'NONE',  ( -6.123233995736772199E-17, 3.000000000000000444, 0.000000000000000000 ) ) ;
#99 = DIRECTION ( 'NONE',  ( -3.498990854706726443E-17, 1.000000000000000000, -0.000000000000000000 ) ) ;
#100 = CIRCLE ( 'NONE', #82, 0.1250000000000000278 ) ;
#101 = ORIENTED_EDGE ( 'NONE', *, *, #267, .T. ) ;
#102 = CARTESIAN_POINT ( 'NONE',  ( -0.1250000000000000278, 1.250000000000000000, 0.000000000000000000 ) ) ;
#103 = EDGE_CURVE ( 'NONE', #193, #218, #97, .T. ) ;
#104 = PRESENTATION_LAYER_ASSIGNMENT (  '', '', ( #198 ) ) ;
#105 =( CONVERSION_BASED_UNIT ( 'INCH', #173 ) LENGTH_UNIT ( ) NAMED_UNIT ( #183 ) );
#106 =( NAMED_UNIT ( * ) PLANE_ANGLE_UNIT ( ) SI_UNIT ( $, .RADIAN. ) );
#107 = DIRECTION ( 'NONE',  ( -0.000000000000000000, -1.000000000000000000, -0.000000000000000000 ) ) ;
#108 = STYLED_ITEM ( 'NONE', ( #16 ), #187 ) ;
#109 = FILL_AREA_STYLE ('',( #180 ) ) ;
#110 = ADVANCED_FACE ( 'NONE', ( #211 ), #143, .F. ) ;
#111 =( CONVERSION_BASED_UNIT ( 'INCH', #152 ) LENGTH_UNIT ( ) NAMED_UNIT ( #251 ) );
#112 = CIRCLE ( 'NONE', #252, 0.1250000000000000278 ) ;
#113 =( GEOMETRIC_REPRESENTATION_CONTEXT ( 3 ) GLOBAL_UNCERTAINTY_ASSIGNED_CONTEXT ( ( #309 ) ) GLOBAL_UNIT_ASSIGNED_CONTEXT ( ( #135, #278, #9 ) ) REPRESENTATION_CONTEXT ( 'NONE', 'WORKASPACE' ) );
#114 = DIRECTION ( 'NONE',  ( -0.000000000000000000, -1.000000000000000000, -0.000000000000000000 ) ) ;
#115 = LINE ( 'NONE', #281, #27 ) ;
#116 = LINE ( 'NONE', #215, #32 ) ;
#117 = VERTEX_POINT ( 'NONE', #68 ) ;
#118 = DIRECTION ( 'NONE',  ( -3.498990854706726443E-17, 1.000000000000000000, 0.000000000000000000 ) ) ;
#119 = AXIS2_PLACEMENT_3D ( 'NONE', #81, #128, #226 ) ;
#120 = FILL_AREA_STYLE_COLOUR ( '', #52 ) ;
#121 = VERTEX_POINT ( 'NONE', #255 ) ;
#122 = SURFACE_STYLE_FILL_AREA ( #28 ) ;
#123 = SURFACE_STYLE_USAGE ( .BOTH. , #127 ) ;
#124 = PRESENTATION_LAYER_ASSIGNMENT (  '', '', ( #155 ) ) ;
#125 = AXIS2_PLACEMENT_3D ( 'NONE', #245, #23, #80 ) ;
#126 = EDGE_LOOP ( 'NONE', ( #236, #305, #265, #139 ) ) ;
#127 = SURFACE_SIDE_STYLE ('',( #176 ) ) ;
#128 = DIRECTION ( 'NONE',  ( -3.498990854706726443E-17, 1.000000000000000000, -0.000000000000000000 ) ) ;
#129 = CARTESIAN_POINT ( 'NONE',  ( 0.1250000000000000278, 1.250000000000000000, 1.530808498934192125E-17 ) ) ;
#130 = FACE_OUTER_BOUND ( 'NONE', #144, .T. ) ;
#131 = EDGE_CURVE ( 'NONE', #223, #121, #206, .T. ) ;
#132 = SURFACE_STYLE_FILL_AREA ( #277 ) ;
#133 = DIMENSIONAL_EXPONENTS ( 1.000000000000000000, 0.000000000000000000, 0.000000000000000000, 0.000000000000000000, 0.000000000000000000, 0.000000000000000000, 0.000000000000000000 ) ;
#134 = AXIS2_PLACEMENT_3D ( 'NONE', #282, #99, #167 ) ;
#135 =( CONVERSION_BASED_UNIT ( 'INCH', #232 ) LENGTH_UNIT ( ) NAMED_UNIT ( #298 ) );
#136 = DIRECTION ( 'NONE',  ( -0.000000000000000000, -1.000000000000000000, -0.000000000000000000 ) ) ;
#137 = SHAPE_DEFINITION_REPRESENTATION ( #210, #89 ) ;
#138 = FILL_AREA_STYLE_COLOUR ( '', #212 ) ;
#139 = ORIENTED_EDGE ( 'NONE', *, *, #6, .F. ) ;
#140 = DIRECTION ( 'NONE',  ( -1.000000000000000000, 0.000000000000000000, 0.000000000000000000 ) ) ;
#141 = ORIENTED_EDGE ( 'NONE', *, *, #147, .F. ) ;
#142 = ADVANCED_FACE ( 'NONE', ( #164 ), #284, .T. ) ;
#143 = PLANE ( 'NONE',  #274 ) ;
#144 = EDGE_LOOP ( 'NONE', ( #241, #257 ) ) ;
#145 = MECHANICAL_DESIGN_GEOMETRIC_PRESENTATION_REPRESENTATION (  '', ( #108 ), #57 ) ;
#146 = PRODUCT_DEFINITION_FORMATION_WITH_SPECIFIED_SOURCE ( 'ANY', '', #91, .NOT_KNOWN. ) ;
#147 = EDGE_CURVE ( 'NONE', #261, #193, #100, .T. ) ;
#148 = AXIS2_PLACEMENT_3D ( 'NONE', #291, #270, #178 ) ;
#149 =( GEOMETRIC_REPRESENTATION_CONTEXT ( 3 ) GLOBAL_UNCERTAINTY_ASSIGNED_CONTEXT ( ( #34 ) ) GLOBAL_UNIT_ASSIGNED_CONTEXT ( ( #192, #106, #290 ) ) REPRESENTATION_CONTEXT ( 'NONE', 'WORKASPACE' ) );
#150 = ADVANCED_FACE ( 'NONE', ( #38 ), #11, .T. ) ;
#151 = DIRECTION ( 'NONE',  ( -3.498990854706726443E-17, 1.000000000000000000, -0.000000000000000000 ) ) ;
#152 = LENGTH_MEASURE_WITH_UNIT ( LENGTH_MEASURE( 0.02539999999999999897 ), #153 );
#153 =( LENGTH_UNIT ( ) NAMED_UNIT ( * ) SI_UNIT ( $, .METRE. ) );
#154 = AXIS2_PLACEMENT_3D ( 'NONE', #98, #151, #248 ) ;
#155 = STYLED_ITEM ( 'NONE', ( #247 ), #224 ) ;
#156 = EDGE_CURVE ( 'NONE', #193, #261, #75, .T. ) ;
#157 = CARTESIAN_POINT ( 'NONE',  ( 7.651835625825819045E-35, 1.250000000000000000, 0.000000000000000000 ) ) ;
#158 = CARTESIAN_POINT ( 'NONE',  ( 0.1250000000000000000, 3.000000000000000444, 1.530808498934192125E-17 ) ) ;
#159 = LENGTH_MEASURE_WITH_UNIT ( LENGTH_MEASURE( 0.02539999999999999897 ), #5 );
#160 = DIMENSIONAL_EXPONENTS ( 1.000000000000000000, 0.000000000000000000, 0.000000000000000000, 0.000000000000000000, 0.000000000000000000, 0.000000000000000000, 0.000000000000000000 ) ;
#161 = UNCERTAINTY_MEASURE_WITH_UNIT (LENGTH_MEASURE( 1.000000000000000082E-05 ), #83, 'distance_accuracy_value', 'NONE');
#162 = DIRECTION ( 'NONE',  ( 1.000000000000000000, 3.498990854706726443E-17, 0.000000000000000000 ) ) ;
#163 = DIRECTION ( 'NONE',  ( 0.000000000000000000, 1.000000000000000000, 0.000000000000000000 ) ) ;
#164 = FACE_OUTER_BOUND ( 'NONE', #126, .T. ) ;
#165 = EDGE_LOOP ( 'NONE', ( #13, #3 ) ) ;
#166 = APPLICATION_PROTOCOL_DEFINITION ( 'draft international standard', 'automotive_design', 1998, #21 ) ;
#167 = DIRECTION ( 'NONE',  ( -1.000000000000000000, 0.000000000000000000, 0.000000000000000000 ) ) ;
#168 = CLOSED_SHELL ( 'NONE', ( #194, #308, #187, #253 ) ) ;
#169 = LENGTH_MEASURE_WITH_UNIT ( LENGTH_MEASURE( 0.02539999999999999897 ), #301 );
#170 = EDGE_LOOP ( 'NONE', ( #67, #24, #101, #19 ) ) ;
#171 = FILL_AREA_STYLE_COLOUR ( '', #182 ) ;
#172 = UNCERTAINTY_MEASURE_WITH_UNIT (LENGTH_MEASURE( 1.000000000000000082E-05 ), #105, 'distance_accuracy_value', 'NONE');
#173 = LENGTH_MEASURE_WITH_UNIT ( LENGTH_MEASURE( 0.02539999999999999897 ), #196 );
#174 = ORIENTED_EDGE ( 'NONE', *, *, #267, .F. ) ;
#175 = CIRCLE ( 'NONE', #231, 0.1250000000000000000 ) ;
#176 = SURFACE_STYLE_FILL_AREA ( #268 ) ;
#177 = VECTOR ( 'NONE', #39, 39.37007874015748143 ) ;
#178 = DIRECTION ( 'NONE',  ( 0.000000000000000000, 0.000000000000000000, -1.000000000000000000 ) ) ;
#179 = ADVANCED_FACE ( 'NONE', ( #189 ), #185, .F. ) ;
#180 = FILL_AREA_STYLE_COLOUR ( '', #22 ) ;
#181 = DIRECTION ( 'NONE',  ( 0.000000000000000000, 0.000000000000000000, -1.000000000000000000 ) ) ;
#182 = COLOUR_RGB ( '',0.7921568627450980005, 0.8196078431372548767, 0.9333333333333333481 ) ;
#183 = DIMENSIONAL_EXPONENTS ( 1.000000000000000000, 0.000000000000000000, 0.000000000000000000, 0.000000000000000000, 0.000000000000000000, 0.000000000000000000, 0.000000000000000000 ) ;
#184 =( LENGTH_UNIT ( ) NAMED_UNIT ( * ) SI_UNIT ( $, .METRE. ) );
#185 = PLANE ( 'NONE',  #62 ) ;
#186 = ORIENTED_EDGE ( 'NONE', *, *, #103, .F. ) ;
#187 = ADVANCED_FACE ( 'NONE', ( #260 ), #41, .T. ) ;
#188 = CARTESIAN_POINT ( 'NONE',  ( 0.1249999999999999861, 3.000000000000000444, 0.000000000000000000 ) ) ;
#189 = FACE_OUTER_BOUND ( 'NONE', #48, .T. ) ;
#190 = ORIENTED_EDGE ( 'NONE', *, *, #4, .T. ) ;
#191 = AXIS2_PLACEMENT_3D ( 'NONE', #283, #208, #259 ) ;
#192 =( CONVERSION_BASED_UNIT ( 'INCH', #47 ) LENGTH_UNIT ( ) NAMED_UNIT ( #272 ) );
#193 = VERTEX_POINT ( 'NONE', #102 ) ;
#194 = ADVANCED_FACE ( 'NONE', ( #26 ), #221, .T. ) ;
#195 = ORIENTED_EDGE ( 'NONE', *, *, #92, .T. ) ;
#196 =( LENGTH_UNIT ( ) NAMED_UNIT ( * ) SI_UNIT ( $, .METRE. ) );
#197 = PRESENTATION_LAYER_ASSIGNMENT (  '', '', ( #108 ) ) ;
#198 = STYLED_ITEM ( 'NONE', ( #297 ), #308 ) ;
#199 = SURFACE_STYLE_USAGE ( .BOTH. , #306 ) ;
#200 = DIRECTION ( 'NONE',  ( 0.000000000000000000, 0.000000000000000000, -1.000000000000000000 ) ) ;
#201 = CARTESIAN_POINT ( 'NONE',  ( 0.000000000000000000, 0.000000000000000000, 0.000000000000000000 ) ) ;
#202 = CLOSED_SHELL ( 'NONE', ( #150, #179, #142, #110 ) ) ;
#203 =( GEOMETRIC_REPRESENTATION_CONTEXT ( 3 ) GLOBAL_UNCERTAINTY_ASSIGNED_CONTEXT ( ( #161 ) ) GLOBAL_UNIT_ASSIGNED_CONTEXT ( ( #83, #31, #64 ) ) REPRESENTATION_CONTEXT ( 'NONE', 'WORKASPACE' ) );
#204 = SURFACE_SIDE_STYLE ('',( #230 ) ) ;
#205 =( NAMED_UNIT ( * ) PLANE_ANGLE_UNIT ( ) SI_UNIT ( $, .RADIAN. ) );
#206 = CIRCLE ( 'NONE', #69, 0.1250000000000000278 ) ;
#207 = SURFACE_STYLE_USAGE ( .BOTH. , #86 ) ;
#208 = DIRECTION ( 'NONE',  ( 0.000000000000000000, 0.000000000000000000, 1.000000000000000000 ) ) ;
#209 = APPLICATION_PROTOCOL_DEFINITION ( 'draft international standard', 'automotive_design', 1998, #225 ) ;
#210 = PRODUCT_DEFINITION_SHAPE ( 'NONE', 'NONE',  #295 ) ;
#211 = FACE_OUTER_BOUND ( 'NONE', #287, .T. ) ;
#212 = COLOUR_RGB ( '',1.000000000000000000, 0.000000000000000000, 0.000000000000000000 ) ;
#213 = DIRECTION ( 'NONE',  ( -3.498990854706726443E-17, 1.000000000000000000, -0.000000000000000000 ) ) ;
#214 = CARTESIAN_POINT ( 'NONE',  ( 0.000000000000000000, 1.250000000000000000, 0.000000000000000000 ) ) ;
#215 = CARTESIAN_POINT ( 'NONE',  ( 0.1249999999999999584, 3.000000000000000444, 1.530808498934191817E-17 ) ) ;
#216 = EDGE_LOOP ( 'NONE', ( #238, #190, #219, #186 ) ) ;
#217 = CARTESIAN_POINT ( 'NONE',  ( 0.000000000000000000, 0.000000000000000000, 0.000000000000000000 ) ) ;
#218 = VERTEX_POINT ( 'NONE', #49 ) ;
#219 = ORIENTED_EDGE ( 'NONE', *, *, #14, .F. ) ;
#220 = PRODUCT_DEFINITION_CONTEXT ( 'detailed design', #21, 'design' ) ;
#221 = CYLINDRICAL_SURFACE ( 'NONE', #289, 0.1250000000000000000 ) ;
#222 = MECHANICAL_DESIGN_GEOMETRIC_PRESENTATION_REPRESENTATION (  '', ( #242 ), #149 ) ;
#223 = VERTEX_POINT ( 'NONE', #50 ) ;
#224 = MANIFOLD_SOLID_BREP ( 'Revolve - Cutting Edge', #168 ) ;
#225 = APPLICATION_CONTEXT ( 'automotive_design' ) ;
#226 = DIRECTION ( 'NONE',  ( -1.000000000000000000, 0.000000000000000000, 0.000000000000000000 ) ) ;
#227 =( CONVERSION_BASED_UNIT ( 'INCH', #159 ) LENGTH_UNIT ( ) NAMED_UNIT ( #160 ) );
#228 = CIRCLE ( 'NONE', #154, 0.1250000000000000555 ) ;
#229 = MANIFOLD_SOLID_BREP ( 'Revolve - Tool Body (Straight Shanked)', #202 ) ;
#230 = SURFACE_STYLE_FILL_AREA ( #109 ) ;
#231 = AXIS2_PLACEMENT_3D ( 'NONE', #217, #136, #181 ) ;
#232 = LENGTH_MEASURE_WITH_UNIT ( LENGTH_MEASURE( 0.02539999999999999897 ), #184 );
#233 = VECTOR ( 'NONE', #294, 39.37007874015748143 ) ;
#234 = DIRECTION ( 'NONE',  ( -0.000000000000000000, -1.000000000000000000, -0.000000000000000000 ) ) ;
#235 = FILL_AREA_STYLE ('',( #138 ) ) ;
#236 = ORIENTED_EDGE ( 'NONE', *, *, #4, .F. ) ;
#237 = CARTESIAN_POINT ( 'NONE',  ( 0.000000000000000000, 1.250000000000000000, 0.000000000000000000 ) ) ;
#238 = ORIENTED_EDGE ( 'NONE', *, *, #156, .T. ) ;
#239 = CARTESIAN_POINT ( 'NONE',  ( 0.000000000000000000, 1.250000000000000000, 0.000000000000000000 ) ) ;
#240 =( NAMED_UNIT ( * ) PLANE_ANGLE_UNIT ( ) SI_UNIT ( $, .RADIAN. ) );
#241 = ORIENTED_EDGE ( 'NONE', *, *, #131, .F. ) ;
#242 = STYLED_ITEM ( 'NONE', ( #46 ), #194 ) ;
#243 = DIRECTION ( 'NONE',  ( -0.000000000000000000, -1.000000000000000000, -0.000000000000000000 ) ) ;
#244 = CARTESIAN_POINT ( 'NONE',  ( 0.000000000000000000, 0.000000000000000000, 0.000000000000000000 ) ) ;
#245 = CARTESIAN_POINT ( 'NONE',  ( 0.000000000000000000, 0.000000000000000000, 0.000000000000000000 ) ) ;
#246 = MECHANICAL_DESIGN_GEOMETRIC_PRESENTATION_REPRESENTATION (  '', ( #43 ), #76 ) ;
#247 = PRESENTATION_STYLE_ASSIGNMENT (( #123 ) ) ;
#248 = DIRECTION ( 'NONE',  ( -1.000000000000000000, 0.000000000000000000, 0.000000000000000000 ) ) ;
#249 = PLANE ( 'NONE',  #90 ) ;
#250 =( CONVERSION_BASED_UNIT ( 'INCH', #169 ) LENGTH_UNIT ( ) NAMED_UNIT ( #133 ) );
#251 = DIMENSIONAL_EXPONENTS ( 1.000000000000000000, 0.000000000000000000, 0.000000000000000000, 0.000000000000000000, 0.000000000000000000, 0.000000000000000000, 0.000000000000000000 ) ;
#252 = AXIS2_PLACEMENT_3D ( 'NONE', #29, #107, #200 ) ;
#253 = ADVANCED_FACE ( 'NONE', ( #304 ), #2, .T. ) ;
#254 = DIRECTION ( 'NONE',  ( 0.000000000000000000, -0.000000000000000000, 1.000000000000000000 ) ) ;
#255 = CARTESIAN_POINT ( 'NONE',  ( 1.530808498934191817E-17, 1.250000000000000000, 0.1250000000000000278 ) ) ;
#256 = DIRECTION ( 'NONE',  ( -1.000000000000000000, 0.000000000000000000, 0.000000000000000000 ) ) ;
#257 = ORIENTED_EDGE ( 'NONE', *, *, #78, .F. ) ;
#258 = DIRECTION ( 'NONE',  ( -3.498990854706726443E-17, 1.000000000000000000, -0.000000000000000000 ) ) ;
#259 = DIRECTION ( 'NONE',  ( 1.000000000000000000, 0.000000000000000000, 0.000000000000000000 ) ) ;
#260 = FACE_OUTER_BOUND ( 'NONE', #170, .T. ) ;
#261 = VERTEX_POINT ( 'NONE', #129 ) ;
#262 = SURFACE_SIDE_STYLE ('',( #72 ) ) ;
#263 = VERTEX_POINT ( 'NONE', #158 ) ;
#264 =( NAMED_UNIT ( * ) SI_UNIT ( $, .STERADIAN. ) SOLID_ANGLE_UNIT ( ) );
#265 = ORIENTED_EDGE ( 'NONE', *, *, #103, .T. ) ;
#266 = PRESENTATION_LAYER_ASSIGNMENT (  '', '', ( #63 ) ) ;
#267 = EDGE_CURVE ( 'NONE', #223, #73, #273, .T. ) ;
#268 = FILL_AREA_STYLE ('',( #79 ) ) ;
#269 = SURFACE_STYLE_USAGE ( .BOTH. , #262 ) ;
#270 = DIRECTION ( 'NONE',  ( -0.000000000000000000, -1.000000000000000000, -0.000000000000000000 ) ) ;
#271 =( NAMED_UNIT ( * ) SI_UNIT ( $, .STERADIAN. ) SOLID_ANGLE_UNIT ( ) );
#272 = DIMENSIONAL_EXPONENTS ( 1.000000000000000000, 0.000000000000000000, 0.000000000000000000, 0.000000000000000000, 0.000000000000000000, 0.000000000000000000, 0.000000000000000000 ) ;
#273 = LINE ( 'NONE', #35, #233 ) ;
#274 = AXIS2_PLACEMENT_3D ( 'NONE', #188, #303, #162 ) ;
#275 = COLOUR_RGB ( '',0.7921568627450980005, 0.8196078431372548767, 0.9333333333333333481 ) ;
#276 = SURFACE_STYLE_USAGE ( .BOTH. , #204 ) ;
#277 = FILL_AREA_STYLE ('',( #56 ) ) ;
#278 =( NAMED_UNIT ( * ) PLANE_ANGLE_UNIT ( ) SI_UNIT ( $, .RADIAN. ) );
#279 = DIMENSIONAL_EXPONENTS ( 1.000000000000000000, 0.000000000000000000, 0.000000000000000000, 0.000000000000000000, 0.000000000000000000, 0.000000000000000000, 0.000000000000000000 ) ;
#280 = PRODUCT_RELATED_PRODUCT_CATEGORY ( 'part', '', ( #91 ) ) ;
#281 = CARTESIAN_POINT ( 'NONE',  ( 1.530808498934191509E-17, 0.000000000000000000, 0.1250000000000000000 ) ) ;
#282 = CARTESIAN_POINT ( 'NONE',  ( -6.123233995736772199E-17, 3.000000000000000444, 0.000000000000000000 ) ) ;
#283 = CARTESIAN_POINT ( 'NONE',  ( 0.000000000000000000, 0.000000000000000000, 0.000000000000000000 ) ) ;
#284 = CYLINDRICAL_SURFACE ( 'NONE', #134, 0.1250000000000000278 ) ;
#285 = SURFACE_STYLE_USAGE ( .BOTH. , #12 ) ;
#286 = PRESENTATION_STYLE_ASSIGNMENT (( #199 ) ) ;
#287 = EDGE_LOOP ( 'NONE', ( #74, #25 ) ) ;
#288 = DIRECTION ( 'NONE',  ( 0.000000000000000000, 0.000000000000000000, -1.000000000000000000 ) ) ;
#289 = AXIS2_PLACEMENT_3D ( 'NONE', #244, #243, #288 ) ;
#290 =( NAMED_UNIT ( * ) SI_UNIT ( $, .STERADIAN. ) SOLID_ANGLE_UNIT ( ) );
#291 = CARTESIAN_POINT ( 'NONE',  ( 0.000000000000000000, 0.000000000000000000, 0.000000000000000000 ) ) ;
#292 =( LENGTH_UNIT ( ) NAMED_UNIT ( * ) SI_UNIT ( $, .METRE. ) );
#293 = MECHANICAL_DESIGN_GEOMETRIC_PRESENTATION_REPRESENTATION (  '', ( #198 ), #203 ) ;
#294 = DIRECTION ( 'NONE',  ( -0.000000000000000000, -1.000000000000000000, -0.000000000000000000 ) ) ;
#295 = PRODUCT_DEFINITION ( 'UNKNOWN', '', #146, #220 ) ;
#296 = AXIS2_PLACEMENT_3D ( 'NONE', #201, #59, #7 ) ;
#297 = PRESENTATION_STYLE_ASSIGNMENT (( #207 ) ) ;
#298 = DIMENSIONAL_EXPONENTS ( 1.000000000000000000, 0.000000000000000000, 0.000000000000000000, 0.000000000000000000, 0.000000000000000000, 0.000000000000000000, 0.000000000000000000 ) ;
#299 = PRODUCT_CONTEXT ( 'NONE', #225, 'mechanical' ) ;
#300 = DIRECTION ( 'NONE',  ( -3.498990854706726443E-17, 1.000000000000000000, -0.000000000000000000 ) ) ;
#301 =( LENGTH_UNIT ( ) NAMED_UNIT ( * ) SI_UNIT ( $, .METRE. ) );
#302 = DIRECTION ( 'NONE',  ( -3.498990854706726443E-17, 1.000000000000000000, -0.000000000000000000 ) ) ;
#303 = DIRECTION ( 'NONE',  ( 3.498990854706726443E-17, -1.000000000000000000, 0.000000000000000000 ) ) ;
#304 = FACE_OUTER_BOUND ( 'NONE', #165, .T. ) ;
#305 = ORIENTED_EDGE ( 'NONE', *, *, #147, .T. ) ;
#306 = SURFACE_SIDE_STYLE ('',( #122 ) ) ;
#307 = EDGE_LOOP ( 'NONE', ( #17, #195, #45, #174 ) ) ;
#308 = ADVANCED_FACE ( 'NONE', ( #130 ), #249, .T. ) ;
#309 = UNCERTAINTY_MEASURE_WITH_UNIT (LENGTH_MEASURE( 1.000000000000000082E-05 ), #135, 'distance_accuracy_value', 'NONE');
ENDSEC;
END-ISO-10303-21;
