ISO-10303-21;
HEADER;
FILE_DESCRIPTION (( 'STEP AP214' ),
    '1' );
FILE_NAME ('Micro_GEM-437-4.STEP',
    '2021-09-01T20:42:26',
    ( '' ),
    ( '' ),
    'SwSTEP 2.0',
    'SolidWorks 2020',
    '' );
FILE_SCHEMA (( 'AUTOMOTIVE_DESIGN' ));
ENDSEC;

DATA;
#1 = LINE ( 'NONE', #274, #54 ) ;
#2 = VERTEX_POINT ( 'NONE', #163 ) ;
#3 = DIRECTION ( 'NONE',  ( 1.000000000000000000, 0.0000000000000000000, 0.0000000000000000000 ) ) ;
#4 = DIRECTION ( 'NONE',  ( 1.000000000000000000, 0.0000000000000000000, 0.0000000000000000000 ) ) ;
#5 = CARTESIAN_POINT ( 'NONE',  ( 0.2185312500000000102, 2.676235958261700427E-17, 0.0000000000000000000 ) ) ;
#6 = DIRECTION ( 'NONE',  ( 0.0000000000000000000, 0.0000000000000000000, 1.000000000000000000 ) ) ;
#7 = CONICAL_SURFACE ( 'NONE', #252, 0.2037499999999991263, 0.7853981633974688181 ) ;
#8 = CARTESIAN_POINT ( 'NONE',  ( 0.0000000000000000000, 0.0000000000000000000, 0.0000000000000000000 ) ) ;
#9 = LINE ( 'NONE', #150, #214 ) ;
#10 = ORIENTED_EDGE ( 'NONE', *, *, #145, .F. ) ;
#11 = CARTESIAN_POINT ( 'NONE',  ( 0.0000000000000000000, 0.0000000000000000000, 2.500000000000000000 ) ) ;
#12 = PRODUCT_DEFINITION ( 'UNKNOWN', '', #86, #104 ) ;
#13 =( NAMED_UNIT ( * ) PLANE_ANGLE_UNIT ( ) SI_UNIT ( $, .RADIAN. ) );
#14 = UNCERTAINTY_MEASURE_WITH_UNIT (LENGTH_MEASURE( 1.000000000000000082E-05 ), #242, 'distance_accuracy_value', 'NONE');
#15 = DIRECTION ( 'NONE',  ( 0.0000000000000000000, 0.0000000000000000000, 1.000000000000000000 ) ) ;
#16 = AXIS2_PLACEMENT_3D ( 'NONE', #253, #212, #22 ) ;
#17 = MECHANICAL_DESIGN_GEOMETRIC_PRESENTATION_REPRESENTATION (  '', ( #288 ), #91 ) ;
#18 = ORIENTED_EDGE ( 'NONE', *, *, #66, .T. ) ;
#19 = ORIENTED_EDGE ( 'NONE', *, *, #66, .F. ) ;
#20 = PRODUCT_RELATED_PRODUCT_CATEGORY ( 'part', '', ( #205 ) ) ;
#21 = ORIENTED_EDGE ( 'NONE', *, *, #271, .F. ) ;
#22 = DIRECTION ( 'NONE',  ( -1.000000000000000000, 0.0000000000000000000, 0.0000000000000000000 ) ) ;
#23 = STYLED_ITEM ( 'NONE', ( #275 ), #113 ) ;
#24 = CARTESIAN_POINT ( 'NONE',  ( 1.224646799147353207E-16, 0.0000000000000000000, 1.000000000000000000 ) ) ;
#25 = FACE_OUTER_BOUND ( 'NONE', #225, .T. ) ;
#26 = AXIS2_PLACEMENT_3D ( 'NONE', #239, #99, #283 ) ;
#27 = CARTESIAN_POINT ( 'NONE',  ( 3.277443800048241261E-33, 0.0000000000000000000, 2.676235958261700427E-17 ) ) ;
#28 = CARTESIAN_POINT ( 'NONE',  ( 0.0000000000000000000, 0.0000000000000000000, 2.500000000000000000 ) ) ;
#29 = CARTESIAN_POINT ( 'NONE',  ( 1.226166087268984330E-16, 0.0000000000000000000, 1.001240592898041237 ) ) ;
#30 = CONICAL_SURFACE ( 'NONE', #295, 0.2185312500000000102, 0.1745329251994338915 ) ;
#31 = DIRECTION ( 'NONE',  ( -1.224646799147353207E-16, -0.0000000000000000000, -1.000000000000000000 ) ) ;
#32 = CARTESIAN_POINT ( 'NONE',  ( 0.2037499999999991263, 2.495217853262720780E-17, 2.500000000000000000 ) ) ;
#33 = FACE_OUTER_BOUND ( 'NONE', #182, .T. ) ;
#34 = CIRCLE ( 'NONE', #16, 0.2185312500000000102 ) ;
#35 = ORIENTED_EDGE ( 'NONE', *, *, #101, .F. ) ;
#36 = ORIENTED_EDGE ( 'NONE', *, *, #96, .T. ) ;
#37 = CARTESIAN_POINT ( 'NONE',  ( 0.0000000000000000000, 0.0000000000000000000, 2.500000000000000000 ) ) ;
#38 = PRESENTATION_STYLE_ASSIGNMENT (( #131 ) ) ;
#39 = AXIS2_PLACEMENT_3D ( 'NONE', #28, #263, #232 ) ;
#40 = CARTESIAN_POINT ( 'NONE',  ( -0.2187499999999998612, 0.0000000000000000000, 1.001240592898041237 ) ) ;
#41 =( LENGTH_UNIT ( ) NAMED_UNIT ( * ) SI_UNIT ( $, .METRE. ) );
#42 = LENGTH_MEASURE_WITH_UNIT ( LENGTH_MEASURE( 0.02539999999999999897 ), #41 );
#43 = EDGE_CURVE ( 'NONE', #199, #2, #159, .T. ) ;
#44 = ADVANCED_BREP_SHAPE_REPRESENTATION ( 'Micro_GEM-437-4', ( #113, #153 ), #236 ) ;
#45 = CYLINDRICAL_SURFACE ( 'NONE', #186, 0.2185312500000000102 ) ;
#46 = DIRECTION ( 'NONE',  ( 0.0000000000000000000, 0.0000000000000000000, 1.000000000000000000 ) ) ;
#47 = DIRECTION ( 'NONE',  ( -1.000000000000000000, 0.0000000000000000000, 0.0000000000000000000 ) ) ;
#48 = AXIS2_PLACEMENT_3D ( 'NONE', #170, #198, #237 ) ;
#49 = FACE_OUTER_BOUND ( 'NONE', #156, .T. ) ;
#50 = DIMENSIONAL_EXPONENTS ( 1.000000000000000000, 0.0000000000000000000, 0.0000000000000000000, 0.0000000000000000000, 0.0000000000000000000, 0.0000000000000000000, 0.0000000000000000000 ) ;
#51 = CARTESIAN_POINT ( 'NONE',  ( -0.2185312500000000102, 0.0000000000000000000, 2.676235958261700427E-17 ) ) ;
#52 = EDGE_CURVE ( 'NONE', #108, #229, #1, .T. ) ;
#53 = LENGTH_MEASURE_WITH_UNIT ( LENGTH_MEASURE( 0.02539999999999999897 ), #264 );
#54 = VECTOR ( 'NONE', #63, 39.37007874015748143 ) ;
#55 = CIRCLE ( 'NONE', #73, 0.2187500000000000000 ) ;
#56 = APPLICATION_PROTOCOL_DEFINITION ( 'draft international standard', 'automotive_design', 1998, #290 ) ;
#57 = PRESENTATION_LAYER_ASSIGNMENT (  '', '', ( #288 ) ) ;
#58 = ORIENTED_EDGE ( 'NONE', *, *, #140, .F. ) ;
#59 = DIRECTION ( 'NONE',  ( 1.000000000000000000, 0.0000000000000000000, 0.0000000000000000000 ) ) ;
#60 = AXIS2_PLACEMENT_3D ( 'NONE', #254, #87, #4 ) ;
#61 = VERTEX_POINT ( 'NONE', #117 ) ;
#62 = EDGE_CURVE ( 'NONE', #61, #229, #207, .T. ) ;
#63 = DIRECTION ( 'NONE',  ( -0.0000000000000000000, -0.0000000000000000000, -1.000000000000000000 ) ) ;
#64 = COLOUR_RGB ( '',0.7921568627450980005, 0.8196078431372548767, 0.9333333333333333481 ) ;
#65 = DIRECTION ( 'NONE',  ( 1.224646799147353207E-16, 0.0000000000000000000, 1.000000000000000000 ) ) ;
#66 = EDGE_CURVE ( 'NONE', #221, #61, #231, .T. ) ;
#67 = SURFACE_SIDE_STYLE ('',( #120 ) ) ;
#68 = CARTESIAN_POINT ( 'NONE',  ( 0.2187500000000001388, 2.678914873134836913E-17, 1.001240592898041237 ) ) ;
#69 = DIRECTION ( 'NONE',  ( 0.7071067811865621167, 8.659560562355110352E-17, -0.7071067811865330288 ) ) ;
#70 = DIRECTION ( 'NONE',  ( -1.224646799147353207E-16, -0.0000000000000000000, -1.000000000000000000 ) ) ;
#71 = VERTEX_POINT ( 'NONE', #40 ) ;
#72 = DIRECTION ( 'NONE',  ( 1.000000000000000000, 0.0000000000000000000, -0.0000000000000000000 ) ) ;
#73 = AXIS2_PLACEMENT_3D ( 'NONE', #29, #256, #235 ) ;
#74 = ADVANCED_FACE ( 'NONE', ( #25 ), #222, .T. ) ;
#75 = DIRECTION ( 'NONE',  ( 1.000000000000000000, 0.0000000000000000000, 0.0000000000000000000 ) ) ;
#76 = ORIENTED_EDGE ( 'NONE', *, *, #52, .T. ) ;
#77 = ORIENTED_EDGE ( 'NONE', *, *, #111, .T. ) ;
#78 =( CONVERSION_BASED_UNIT ( 'INCH', #181 ) LENGTH_UNIT ( ) NAMED_UNIT ( #50 ) );
#79 = ORIENTED_EDGE ( 'NONE', *, *, #142, .T. ) ;
#80 = DIRECTION ( 'NONE',  ( -1.000000000000000000, 0.0000000000000000000, 0.0000000000000000000 ) ) ;
#81 = ORIENTED_EDGE ( 'NONE', *, *, #126, .T. ) ;
#82 = ORIENTED_EDGE ( 'NONE', *, *, #111, .F. ) ;
#83 = ORIENTED_EDGE ( 'NONE', *, *, #220, .T. ) ;
#84 = VECTOR ( 'NONE', #279, 39.37007874015748143 ) ;
#85 = EDGE_CURVE ( 'NONE', #61, #221, #34, .T. ) ;
#86 = PRODUCT_DEFINITION_FORMATION_WITH_SPECIFIED_SOURCE ( 'ANY', '', #205, .NOT_KNOWN. ) ;
#87 = DIRECTION ( 'NONE',  ( 0.0000000000000000000, 0.0000000000000000000, 1.000000000000000000 ) ) ;
#88 = FACE_OUTER_BOUND ( 'NONE', #185, .T. ) ;
#89 = DIRECTION ( 'NONE',  ( 0.0000000000000000000, 0.0000000000000000000, -1.000000000000000000 ) ) ;
#90 = CIRCLE ( 'NONE', #119, 0.2185312500000000102 ) ;
#91 =( GEOMETRIC_REPRESENTATION_CONTEXT ( 3 ) GLOBAL_UNCERTAINTY_ASSIGNED_CONTEXT ( ( #177 ) ) GLOBAL_UNIT_ASSIGNED_CONTEXT ( ( #78, #224, #292 ) ) REPRESENTATION_CONTEXT ( 'NONE', 'WORKASPACE' ) );
#92 = EDGE_CURVE ( 'NONE', #221, #71, #209, .T. ) ;
#93 = DIRECTION ( 'NONE',  ( -0.1736481776669311916, 2.126576849575783316E-17, 0.9848077530122080203 ) ) ;
#94 = CYLINDRICAL_SURFACE ( 'NONE', #39, 0.2187500000000000000 ) ;
#95 = CARTESIAN_POINT ( 'NONE',  ( 0.0000000000000000000, 0.0000000000000000000, 0.0000000000000000000 ) ) ;
#96 = EDGE_CURVE ( 'NONE', #110, #201, #286, .T. ) ;
#97 = CONICAL_SURFACE ( 'NONE', #149, 0.2037499999999991263, 0.7853981633974688181 ) ;
#98 = CARTESIAN_POINT ( 'NONE',  ( 0.0000000000000000000, 0.0000000000000000000, 2.500000000000000000 ) ) ;
#99 = DIRECTION ( 'NONE',  ( 0.0000000000000000000, 0.0000000000000000000, -1.000000000000000000 ) ) ;
#100 = ORIENTED_EDGE ( 'NONE', *, *, #126, .F. ) ;
#101 = EDGE_CURVE ( 'NONE', #108, #161, #190, .T. ) ;
#102 = DIRECTION ( 'NONE',  ( -0.0000000000000000000, -0.0000000000000000000, -1.000000000000000000 ) ) ;
#103 = DIMENSIONAL_EXPONENTS ( 1.000000000000000000, 0.0000000000000000000, 0.0000000000000000000, 0.0000000000000000000, 0.0000000000000000000, 0.0000000000000000000, 0.0000000000000000000 ) ;
#104 = PRODUCT_DEFINITION_CONTEXT ( 'detailed design', #290, 'design' ) ;
#105 = DIMENSIONAL_EXPONENTS ( 1.000000000000000000, 0.0000000000000000000, 0.0000000000000000000, 0.0000000000000000000, 0.0000000000000000000, 0.0000000000000000000, 0.0000000000000000000 ) ;
#106 = ORIENTED_EDGE ( 'NONE', *, *, #160, .T. ) ;
#107 = PRODUCT_CONTEXT ( 'NONE', #238, 'mechanical' ) ;
#108 = VERTEX_POINT ( 'NONE', #208 ) ;
#109 = VECTOR ( 'NONE', #192, 39.37007874015748143 ) ;
#110 = VERTEX_POINT ( 'NONE', #5 ) ;
#111 = EDGE_CURVE ( 'NONE', #201, #110, #90, .T. ) ;
#112 = ORIENTED_EDGE ( 'NONE', *, *, #145, .T. ) ;
#113 = MANIFOLD_SOLID_BREP ( 'Cut-Revolve1', #219 ) ;
#114 =( GEOMETRIC_REPRESENTATION_CONTEXT ( 3 ) GLOBAL_UNCERTAINTY_ASSIGNED_CONTEXT ( ( #130 ) ) GLOBAL_UNIT_ASSIGNED_CONTEXT ( ( #167, #144, #187 ) ) REPRESENTATION_CONTEXT ( 'NONE', 'WORKASPACE' ) );
#115 = DIRECTION ( 'NONE',  ( 1.000000000000000000, 0.0000000000000000000, 0.0000000000000000000 ) ) ;
#116 = DIRECTION ( 'NONE',  ( -1.000000000000000000, 0.0000000000000000000, 0.0000000000000000000 ) ) ;
#117 = CARTESIAN_POINT ( 'NONE',  ( 0.2185312500000001490, 0.0000000000000000000, 1.000000000000000000 ) ) ;
#118 = CARTESIAN_POINT ( 'NONE',  ( 1.224646799147353207E-16, 0.0000000000000000000, 1.000000000000000000 ) ) ;
#119 = AXIS2_PLACEMENT_3D ( 'NONE', #27, #191, #166 ) ;
#120 = SURFACE_STYLE_FILL_AREA ( #138 ) ;
#121 = DIRECTION ( 'NONE',  ( -1.224646799147353207E-16, -0.0000000000000000000, -1.000000000000000000 ) ) ;
#122 = FACE_OUTER_BOUND ( 'NONE', #270, .T. ) ;
#123 = AXIS2_PLACEMENT_3D ( 'NONE', #37, #249, #244 ) ;
#124 = LINE ( 'NONE', #32, #196 ) ;
#125 = CARTESIAN_POINT ( 'NONE',  ( -0.2187500000000000000, 0.0000000000000000000, 2.500000000000000000 ) ) ;
#126 = EDGE_CURVE ( 'NONE', #61, #110, #9, .T. ) ;
#127 = LINE ( 'NONE', #51, #139 ) ;
#128 = AXIS2_PLACEMENT_3D ( 'NONE', #98, #6, #195 ) ;
#129 = EDGE_LOOP ( 'NONE', ( #58, #162, #106, #35 ) ) ;
#130 = UNCERTAINTY_MEASURE_WITH_UNIT (LENGTH_MEASURE( 1.000000000000000082E-05 ), #167, 'distance_accuracy_value', 'NONE');
#131 = SURFACE_STYLE_USAGE ( .BOTH. , #246 ) ;
#132 = ORIENTED_EDGE ( 'NONE', *, *, #92, .F. ) ;
#133 = VECTOR ( 'NONE', #175, 39.37007874015747433 ) ;
#134 =( LENGTH_UNIT ( ) NAMED_UNIT ( * ) SI_UNIT ( $, .METRE. ) );
#135 = SHAPE_DEFINITION_REPRESENTATION ( #273, #44 ) ;
#136 = ORIENTED_EDGE ( 'NONE', *, *, #85, .F. ) ;
#137 = ADVANCED_FACE ( 'NONE', ( #88 ), #281, .T. ) ;
#138 = FILL_AREA_STYLE ('',( #189 ) ) ;
#139 = VECTOR ( 'NONE', #215, 39.37007874015748143 ) ;
#140 = EDGE_CURVE ( 'NONE', #199, #108, #124, .T. ) ;
#141 = CARTESIAN_POINT ( 'NONE',  ( -0.2185312499999998714, 2.676235958261700427E-17, 1.000000000000000000 ) ) ;
#142 = EDGE_CURVE ( 'NONE', #161, #108, #259, .T. ) ;
#143 = CARTESIAN_POINT ( 'NONE',  ( 3.277443800048241261E-33, 0.0000000000000000000, 2.676235958261700427E-17 ) ) ;
#144 =( NAMED_UNIT ( * ) PLANE_ANGLE_UNIT ( ) SI_UNIT ( $, .RADIAN. ) );
#145 = EDGE_CURVE ( 'NONE', #229, #71, #55, .T. ) ;
#146 = FACE_OUTER_BOUND ( 'NONE', #158, .T. ) ;
#147 = LINE ( 'NONE', #218, #133 ) ;
#148 = DIRECTION ( 'NONE',  ( -1.000000000000000000, 0.0000000000000000000, 1.224646799147353207E-16 ) ) ;
#149 = AXIS2_PLACEMENT_3D ( 'NONE', #171, #258, #47 ) ;
#150 = CARTESIAN_POINT ( 'NONE',  ( 0.2185312500000000102, 2.676235958261700427E-17, -2.676235958261700427E-17 ) ) ;
#151 = ADVANCED_FACE ( 'NONE', ( #233 ), #152, .F. ) ;
#152 = PLANE ( 'NONE',  #234 ) ;
#153 = AXIS2_PLACEMENT_3D ( 'NONE', #176, #15, #59 ) ;
#154 = ORIENTED_EDGE ( 'NONE', *, *, #142, .F. ) ;
#155 = APPLICATION_PROTOCOL_DEFINITION ( 'draft international standard', 'automotive_design', 1998, #238 ) ;
#156 = EDGE_LOOP ( 'NONE', ( #18, #81, #82, #243 ) ) ;
#157 = FILL_AREA_STYLE_COLOUR ( '', #223 ) ;
#158 = EDGE_LOOP ( 'NONE', ( #79, #76, #21, #277 ) ) ;
#159 = CIRCLE ( 'NONE', #60, 0.2037499999999991263 ) ;
#160 = EDGE_CURVE ( 'NONE', #2, #161, #147, .T. ) ;
#161 = VERTEX_POINT ( 'NONE', #168 ) ;
#162 = ORIENTED_EDGE ( 'NONE', *, *, #276, .F. ) ;
#163 = CARTESIAN_POINT ( 'NONE',  ( -0.2037499999999991263, 0.0000000000000000000, 2.500000000000000000 ) ) ;
#164 = EDGE_LOOP ( 'NONE', ( #184, #165 ) ) ;
#165 = ORIENTED_EDGE ( 'NONE', *, *, #43, .T. ) ;
#166 = DIRECTION ( 'NONE',  ( -1.000000000000000000, 0.0000000000000000000, 1.224646799147353207E-16 ) ) ;
#167 =( CONVERSION_BASED_UNIT ( 'INCH', #42 ) LENGTH_UNIT ( ) NAMED_UNIT ( #105 ) );
#168 = CARTESIAN_POINT ( 'NONE',  ( -0.2187500000000000000, 0.0000000000000000000, 2.484999999999999876 ) ) ;
#169 = ADVANCED_FACE ( 'NONE', ( #33 ), #30, .T. ) ;
#170 = CARTESIAN_POINT ( 'NONE',  ( 0.0000000000000000000, 0.0000000000000000000, 0.0000000000000000000 ) ) ;
#171 = CARTESIAN_POINT ( 'NONE',  ( 0.0000000000000000000, 0.0000000000000000000, 2.500000000000000000 ) ) ;
#172 = EDGE_LOOP ( 'NONE', ( #77, #36 ) ) ;
#173 = CARTESIAN_POINT ( 'NONE',  ( 0.2037499999999991263, 2.587066363198777614E-17, 2.500000000000000000 ) ) ;
#174 = VECTOR ( 'NONE', #93, 39.37007874015747433 ) ;
#175 = DIRECTION ( 'NONE',  ( -0.7071067811865621167, 0.0000000000000000000, -0.7071067811865330288 ) ) ;
#176 = CARTESIAN_POINT ( 'NONE',  ( 0.0000000000000000000, 0.0000000000000000000, 0.0000000000000000000 ) ) ;
#177 = UNCERTAINTY_MEASURE_WITH_UNIT (LENGTH_MEASURE( 1.000000000000000082E-05 ), #78, 'distance_accuracy_value', 'NONE');
#178 = DIRECTION ( 'NONE',  ( 0.0000000000000000000, 0.0000000000000000000, -1.000000000000000000 ) ) ;
#179 = ORIENTED_EDGE ( 'NONE', *, *, #101, .T. ) ;
#180 = AXIS2_PLACEMENT_3D ( 'NONE', #143, #211, #278 ) ;
#181 = LENGTH_MEASURE_WITH_UNIT ( LENGTH_MEASURE( 0.02539999999999999897 ), #134 );
#182 = EDGE_LOOP ( 'NONE', ( #19, #188, #296, #266 ) ) ;
#183 = PLANE ( 'NONE',  #123 ) ;
#184 = ORIENTED_EDGE ( 'NONE', *, *, #276, .T. ) ;
#185 = EDGE_LOOP ( 'NONE', ( #100, #262, #299, #245 ) ) ;
#186 = AXIS2_PLACEMENT_3D ( 'NONE', #95, #70, #148 ) ;
#187 =( NAMED_UNIT ( * ) SI_UNIT ( $, .STERADIAN. ) SOLID_ANGLE_UNIT ( ) );
#188 = ORIENTED_EDGE ( 'NONE', *, *, #92, .T. ) ;
#189 = FILL_AREA_STYLE_COLOUR ( '', #64 ) ;
#190 = CIRCLE ( 'NONE', #206, 0.2187500000000000000 ) ;
#191 = DIRECTION ( 'NONE',  ( -1.224646799147353207E-16, -0.0000000000000000000, -1.000000000000000000 ) ) ;
#192 = DIRECTION ( 'NONE',  ( 0.1736481776669313859, 0.0000000000000000000, 0.9848077530122077983 ) ) ;
#193 = ADVANCED_FACE ( 'NONE', ( #49 ), #45, .T. ) ;
#194 = CARTESIAN_POINT ( 'NONE',  ( 1.226166087268984330E-16, 0.0000000000000000000, 1.001240592898041237 ) ) ;
#195 = DIRECTION ( 'NONE',  ( 1.000000000000000000, 0.0000000000000000000, 0.0000000000000000000 ) ) ;
#196 = VECTOR ( 'NONE', #69, 39.37007874015747433 ) ;
#197 = FACE_OUTER_BOUND ( 'NONE', #129, .T. ) ;
#198 = DIRECTION ( 'NONE',  ( -1.224646799147353207E-16, -0.0000000000000000000, -1.000000000000000000 ) ) ;
#199 = VERTEX_POINT ( 'NONE', #173 ) ;
#200 = DIRECTION ( 'NONE',  ( 1.224646799147353207E-16, 0.0000000000000000000, 1.000000000000000000 ) ) ;
#201 = VERTEX_POINT ( 'NONE', #282 ) ;
#202 = AXIS2_PLACEMENT_3D ( 'NONE', #24, #251, #116 ) ;
#203 = FACE_OUTER_BOUND ( 'NONE', #164, .T. ) ;
#204 = ORIENTED_EDGE ( 'NONE', *, *, #43, .F. ) ;
#205 = PRODUCT ( 'Micro_GEM-437-4', 'Micro_GEM-437-4', '', ( #107 ) ) ;
#206 = AXIS2_PLACEMENT_3D ( 'NONE', #228, #89, #115 ) ;
#207 = LINE ( 'NONE', #226, #109 ) ;
#208 = CARTESIAN_POINT ( 'NONE',  ( 0.2187500000000000000, 2.678914873134835064E-17, 2.484999999999999876 ) ) ;
#209 = LINE ( 'NONE', #141, #174 ) ;
#210 = CIRCLE ( 'NONE', #280, 0.2187500000000000000 ) ;
#211 = DIRECTION ( 'NONE',  ( -1.224646799147353207E-16, -0.0000000000000000000, -1.000000000000000000 ) ) ;
#212 = DIRECTION ( 'NONE',  ( -1.224646799147353207E-16, -0.0000000000000000000, -1.000000000000000000 ) ) ;
#213 = DIRECTION ( 'NONE',  ( 1.000000000000000000, 0.0000000000000000000, 0.0000000000000000000 ) ) ;
#214 = VECTOR ( 'NONE', #31, 39.37007874015748143 ) ;
#215 = DIRECTION ( 'NONE',  ( -1.224646799147353207E-16, -0.0000000000000000000, -1.000000000000000000 ) ) ;
#216 = CARTESIAN_POINT ( 'NONE',  ( 1.224646799147353207E-16, 0.0000000000000000000, 1.000000000000000000 ) ) ;
#217 = CYLINDRICAL_SURFACE ( 'NONE', #265, 0.2187500000000000000 ) ;
#218 = CARTESIAN_POINT ( 'NONE',  ( -0.2037499999999991263, 0.0000000000000000000, 2.500000000000000000 ) ) ;
#219 = CLOSED_SHELL ( 'NONE', ( #193, #169, #293, #260, #230, #298, #285, #74, #137, #151 ) ) ;
#220 = EDGE_CURVE ( 'NONE', #161, #71, #261, .T. ) ;
#221 = VERTEX_POINT ( 'NONE', #257 ) ;
#222 = CONICAL_SURFACE ( 'NONE', #241, 0.2185312500000000102, 0.1745329251994338915 ) ;
#223 = COLOUR_RGB ( '',0.7921568627450980005, 0.8196078431372548767, 0.9333333333333333481 ) ;
#224 =( NAMED_UNIT ( * ) PLANE_ANGLE_UNIT ( ) SI_UNIT ( $, .RADIAN. ) );
#225 = EDGE_LOOP ( 'NONE', ( #132, #136, #284, #112 ) ) ;
#226 = CARTESIAN_POINT ( 'NONE',  ( 0.2185312500000001490, 0.0000000000000000000, 1.000000000000000000 ) ) ;
#227 = MECHANICAL_DESIGN_GEOMETRIC_PRESENTATION_REPRESENTATION (  '', ( #23 ), #114 ) ;
#228 = CARTESIAN_POINT ( 'NONE',  ( 0.0000000000000000000, 0.0000000000000000000, 2.484999999999999876 ) ) ;
#229 = VERTEX_POINT ( 'NONE', #68 ) ;
#230 = ADVANCED_FACE ( 'NONE', ( #122 ), #217, .T. ) ;
#231 = CIRCLE ( 'NONE', #202, 0.2185312500000000102 ) ;
#232 = DIRECTION ( 'NONE',  ( -1.000000000000000000, 0.0000000000000000000, 0.0000000000000000000 ) ) ;
#233 = FACE_OUTER_BOUND ( 'NONE', #172, .T. ) ;
#234 = AXIS2_PLACEMENT_3D ( 'NONE', #8, #46, #72 ) ;
#235 = DIRECTION ( 'NONE',  ( 1.000000000000000000, 0.0000000000000000000, 0.0000000000000000000 ) ) ;
#236 =( GEOMETRIC_REPRESENTATION_CONTEXT ( 3 ) GLOBAL_UNCERTAINTY_ASSIGNED_CONTEXT ( ( #14 ) ) GLOBAL_UNIT_ASSIGNED_CONTEXT ( ( #242, #13, #268 ) ) REPRESENTATION_CONTEXT ( 'NONE', 'WORKASPACE' ) );
#237 = DIRECTION ( 'NONE',  ( -1.000000000000000000, 0.0000000000000000000, 1.224646799147353207E-16 ) ) ;
#238 = APPLICATION_CONTEXT ( 'automotive_design' ) ;
#239 = CARTESIAN_POINT ( 'NONE',  ( 0.0000000000000000000, 0.0000000000000000000, 2.484999999999999876 ) ) ;
#240 = FACE_OUTER_BOUND ( 'NONE', #250, .T. ) ;
#241 = AXIS2_PLACEMENT_3D ( 'NONE', #118, #65, #3 ) ;
#242 =( CONVERSION_BASED_UNIT ( 'INCH', #53 ) LENGTH_UNIT ( ) NAMED_UNIT ( #103 ) );
#243 = ORIENTED_EDGE ( 'NONE', *, *, #267, .F. ) ;
#244 = DIRECTION ( 'NONE',  ( 1.000000000000000000, 0.0000000000000000000, -0.0000000000000000000 ) ) ;
#245 = ORIENTED_EDGE ( 'NONE', *, *, #96, .F. ) ;
#246 = SURFACE_SIDE_STYLE ('',( #269 ) ) ;
#247 = ORIENTED_EDGE ( 'NONE', *, *, #52, .F. ) ;
#248 = CIRCLE ( 'NONE', #128, 0.2037499999999991263 ) ;
#249 = DIRECTION ( 'NONE',  ( 0.0000000000000000000, 0.0000000000000000000, 1.000000000000000000 ) ) ;
#250 = EDGE_LOOP ( 'NONE', ( #204, #297, #154, #291 ) ) ;
#251 = DIRECTION ( 'NONE',  ( -1.224646799147353207E-16, -0.0000000000000000000, -1.000000000000000000 ) ) ;
#252 = AXIS2_PLACEMENT_3D ( 'NONE', #294, #178, #80 ) ;
#253 = CARTESIAN_POINT ( 'NONE',  ( 1.224646799147353207E-16, 0.0000000000000000000, 1.000000000000000000 ) ) ;
#254 = CARTESIAN_POINT ( 'NONE',  ( 0.0000000000000000000, 0.0000000000000000000, 2.500000000000000000 ) ) ;
#255 = PRESENTATION_LAYER_ASSIGNMENT (  '', '', ( #23 ) ) ;
#256 = DIRECTION ( 'NONE',  ( -1.224646799147353207E-16, -0.0000000000000000000, -1.000000000000000000 ) ) ;
#257 = CARTESIAN_POINT ( 'NONE',  ( -0.2185312499999998714, 2.677575415698267899E-17, 1.000000000000000000 ) ) ;
#258 = DIRECTION ( 'NONE',  ( 0.0000000000000000000, 0.0000000000000000000, -1.000000000000000000 ) ) ;
#259 = CIRCLE ( 'NONE', #26, 0.2187500000000000000 ) ;
#260 = ADVANCED_FACE ( 'NONE', ( #146 ), #94, .T. ) ;
#261 = LINE ( 'NONE', #125, #84 ) ;
#262 = ORIENTED_EDGE ( 'NONE', *, *, #85, .T. ) ;
#263 = DIRECTION ( 'NONE',  ( -0.0000000000000000000, -0.0000000000000000000, -1.000000000000000000 ) ) ;
#264 =( LENGTH_UNIT ( ) NAMED_UNIT ( * ) SI_UNIT ( $, .METRE. ) );
#265 = AXIS2_PLACEMENT_3D ( 'NONE', #11, #102, #287 ) ;
#266 = ORIENTED_EDGE ( 'NONE', *, *, #62, .F. ) ;
#267 = EDGE_CURVE ( 'NONE', #221, #201, #127, .T. ) ;
#268 =( NAMED_UNIT ( * ) SI_UNIT ( $, .STERADIAN. ) SOLID_ANGLE_UNIT ( ) );
#269 = SURFACE_STYLE_FILL_AREA ( #289 ) ;
#270 = EDGE_LOOP ( 'NONE', ( #247, #179, #83, #10 ) ) ;
#271 = EDGE_CURVE ( 'NONE', #71, #229, #210, .T. ) ;
#272 = SURFACE_STYLE_USAGE ( .BOTH. , #67 ) ;
#273 = PRODUCT_DEFINITION_SHAPE ( 'NONE', 'NONE',  #12 ) ;
#274 = CARTESIAN_POINT ( 'NONE',  ( 0.2187500000000000000, 2.678914873134835064E-17, 2.500000000000000000 ) ) ;
#275 = PRESENTATION_STYLE_ASSIGNMENT (( #272 ) ) ;
#276 = EDGE_CURVE ( 'NONE', #2, #199, #248, .T. ) ;
#277 = ORIENTED_EDGE ( 'NONE', *, *, #220, .F. ) ;
#278 = DIRECTION ( 'NONE',  ( -1.000000000000000000, 0.0000000000000000000, 1.224646799147353207E-16 ) ) ;
#279 = DIRECTION ( 'NONE',  ( -0.0000000000000000000, -0.0000000000000000000, -1.000000000000000000 ) ) ;
#280 = AXIS2_PLACEMENT_3D ( 'NONE', #194, #121, #213 ) ;
#281 = CYLINDRICAL_SURFACE ( 'NONE', #48, 0.2185312500000000102 ) ;
#282 = CARTESIAN_POINT ( 'NONE',  ( -0.2185312500000000102, 0.0000000000000000000, 5.352471916523400854E-17 ) ) ;
#283 = DIRECTION ( 'NONE',  ( 1.000000000000000000, 0.0000000000000000000, 0.0000000000000000000 ) ) ;
#284 = ORIENTED_EDGE ( 'NONE', *, *, #62, .T. ) ;
#285 = ADVANCED_FACE ( 'NONE', ( #197 ), #97, .T. ) ;
#286 = CIRCLE ( 'NONE', #180, 0.2185312500000000102 ) ;
#287 = DIRECTION ( 'NONE',  ( -1.000000000000000000, 0.0000000000000000000, 0.0000000000000000000 ) ) ;
#288 = STYLED_ITEM ( 'NONE', ( #38 ), #44 ) ;
#289 = FILL_AREA_STYLE ('',( #157 ) ) ;
#290 = APPLICATION_CONTEXT ( 'automotive_design' ) ;
#291 = ORIENTED_EDGE ( 'NONE', *, *, #160, .F. ) ;
#292 =( NAMED_UNIT ( * ) SI_UNIT ( $, .STERADIAN. ) SOLID_ANGLE_UNIT ( ) );
#293 = ADVANCED_FACE ( 'NONE', ( #240 ), #7, .T. ) ;
#294 = CARTESIAN_POINT ( 'NONE',  ( 0.0000000000000000000, 0.0000000000000000000, 2.500000000000000000 ) ) ;
#295 = AXIS2_PLACEMENT_3D ( 'NONE', #216, #200, #75 ) ;
#296 = ORIENTED_EDGE ( 'NONE', *, *, #271, .T. ) ;
#297 = ORIENTED_EDGE ( 'NONE', *, *, #140, .T. ) ;
#298 = ADVANCED_FACE ( 'NONE', ( #203 ), #183, .T. ) ;
#299 = ORIENTED_EDGE ( 'NONE', *, *, #267, .T. ) ;
ENDSEC;
END-ISO-10303-21;
