ISO-10303-21;
HEADER;
FILE_DESCRIPTION (( 'STEP AP214' ),
    '1' );
FILE_NAME ('12527.STEP',
    '2023-06-30T21:51:33',
    ( '' ),
    ( '' ),
    'SwSTEP 2.0',
    'SolidWorks 2023',
    '' );
FILE_SCHEMA (( 'AUTOMOTIVE_DESIGN' ));
ENDSEC;

DATA;
#1 = CYLINDRICAL_SURFACE ( 'NONE', #223, 0.4999999999999998335 ) ;
#2 = SURFACE_SIDE_STYLE ('',( #88 ) ) ;
#3 = AXIS2_PLACEMENT_3D ( 'NONE', #221, #329, #299 ) ;
#4 = PRESENTATION_LAYER_ASSIGNMENT (  '', '', ( #169 ) ) ;
#5 = PRODUCT_DEFINITION_CONTEXT ( 'detailed design', #117, 'design' ) ;
#6 = UNCERTAINTY_MEASURE_WITH_UNIT (LENGTH_MEASURE( 1.000000000000000082E-05 ), #67, 'distance_accuracy_value', 'NONE');
#7 = DIRECTION ( 'NONE',  ( -1.678524052369137559E-16, 1.000000000000000000, -0.000000000000000000 ) ) ;
#8 = DIRECTION ( 'NONE',  ( -1.678524052369137559E-16, 1.000000000000000000, -0.000000000000000000 ) ) ;
#9 = MANIFOLD_SOLID_BREP ( 'Revolve - Cutting Edge', #155 ) ;
#10 = CARTESIAN_POINT ( 'NONE',  ( 0.000000000000000000, 1.250000000000000000, 0.000000000000000000 ) ) ;
#11 = AXIS2_PLACEMENT_3D ( 'NONE', #272, #70, #154 ) ;
#12 = ORIENTED_EDGE ( 'NONE', *, *, #240, .T. ) ;
#13 = LENGTH_MEASURE_WITH_UNIT ( LENGTH_MEASURE( 0.02539999999999999897 ), #275 );
#14 = CARTESIAN_POINT ( 'NONE',  ( 0.4999999999999996114, 4.000000000000000000, 6.123233995736763571E-17 ) ) ;
#15 = ORIENTED_EDGE ( 'NONE', *, *, #22, .T. ) ;
#16 = FILL_AREA_STYLE ('',( #53 ) ) ;
#17 = DIRECTION ( 'NONE',  ( -0.000000000000000000, -1.000000000000000000, -0.000000000000000000 ) ) ;
#18 = CARTESIAN_POINT ( 'NONE',  ( -1.224646799147352468E-16, 4.000000000000000000, 0.000000000000000000 ) ) ;
#19 = ORIENTED_EDGE ( 'NONE', *, *, #85, .F. ) ;
#20 = VERTEX_POINT ( 'NONE', #135 ) ;
#21 = CARTESIAN_POINT ( 'NONE',  ( 0.000000000000000000, 0.5000000000000000000, 0.000000000000000000 ) ) ;
#22 = EDGE_CURVE ( 'NONE', #108, #323, #96, .T. ) ;
#23 = EDGE_LOOP ( 'NONE', ( #273, #297, #24, #12 ) ) ;
#24 = ORIENTED_EDGE ( 'NONE', *, *, #188, .F. ) ;
#25 = AXIS2_PLACEMENT_3D ( 'NONE', #21, #194, #293 ) ;
#26 = EDGE_LOOP ( 'NONE', ( #252, #15, #137, #302, #157 ) ) ;
#27 = PRESENTATION_STYLE_ASSIGNMENT (( #282 ) ) ;
#28 = DIRECTION ( 'NONE',  ( 1.000000000000000000, 0.000000000000000000, 0.000000000000000000 ) ) ;
#29 = CARTESIAN_POINT ( 'NONE',  ( -1.224646799147352714E-16, 4.000000000000000000, 0.000000000000000000 ) ) ;
#30 = ADVANCED_BREP_SHAPE_REPRESENTATION ( '12527', ( #9, #136, #251 ), #205 ) ;
#31 =( LENGTH_UNIT ( ) NAMED_UNIT ( * ) SI_UNIT ( $, .METRE. ) );
#32 = PRODUCT_DEFINITION_FORMATION_WITH_SPECIFIED_SOURCE ( 'ANY', '', #254, .NOT_KNOWN. ) ;
#33 =( NAMED_UNIT ( * ) PLANE_ANGLE_UNIT ( ) SI_UNIT ( $, .RADIAN. ) );
#34 = CARTESIAN_POINT ( 'NONE',  ( -6.123233995736766036E-17, 0.5000000000000000000, 0.000000000000000000 ) ) ;
#35 = COLOUR_RGB ( '',1.000000000000000000, 0.000000000000000000, 0.000000000000000000 ) ;
#36 = SURFACE_STYLE_USAGE ( .BOTH. , #58 ) ;
#37 = FACE_OUTER_BOUND ( 'NONE', #141, .T. ) ;
#38 = EDGE_CURVE ( 'NONE', #144, #39, #343, .T. ) ;
#39 = VERTEX_POINT ( 'NONE', #248 ) ;
#40 = CARTESIAN_POINT ( 'NONE',  ( 0.4999999999999998335, 4.000000000000000000, 6.123233995736764803E-17 ) ) ;
#41 = CARTESIAN_POINT ( 'NONE',  ( 3.391294344867775510E-16, 1.250000000000000000, 0.000000000000000000 ) ) ;
#42 = AXIS2_PLACEMENT_3D ( 'NONE', #269, #161, #183 ) ;
#43 = ORIENTED_EDGE ( 'NONE', *, *, #339, .F. ) ;
#44 = CARTESIAN_POINT ( 'NONE',  ( 0.4999999999999998335, 0.5000000000000000000, 0.000000000000000000 ) ) ;
#45 = DIRECTION ( 'NONE',  ( -1.000000000000000000, 0.000000000000000000, 0.000000000000000000 ) ) ;
#46 = ORIENTED_EDGE ( 'NONE', *, *, #118, .T. ) ;
#47 = STYLED_ITEM ( 'NONE', ( #274 ), #9 ) ;
#48 = CARTESIAN_POINT ( 'NONE',  ( 0.000000000000000000, 1.250000000000000000, 0.000000000000000000 ) ) ;
#49 = CIRCLE ( 'NONE', #42, 0.5000000000000000000 ) ;
#50 = FACE_OUTER_BOUND ( 'NONE', #23, .T. ) ;
#51 = VECTOR ( 'NONE', #17, 39.37007874015748143 ) ;
#52 = ADVANCED_FACE ( 'NONE', ( #50 ), #337, .T. ) ;
#53 = FILL_AREA_STYLE_COLOUR ( '', #348 ) ;
#54 = FILL_AREA_STYLE ('',( #61 ) ) ;
#55 = CIRCLE ( 'NONE', #180, 0.4999999999999998335 ) ;
#56 = PRESENTATION_STYLE_ASSIGNMENT (( #36 ) ) ;
#57 = AXIS2_PLACEMENT_3D ( 'NONE', #191, #163, #226 ) ;
#58 = SURFACE_SIDE_STYLE ('',( #175 ) ) ;
#59 = SURFACE_STYLE_USAGE ( .BOTH. , #2 ) ;
#60 = UNCERTAINTY_MEASURE_WITH_UNIT (LENGTH_MEASURE( 1.000000000000000082E-05 ), #82, 'distance_accuracy_value', 'NONE');
#61 = FILL_AREA_STYLE_COLOUR ( '', #301 ) ;
#62 =( NAMED_UNIT ( * ) SI_UNIT ( $, .STERADIAN. ) SOLID_ANGLE_UNIT ( ) );
#63 = DIMENSIONAL_EXPONENTS ( 1.000000000000000000, 0.000000000000000000, 0.000000000000000000, 0.000000000000000000, 0.000000000000000000, 0.000000000000000000, 0.000000000000000000 ) ;
#64 = EDGE_CURVE ( 'NONE', #323, #20, #363, .T. ) ;
#65 = CARTESIAN_POINT ( 'NONE',  ( 6.123233995736764803E-17, 1.250000000000000000, 0.4999999999999998335 ) ) ;
#66 = CIRCLE ( 'NONE', #355, 0.5000000000000000000 ) ;
#67 =( CONVERSION_BASED_UNIT ( 'INCH', #130 ) LENGTH_UNIT ( ) NAMED_UNIT ( #95 ) );
#68 = ORIENTED_EDGE ( 'NONE', *, *, #326, .T. ) ;
#69 = DIRECTION ( 'NONE',  ( -1.678524052369137559E-16, 1.000000000000000000, -0.000000000000000000 ) ) ;
#70 = DIRECTION ( 'NONE',  ( 1.678524052369137559E-16, -1.000000000000000000, 0.000000000000000000 ) ) ;
#71 = ORIENTED_EDGE ( 'NONE', *, *, #85, .T. ) ;
#72 = PLANE ( 'NONE',  #3 ) ;
#73 = LINE ( 'NONE', #14, #214 ) ;
#74 = PRESENTATION_LAYER_ASSIGNMENT (  '', '', ( #153 ) ) ;
#75 =( NAMED_UNIT ( * ) SI_UNIT ( $, .STERADIAN. ) SOLID_ANGLE_UNIT ( ) );
#76 = ADVANCED_FACE ( 'NONE', ( #259 ), #1, .T. ) ;
#77 =( NAMED_UNIT ( * ) PLANE_ANGLE_UNIT ( ) SI_UNIT ( $, .RADIAN. ) );
#78 =( GEOMETRIC_REPRESENTATION_CONTEXT ( 3 ) GLOBAL_UNCERTAINTY_ASSIGNED_CONTEXT ( ( #120 ) ) GLOBAL_UNIT_ASSIGNED_CONTEXT ( ( #285, #344, #311 ) ) REPRESENTATION_CONTEXT ( 'NONE', 'WORKASPACE' ) );
#79 = ORIENTED_EDGE ( 'NONE', *, *, #139, .T. ) ;
#80 = FACE_OUTER_BOUND ( 'NONE', #26, .T. ) ;
#81 = ADVANCED_FACE ( 'NONE', ( #119 ), #287, .T. ) ;
#82 =( CONVERSION_BASED_UNIT ( 'INCH', #328 ) LENGTH_UNIT ( ) NAMED_UNIT ( #267 ) );
#83 =( NAMED_UNIT ( * ) PLANE_ANGLE_UNIT ( ) SI_UNIT ( $, .RADIAN. ) );
#84 = DIRECTION ( 'NONE',  ( 0.000000000000000000, 0.000000000000000000, 1.000000000000000000 ) ) ;
#85 = EDGE_CURVE ( 'NONE', #20, #367, #55, .T. ) ;
#86 =( CONVERSION_BASED_UNIT ( 'INCH', #372 ) LENGTH_UNIT ( ) NAMED_UNIT ( #211 ) );
#87 = PRESENTATION_LAYER_ASSIGNMENT (  '', '', ( #197 ) ) ;
#88 = SURFACE_STYLE_FILL_AREA ( #54 ) ;
#89 = AXIS2_PLACEMENT_3D ( 'NONE', #48, #228, #114 ) ;
#90 = CARTESIAN_POINT ( 'NONE',  ( 0.000000000000000000, 0.5000000000000000000, 0.000000000000000000 ) ) ;
#91 = DIMENSIONAL_EXPONENTS ( 1.000000000000000000, 0.000000000000000000, 0.000000000000000000, 0.000000000000000000, 0.000000000000000000, 0.000000000000000000, 0.000000000000000000 ) ;
#92 = AXIS2_PLACEMENT_3D ( 'NONE', #318, #373, #250 ) ;
#93 = ADVANCED_FACE ( 'NONE', ( #209 ), #262, .T. ) ;
#94 =( CONVERSION_BASED_UNIT ( 'INCH', #241 ) LENGTH_UNIT ( ) NAMED_UNIT ( #91 ) );
#95 = DIMENSIONAL_EXPONENTS ( 1.000000000000000000, 0.000000000000000000, 0.000000000000000000, 0.000000000000000000, 0.000000000000000000, 0.000000000000000000, 0.000000000000000000 ) ;
#96 = CIRCLE ( 'NONE', #89, 0.4999999999999998335 ) ;
#97 = DIMENSIONAL_EXPONENTS ( 1.000000000000000000, 0.000000000000000000, 0.000000000000000000, 0.000000000000000000, 0.000000000000000000, 0.000000000000000000, 0.000000000000000000 ) ;
#98 = DIRECTION ( 'NONE',  ( 0.000000000000000000, 0.000000000000000000, -1.000000000000000000 ) ) ;
#99 = VERTEX_POINT ( 'NONE', #321 ) ;
#100 = DIRECTION ( 'NONE',  ( -0.000000000000000000, -1.000000000000000000, -0.000000000000000000 ) ) ;
#101 = FACE_OUTER_BOUND ( 'NONE', #134, .T. ) ;
#102 = CLOSED_SHELL ( 'NONE', ( #332, #362, #81, #171 ) ) ;
#103 = ORIENTED_EDGE ( 'NONE', *, *, #199, .T. ) ;
#104 = LENGTH_MEASURE_WITH_UNIT ( LENGTH_MEASURE( 0.02539999999999999897 ), #253 );
#105 = FACE_OUTER_BOUND ( 'NONE', #227, .T. ) ;
#106 = DIRECTION ( 'NONE',  ( 0.000000000000000000, -0.000000000000000000, 1.000000000000000000 ) ) ;
#107 = VECTOR ( 'NONE', #349, 39.37007874015748143 ) ;
#108 = VERTEX_POINT ( 'NONE', #65 ) ;
#109 =( NAMED_UNIT ( * ) PLANE_ANGLE_UNIT ( ) SI_UNIT ( $, .RADIAN. ) );
#110 = DIRECTION ( 'NONE',  ( -1.678524052369137559E-16, 1.000000000000000000, -0.000000000000000000 ) ) ;
#111 = ORIENTED_EDGE ( 'NONE', *, *, #118, .F. ) ;
#112 = SURFACE_STYLE_FILL_AREA ( #16 ) ;
#113 = ORIENTED_EDGE ( 'NONE', *, *, #22, .F. ) ;
#114 = DIRECTION ( 'NONE',  ( 0.000000000000000000, 0.000000000000000000, -1.000000000000000000 ) ) ;
#115 = VECTOR ( 'NONE', #110, 39.37007874015748143 ) ;
#116 = FILL_AREA_STYLE_COLOUR ( '', #204 ) ;
#117 = APPLICATION_CONTEXT ( 'automotive_design' ) ;
#118 = EDGE_CURVE ( 'NONE', #333, #255, #366, .T. ) ;
#119 = FACE_OUTER_BOUND ( 'NONE', #304, .T. ) ;
#120 = UNCERTAINTY_MEASURE_WITH_UNIT (LENGTH_MEASURE( 1.000000000000000082E-05 ), #285, 'distance_accuracy_value', 'NONE');
#121 = DIRECTION ( 'NONE',  ( -1.000000000000000000, 0.000000000000000000, 0.000000000000000000 ) ) ;
#122 = PLANE ( 'NONE',  #11 ) ;
#123 = PRODUCT_RELATED_PRODUCT_CATEGORY ( 'part', '', ( #254 ) ) ;
#124 = STYLED_ITEM ( 'NONE', ( #237 ), #76 ) ;
#125 = CIRCLE ( 'NONE', #305, 0.4999999999999995004 ) ;
#126 = DIMENSIONAL_EXPONENTS ( 1.000000000000000000, 0.000000000000000000, 0.000000000000000000, 0.000000000000000000, 0.000000000000000000, 0.000000000000000000, 0.000000000000000000 ) ;
#127 = CYLINDRICAL_SURFACE ( 'NONE', #210, 0.4999999999999998335 ) ;
#128 = SURFACE_STYLE_FILL_AREA ( #219 ) ;
#129 = SURFACE_STYLE_FILL_AREA ( #249 ) ;
#130 = LENGTH_MEASURE_WITH_UNIT ( LENGTH_MEASURE( 0.02539999999999999897 ), #246 );
#131 = CARTESIAN_POINT ( 'NONE',  ( -0.4999999999999998335, 4.000000000000000000, 0.000000000000000000 ) ) ;
#132 = CARTESIAN_POINT ( 'NONE',  ( -6.123233995736766036E-17, 0.5000000000000000000, 0.000000000000000000 ) ) ;
#133 = PRESENTATION_LAYER_ASSIGNMENT (  '', '', ( #47 ) ) ;
#134 = EDGE_LOOP ( 'NONE', ( #103, #280 ) ) ;
#135 = CARTESIAN_POINT ( 'NONE',  ( 0.000000000000000000, 0.5000000000000000000, -0.4999999999999998335 ) ) ;
#136 = MANIFOLD_SOLID_BREP ( 'Revolve - Tool Body (Straight Shanked)', #102 ) ;
#137 = ORIENTED_EDGE ( 'NONE', *, *, #64, .T. ) ;
#138 = CARTESIAN_POINT ( 'NONE',  ( -6.123233995736766036E-17, 0.5000000000000000000, 0.000000000000000000 ) ) ;
#139 = EDGE_CURVE ( 'NONE', #255, #333, #125, .T. ) ;
#140 = ORIENTED_EDGE ( 'NONE', *, *, #313, .F. ) ;
#141 = EDGE_LOOP ( 'NONE', ( #46, #165, #193, #140 ) ) ;
#142 = DIRECTION ( 'NONE',  ( 1.224646799147353207E-16, -0.000000000000000000, 1.000000000000000000 ) ) ;
#143 =( NAMED_UNIT ( * ) PLANE_ANGLE_UNIT ( ) SI_UNIT ( $, .RADIAN. ) );
#144 = VERTEX_POINT ( 'NONE', #222 ) ;
#145 = AXIS2_PLACEMENT_3D ( 'NONE', #158, #271, #245 ) ;
#146 =( CONVERSION_BASED_UNIT ( 'INCH', #203 ) LENGTH_UNIT ( ) NAMED_UNIT ( #97 ) );
#147 =( NAMED_UNIT ( * ) SI_UNIT ( $, .STERADIAN. ) SOLID_ANGLE_UNIT ( ) );
#148 = FILL_AREA_STYLE_COLOUR ( '', #286 ) ;
#149 = SURFACE_SIDE_STYLE ('',( #370 ) ) ;
#150 = MECHANICAL_DESIGN_GEOMETRIC_PRESENTATION_REPRESENTATION (  '', ( #153 ), #268 ) ;
#151 = DIRECTION ( 'NONE',  ( -0.000000000000000000, -1.000000000000000000, -0.000000000000000000 ) ) ;
#152 = MECHANICAL_DESIGN_GEOMETRIC_PRESENTATION_REPRESENTATION (  '', ( #124 ), #330 ) ;
#153 = STYLED_ITEM ( 'NONE', ( #320 ), #317 ) ;
#154 = DIRECTION ( 'NONE',  ( 1.000000000000000000, 1.678524052369137559E-16, 0.000000000000000000 ) ) ;
#155 = CLOSED_SHELL ( 'NONE', ( #52, #76, #93, #317, #224 ) ) ;
#156 = DIRECTION ( 'NONE',  ( -1.000000000000000000, 0.000000000000000000, 0.000000000000000000 ) ) ;
#157 = ORIENTED_EDGE ( 'NONE', *, *, #266, .F. ) ;
#158 = CARTESIAN_POINT ( 'NONE',  ( 0.000000000000000000, 1.250000000000000000, 0.000000000000000000 ) ) ;
#159 = ORIENTED_EDGE ( 'NONE', *, *, #181, .F. ) ;
#160 = SURFACE_SIDE_STYLE ('',( #112 ) ) ;
#161 = DIRECTION ( 'NONE',  ( -1.678524052369137559E-16, 1.000000000000000000, -0.000000000000000000 ) ) ;
#162 = ORIENTED_EDGE ( 'NONE', *, *, #339, .T. ) ;
#163 = DIRECTION ( 'NONE',  ( -0.000000000000000000, -1.000000000000000000, -0.000000000000000000 ) ) ;
#164 = APPLICATION_CONTEXT ( 'automotive_design' ) ;
#165 = ORIENTED_EDGE ( 'NONE', *, *, #181, .T. ) ;
#166 = AXIS2_PLACEMENT_3D ( 'NONE', #132, #192, #45 ) ;
#167 = ORIENTED_EDGE ( 'NONE', *, *, #240, .F. ) ;
#168 = FILL_AREA_STYLE ('',( #298 ) ) ;
#169 = STYLED_ITEM ( 'NONE', ( #178 ), #93 ) ;
#170 = MECHANICAL_DESIGN_GEOMETRIC_PRESENTATION_REPRESENTATION (  '', ( #294 ), #232 ) ;
#171 = ADVANCED_FACE ( 'NONE', ( #101 ), #122, .F. ) ;
#172 = MECHANICAL_DESIGN_GEOMETRIC_PRESENTATION_REPRESENTATION (  '', ( #197 ), #342 ) ;
#173 = DIRECTION ( 'NONE',  ( 0.000000000000000000, 0.000000000000000000, -1.000000000000000000 ) ) ;
#174 = CARTESIAN_POINT ( 'NONE',  ( 0.000000000000000000, 0.000000000000000000, 0.000000000000000000 ) ) ;
#175 = SURFACE_STYLE_FILL_AREA ( #261 ) ;
#176 = DIRECTION ( 'NONE',  ( 0.000000000000000000, 0.000000000000000000, -1.000000000000000000 ) ) ;
#177 = CARTESIAN_POINT ( 'NONE',  ( 0.000000000000000000, 0.000000000000000000, 0.000000000000000000 ) ) ;
#178 = PRESENTATION_STYLE_ASSIGNMENT (( #59 ) ) ;
#179 = PRESENTATION_LAYER_ASSIGNMENT (  '', '', ( #229 ) ) ;
#180 = AXIS2_PLACEMENT_3D ( 'NONE', #90, #151, #176 ) ;
#181 = EDGE_CURVE ( 'NONE', #255, #327, #73, .T. ) ;
#182 = CIRCLE ( 'NONE', #92, 0.4999999999999998335 ) ;
#183 = DIRECTION ( 'NONE',  ( -1.000000000000000000, 0.000000000000000000, 0.000000000000000000 ) ) ;
#184 = CARTESIAN_POINT ( 'NONE',  ( 6.123233995736764803E-17, 0.000000000000000000, 0.4999999999999998335 ) ) ;
#185 = ORIENTED_EDGE ( 'NONE', *, *, #188, .T. ) ;
#186 = CARTESIAN_POINT ( 'NONE',  ( -0.4999999999999991673, 1.250000000000000000, 0.000000000000000000 ) ) ;
#187 = SURFACE_SIDE_STYLE ('',( #128 ) ) ;
#188 = EDGE_CURVE ( 'NONE', #367, #39, #334, .T. ) ;
#189 = ORIENTED_EDGE ( 'NONE', *, *, #215, .F. ) ;
#190 = EDGE_LOOP ( 'NONE', ( #43, #113 ) ) ;
#191 = CARTESIAN_POINT ( 'NONE',  ( 0.000000000000000000, 0.5000000000000000000, 0.000000000000000000 ) ) ;
#192 = DIRECTION ( 'NONE',  ( 0.000000000000000000, 0.000000000000000000, -1.000000000000000000 ) ) ;
#193 = ORIENTED_EDGE ( 'NONE', *, *, #199, .F. ) ;
#194 = DIRECTION ( 'NONE',  ( -0.000000000000000000, -1.000000000000000000, -0.000000000000000000 ) ) ;
#195 = SURFACE_STYLE_USAGE ( .BOTH. , #160 ) ;
#196 = PRODUCT_DEFINITION_SHAPE ( 'NONE', 'NONE',  #345 ) ;
#197 = STYLED_ITEM ( 'NONE', ( #56 ), #224 ) ;
#198 = SURFACE_SIDE_STYLE ('',( #278 ) ) ;
#199 = EDGE_CURVE ( 'NONE', #99, #327, #49, .T. ) ;
#200 = DIRECTION ( 'NONE',  ( 0.000000000000000000, 0.000000000000000000, 1.000000000000000000 ) ) ;
#201 = COLOUR_RGB ( '',1.000000000000000000, 0.000000000000000000, 0.000000000000000000 ) ;
#202 = SPHERICAL_SURFACE ( 'NONE', #364, 0.5000000000000000000 ) ;
#203 = LENGTH_MEASURE_WITH_UNIT ( LENGTH_MEASURE( 0.02539999999999999897 ), #31 );
#204 = COLOUR_RGB ( '',1.000000000000000000, 0.000000000000000000, 0.000000000000000000 ) ;
#205 =( GEOMETRIC_REPRESENTATION_CONTEXT ( 3 ) GLOBAL_UNCERTAINTY_ASSIGNED_CONTEXT ( ( #290 ) ) GLOBAL_UNIT_ASSIGNED_CONTEXT ( ( #86, #143, #147 ) ) REPRESENTATION_CONTEXT ( 'NONE', 'WORKASPACE' ) );
#206 = SHAPE_DEFINITION_REPRESENTATION ( #196, #30 ) ;
#207 = MECHANICAL_DESIGN_GEOMETRIC_PRESENTATION_REPRESENTATION (  '', ( #47 ), #352 ) ;
#208 = UNCERTAINTY_MEASURE_WITH_UNIT (LENGTH_MEASURE( 1.000000000000000082E-05 ), #365, 'distance_accuracy_value', 'NONE');
#209 = FACE_OUTER_BOUND ( 'NONE', #190, .T. ) ;
#210 = AXIS2_PLACEMENT_3D ( 'NONE', #242, #100, #98 ) ;
#211 = DIMENSIONAL_EXPONENTS ( 1.000000000000000000, 0.000000000000000000, 0.000000000000000000, 0.000000000000000000, 0.000000000000000000, 0.000000000000000000, 0.000000000000000000 ) ;
#212 = FACE_OUTER_BOUND ( 'NONE', #220, .T. ) ;
#213 = LINE ( 'NONE', #184, #51 ) ;
#214 = VECTOR ( 'NONE', #8, 39.37007874015748143 ) ;
#215 = EDGE_CURVE ( 'NONE', #327, #99, #66, .T. ) ;
#216 = MECHANICAL_DESIGN_GEOMETRIC_PRESENTATION_REPRESENTATION (  '', ( #169 ), #78 ) ;
#217 = VERTEX_POINT ( 'NONE', #350 ) ;
#218 = CYLINDRICAL_SURFACE ( 'NONE', #257, 0.4999999999999997224 ) ;
#219 = FILL_AREA_STYLE ('',( #331 ) ) ;
#220 = EDGE_LOOP ( 'NONE', ( #256, #247, #71, #185 ) ) ;
#221 = CARTESIAN_POINT ( 'NONE',  ( 3.391294344867775017E-16, 1.250000000000000000, 0.000000000000000000 ) ) ;
#222 = CARTESIAN_POINT ( 'NONE',  ( -0.5000000000000000000, 0.5000000000000000000, 6.123233995736764803E-17 ) ) ;
#223 = AXIS2_PLACEMENT_3D ( 'NONE', #177, #309, #173 ) ;
#224 = ADVANCED_FACE ( 'NONE', ( #212 ), #202, .T. ) ;
#225 = ORIENTED_EDGE ( 'NONE', *, *, #64, .F. ) ;
#226 = DIRECTION ( 'NONE',  ( 0.000000000000000000, 0.000000000000000000, -1.000000000000000000 ) ) ;
#227 = EDGE_LOOP ( 'NONE', ( #111, #357 ) ) ;
#228 = DIRECTION ( 'NONE',  ( -0.000000000000000000, -1.000000000000000000, -0.000000000000000000 ) ) ;
#229 = STYLED_ITEM ( 'NONE', ( #292 ), #136 ) ;
#230 =( LENGTH_UNIT ( ) NAMED_UNIT ( * ) SI_UNIT ( $, .METRE. ) );
#231 = FILL_AREA_STYLE ('',( #116 ) ) ;
#232 =( GEOMETRIC_REPRESENTATION_CONTEXT ( 3 ) GLOBAL_UNCERTAINTY_ASSIGNED_CONTEXT ( ( #235 ) ) GLOBAL_UNIT_ASSIGNED_CONTEXT ( ( #368, #109, #75 ) ) REPRESENTATION_CONTEXT ( 'NONE', 'WORKASPACE' ) );
#233 = DIRECTION ( 'NONE',  ( -1.678524052369137559E-16, 1.000000000000000000, -0.000000000000000000 ) ) ;
#234 = PRESENTATION_LAYER_ASSIGNMENT (  '', '', ( #124 ) ) ;
#235 = UNCERTAINTY_MEASURE_WITH_UNIT (LENGTH_MEASURE( 1.000000000000000082E-05 ), #368, 'distance_accuracy_value', 'NONE');
#236 = LENGTH_MEASURE_WITH_UNIT ( LENGTH_MEASURE( 0.02539999999999999897 ), #308 );
#237 = PRESENTATION_STYLE_ASSIGNMENT (( #314 ) ) ;
#238 = PRESENTATION_LAYER_ASSIGNMENT (  '', '', ( #294 ) ) ;
#239 = DIRECTION ( 'NONE',  ( -1.000000000000000000, 0.000000000000000000, 0.000000000000000000 ) ) ;
#240 = EDGE_CURVE ( 'NONE', #367, #217, #182, .T. ) ;
#241 = LENGTH_MEASURE_WITH_UNIT ( LENGTH_MEASURE( 0.02539999999999999897 ), #351 );
#242 = CARTESIAN_POINT ( 'NONE',  ( 0.000000000000000000, 0.000000000000000000, 0.000000000000000000 ) ) ;
#243 = DIRECTION ( 'NONE',  ( -1.678524052369137559E-16, 1.000000000000000000, -0.000000000000000000 ) ) ;
#244 = SURFACE_STYLE_USAGE ( .BOTH. , #303 ) ;
#245 = DIRECTION ( 'NONE',  ( 0.000000000000000000, 0.000000000000000000, -1.000000000000000000 ) ) ;
#246 =( LENGTH_UNIT ( ) NAMED_UNIT ( * ) SI_UNIT ( $, .METRE. ) );
#247 = ORIENTED_EDGE ( 'NONE', *, *, #306, .T. ) ;
#248 = CARTESIAN_POINT ( 'NONE',  ( -3.061616997868383018E-17, 0.000000000000000000, 0.000000000000000000 ) ) ;
#249 = FILL_AREA_STYLE ('',( #358 ) ) ;
#250 = DIRECTION ( 'NONE',  ( 0.000000000000000000, 0.000000000000000000, -1.000000000000000000 ) ) ;
#251 = AXIS2_PLACEMENT_3D ( 'NONE', #174, #283, #260 ) ;
#252 = ORIENTED_EDGE ( 'NONE', *, *, #326, .F. ) ;
#253 =( LENGTH_UNIT ( ) NAMED_UNIT ( * ) SI_UNIT ( $, .METRE. ) );
#254 = PRODUCT ( '12527', '12527', '', ( #338 ) ) ;
#255 = VERTEX_POINT ( 'NONE', #279 ) ;
#256 = ORIENTED_EDGE ( 'NONE', *, *, #38, .F. ) ;
#257 = AXIS2_PLACEMENT_3D ( 'NONE', #324, #69, #156 ) ;
#258 = CARTESIAN_POINT ( 'NONE',  ( -6.123233995736766036E-17, 0.5000000000000000000, 0.000000000000000000 ) ) ;
#259 = FACE_OUTER_BOUND ( 'NONE', #335, .T. ) ;
#260 = DIRECTION ( 'NONE',  ( 1.000000000000000000, 0.000000000000000000, 0.000000000000000000 ) ) ;
#261 = FILL_AREA_STYLE ('',( #148 ) ) ;
#262 = PLANE ( 'NONE',  #288 ) ;
#263 = UNCERTAINTY_MEASURE_WITH_UNIT (LENGTH_MEASURE( 1.000000000000000082E-05 ), #146, 'distance_accuracy_value', 'NONE');
#264 = AXIS2_PLACEMENT_3D ( 'NONE', #354, #243, #300 ) ;
#265 = DIRECTION ( 'NONE',  ( -1.678524052369137559E-16, 1.000000000000000000, -0.000000000000000000 ) ) ;
#266 = EDGE_CURVE ( 'NONE', #217, #144, #310, .T. ) ;
#267 = DIMENSIONAL_EXPONENTS ( 1.000000000000000000, 0.000000000000000000, 0.000000000000000000, 0.000000000000000000, 0.000000000000000000, 0.000000000000000000, 0.000000000000000000 ) ;
#268 =( GEOMETRIC_REPRESENTATION_CONTEXT ( 3 ) GLOBAL_UNCERTAINTY_ASSIGNED_CONTEXT ( ( #208 ) ) GLOBAL_UNIT_ASSIGNED_CONTEXT ( ( #365, #77, #336 ) ) REPRESENTATION_CONTEXT ( 'NONE', 'WORKASPACE' ) );
#269 = CARTESIAN_POINT ( 'NONE',  ( -1.224646799147352468E-16, 4.000000000000000000, 0.000000000000000000 ) ) ;
#270 =( NAMED_UNIT ( * ) SI_UNIT ( $, .STERADIAN. ) SOLID_ANGLE_UNIT ( ) );
#271 = DIRECTION ( 'NONE',  ( -0.000000000000000000, -1.000000000000000000, -0.000000000000000000 ) ) ;
#272 = CARTESIAN_POINT ( 'NONE',  ( 0.4999999999999998335, 4.000000000000000000, 0.000000000000000000 ) ) ;
#273 = ORIENTED_EDGE ( 'NONE', *, *, #266, .T. ) ;
#274 = PRESENTATION_STYLE_ASSIGNMENT (( #195 ) ) ;
#275 =( LENGTH_UNIT ( ) NAMED_UNIT ( * ) SI_UNIT ( $, .METRE. ) );
#276 = DIRECTION ( 'NONE',  ( -1.000000000000000000, 0.000000000000000000, 0.000000000000000000 ) ) ;
#277 = LINE ( 'NONE', #131, #115 ) ;
#278 = SURFACE_STYLE_FILL_AREA ( #168 ) ;
#279 = CARTESIAN_POINT ( 'NONE',  ( 0.4999999999999998335, 1.250000000000000000, 6.123233995736764803E-17 ) ) ;
#280 = ORIENTED_EDGE ( 'NONE', *, *, #215, .T. ) ;
#281 = APPLICATION_PROTOCOL_DEFINITION ( 'draft international standard', 'automotive_design', 1998, #164 ) ;
#282 = SURFACE_STYLE_USAGE ( .BOTH. , #198 ) ;
#283 = DIRECTION ( 'NONE',  ( 0.000000000000000000, 0.000000000000000000, 1.000000000000000000 ) ) ;
#284 = AXIS2_PLACEMENT_3D ( 'NONE', #258, #200, #289 ) ;
#285 =( CONVERSION_BASED_UNIT ( 'INCH', #236 ) LENGTH_UNIT ( ) NAMED_UNIT ( #316 ) );
#286 = COLOUR_RGB ( '',1.000000000000000000, 0.000000000000000000, 0.000000000000000000 ) ;
#287 = CYLINDRICAL_SURFACE ( 'NONE', #361, 0.4999999999999997224 ) ;
#288 = AXIS2_PLACEMENT_3D ( 'NONE', #10, #295, #106 ) ;
#289 = DIRECTION ( 'NONE',  ( 1.000000000000000000, 0.000000000000000000, 0.000000000000000000 ) ) ;
#290 = UNCERTAINTY_MEASURE_WITH_UNIT (LENGTH_MEASURE( 1.000000000000000082E-05 ), #86, 'distance_accuracy_value', 'NONE');
#291 = CIRCLE ( 'NONE', #25, 0.4999999999999998335 ) ;
#292 = PRESENTATION_STYLE_ASSIGNMENT (( #356 ) ) ;
#293 = DIRECTION ( 'NONE',  ( 0.000000000000000000, 0.000000000000000000, -1.000000000000000000 ) ) ;
#294 = STYLED_ITEM ( 'NONE', ( #27 ), #52 ) ;
#295 = DIRECTION ( 'NONE',  ( 0.000000000000000000, 1.000000000000000000, 0.000000000000000000 ) ) ;
#296 =( NAMED_UNIT ( * ) PLANE_ANGLE_UNIT ( ) SI_UNIT ( $, .RADIAN. ) );
#297 = ORIENTED_EDGE ( 'NONE', *, *, #38, .T. ) ;
#298 = FILL_AREA_STYLE_COLOUR ( '', #201 ) ;
#299 = DIRECTION ( 'NONE',  ( -1.000000000000000000, -1.678524052369137559E-16, 0.000000000000000000 ) ) ;
#300 = DIRECTION ( 'NONE',  ( -1.000000000000000000, 0.000000000000000000, 0.000000000000000000 ) ) ;
#301 = COLOUR_RGB ( '',1.000000000000000000, 0.000000000000000000, 0.000000000000000000 ) ;
#302 = ORIENTED_EDGE ( 'NONE', *, *, #306, .F. ) ;
#303 = SURFACE_SIDE_STYLE ('',( #129 ) ) ;
#304 = EDGE_LOOP ( 'NONE', ( #159, #79, #359, #189 ) ) ;
#305 = AXIS2_PLACEMENT_3D ( 'NONE', #41, #7, #276 ) ;
#306 = EDGE_CURVE ( 'NONE', #144, #20, #291, .T. ) ;
#307 =( NAMED_UNIT ( * ) SI_UNIT ( $, .STERADIAN. ) SOLID_ANGLE_UNIT ( ) );
#308 =( LENGTH_UNIT ( ) NAMED_UNIT ( * ) SI_UNIT ( $, .METRE. ) );
#309 = DIRECTION ( 'NONE',  ( -0.000000000000000000, -1.000000000000000000, -0.000000000000000000 ) ) ;
#310 = CIRCLE ( 'NONE', #57, 0.4999999999999998335 ) ;
#311 =( NAMED_UNIT ( * ) SI_UNIT ( $, .STERADIAN. ) SOLID_ANGLE_UNIT ( ) );
#312 = CARTESIAN_POINT ( 'NONE',  ( 0.000000000000000000, 0.000000000000000000, -0.4999999999999998335 ) ) ;
#313 = EDGE_CURVE ( 'NONE', #333, #99, #277, .T. ) ;
#314 = SURFACE_STYLE_USAGE ( .BOTH. , #149 ) ;
#315 = MECHANICAL_DESIGN_GEOMETRIC_PRESENTATION_REPRESENTATION (  '', ( #229 ), #319 ) ;
#316 = DIMENSIONAL_EXPONENTS ( 1.000000000000000000, 0.000000000000000000, 0.000000000000000000, 0.000000000000000000, 0.000000000000000000, 0.000000000000000000, 0.000000000000000000 ) ;
#317 = ADVANCED_FACE ( 'NONE', ( #80 ), #127, .T. ) ;
#318 = CARTESIAN_POINT ( 'NONE',  ( 0.000000000000000000, 0.5000000000000000000, 0.000000000000000000 ) ) ;
#319 =( GEOMETRIC_REPRESENTATION_CONTEXT ( 3 ) GLOBAL_UNCERTAINTY_ASSIGNED_CONTEXT ( ( #6 ) ) GLOBAL_UNIT_ASSIGNED_CONTEXT ( ( #67, #296, #270 ) ) REPRESENTATION_CONTEXT ( 'NONE', 'WORKASPACE' ) );
#320 = PRESENTATION_STYLE_ASSIGNMENT (( #244 ) ) ;
#321 = CARTESIAN_POINT ( 'NONE',  ( -0.5000000000000001110, 4.000000000000000000, 0.000000000000000000 ) ) ;
#322 = COLOUR_RGB ( '',0.7921568627450980005, 0.8196078431372548767, 0.9333333333333333481 ) ;
#323 = VERTEX_POINT ( 'NONE', #353 ) ;
#324 = CARTESIAN_POINT ( 'NONE',  ( -1.224646799147352714E-16, 4.000000000000000000, 0.000000000000000000 ) ) ;
#325 = AXIS2_PLACEMENT_3D ( 'NONE', #138, #142, #340 ) ;
#326 = EDGE_CURVE ( 'NONE', #108, #217, #213, .T. ) ;
#327 = VERTEX_POINT ( 'NONE', #40 ) ;
#328 = LENGTH_MEASURE_WITH_UNIT ( LENGTH_MEASURE( 0.02539999999999999897 ), #230 );
#329 = DIRECTION ( 'NONE',  ( -1.678524052369137559E-16, 1.000000000000000000, 0.000000000000000000 ) ) ;
#330 =( GEOMETRIC_REPRESENTATION_CONTEXT ( 3 ) GLOBAL_UNCERTAINTY_ASSIGNED_CONTEXT ( ( #263 ) ) GLOBAL_UNIT_ASSIGNED_CONTEXT ( ( #146, #83, #346 ) ) REPRESENTATION_CONTEXT ( 'NONE', 'WORKASPACE' ) );
#331 = FILL_AREA_STYLE_COLOUR ( '', #322 ) ;
#332 = ADVANCED_FACE ( 'NONE', ( #37 ), #218, .T. ) ;
#333 = VERTEX_POINT ( 'NONE', #186 ) ;
#334 = CIRCLE ( 'NONE', #166, 0.5000000000000000000 ) ;
#335 = EDGE_LOOP ( 'NONE', ( #162, #68, #167, #19, #225 ) ) ;
#336 =( NAMED_UNIT ( * ) SI_UNIT ( $, .STERADIAN. ) SOLID_ANGLE_UNIT ( ) );
#337 = SPHERICAL_SURFACE ( 'NONE', #284, 0.5000000000000000000 ) ;
#338 = PRODUCT_CONTEXT ( 'NONE', #164, 'mechanical' ) ;
#339 = EDGE_CURVE ( 'NONE', #323, #108, #371, .T. ) ;
#340 = DIRECTION ( 'NONE',  ( 1.000000000000000000, 0.000000000000000000, -1.224646799147353207E-16 ) ) ;
#341 = APPLICATION_PROTOCOL_DEFINITION ( 'draft international standard', 'automotive_design', 1998, #117 ) ;
#342 =( GEOMETRIC_REPRESENTATION_CONTEXT ( 3 ) GLOBAL_UNCERTAINTY_ASSIGNED_CONTEXT ( ( #347 ) ) GLOBAL_UNIT_ASSIGNED_CONTEXT ( ( #94, #33, #62 ) ) REPRESENTATION_CONTEXT ( 'NONE', 'WORKASPACE' ) );
#343 = CIRCLE ( 'NONE', #325, 0.5000000000000000000 ) ;
#344 =( NAMED_UNIT ( * ) PLANE_ANGLE_UNIT ( ) SI_UNIT ( $, .RADIAN. ) );
#345 = PRODUCT_DEFINITION ( 'UNKNOWN', '', #32, #5 ) ;
#346 =( NAMED_UNIT ( * ) SI_UNIT ( $, .STERADIAN. ) SOLID_ANGLE_UNIT ( ) );
#347 = UNCERTAINTY_MEASURE_WITH_UNIT (LENGTH_MEASURE( 1.000000000000000082E-05 ), #94, 'distance_accuracy_value', 'NONE');
#348 = COLOUR_RGB ( '',0.7921568627450980005, 0.8196078431372548767, 0.9333333333333333481 ) ;
#349 = DIRECTION ( 'NONE',  ( -0.000000000000000000, -1.000000000000000000, -0.000000000000000000 ) ) ;
#350 = CARTESIAN_POINT ( 'NONE',  ( 6.123233995736764803E-17, 0.5000000000000000000, 0.4999999999999998335 ) ) ;
#351 =( LENGTH_UNIT ( ) NAMED_UNIT ( * ) SI_UNIT ( $, .METRE. ) );
#352 =( GEOMETRIC_REPRESENTATION_CONTEXT ( 3 ) GLOBAL_UNCERTAINTY_ASSIGNED_CONTEXT ( ( #60 ) ) GLOBAL_UNIT_ASSIGNED_CONTEXT ( ( #82, #369, #307 ) ) REPRESENTATION_CONTEXT ( 'NONE', 'WORKASPACE' ) );
#353 = CARTESIAN_POINT ( 'NONE',  ( 0.000000000000000000, 1.250000000000000000, -0.4999999999999998335 ) ) ;
#354 = CARTESIAN_POINT ( 'NONE',  ( 3.391294344867775510E-16, 1.250000000000000000, 0.000000000000000000 ) ) ;
#355 = AXIS2_PLACEMENT_3D ( 'NONE', #18, #265, #239 ) ;
#356 = SURFACE_STYLE_USAGE ( .BOTH. , #187 ) ;
#357 = ORIENTED_EDGE ( 'NONE', *, *, #139, .F. ) ;
#358 = FILL_AREA_STYLE_COLOUR ( '', #35 ) ;
#359 = ORIENTED_EDGE ( 'NONE', *, *, #313, .T. ) ;
#360 =( LENGTH_UNIT ( ) NAMED_UNIT ( * ) SI_UNIT ( $, .METRE. ) );
#361 = AXIS2_PLACEMENT_3D ( 'NONE', #29, #233, #121 ) ;
#362 = ADVANCED_FACE ( 'NONE', ( #105 ), #72, .F. ) ;
#363 = LINE ( 'NONE', #312, #107 ) ;
#364 = AXIS2_PLACEMENT_3D ( 'NONE', #34, #84, #28 ) ;
#365 =( CONVERSION_BASED_UNIT ( 'INCH', #13 ) LENGTH_UNIT ( ) NAMED_UNIT ( #126 ) );
#366 = CIRCLE ( 'NONE', #264, 0.4999999999999995004 ) ;
#367 = VERTEX_POINT ( 'NONE', #44 ) ;
#368 =( CONVERSION_BASED_UNIT ( 'INCH', #104 ) LENGTH_UNIT ( ) NAMED_UNIT ( #63 ) );
#369 =( NAMED_UNIT ( * ) PLANE_ANGLE_UNIT ( ) SI_UNIT ( $, .RADIAN. ) );
#370 = SURFACE_STYLE_FILL_AREA ( #231 ) ;
#371 = CIRCLE ( 'NONE', #145, 0.4999999999999998335 ) ;
#372 = LENGTH_MEASURE_WITH_UNIT ( LENGTH_MEASURE( 0.02539999999999999897 ), #360 );
#373 = DIRECTION ( 'NONE',  ( -0.000000000000000000, -1.000000000000000000, -0.000000000000000000 ) ) ;
ENDSEC;
END-ISO-10303-21;
