ISO-10303-21;
HEADER;
FILE_DESCRIPTION (( 'STEP AP214' ),
    '1' );
FILE_NAME ('Micro_EMS-062-4X.STEP',
    '2021-09-01T17:36:06',
    ( '' ),
    ( '' ),
    'SwSTEP 2.0',
    'SolidWorks 2020',
    '' );
FILE_SCHEMA (( 'AUTOMOTIVE_DESIGN' ));
ENDSEC;

DATA;
#1 = EDGE_LOOP ( 'NONE', ( #218, #271, #184, #168 ) ) ;
#2 = CONICAL_SURFACE ( 'NONE', #73, 0.03121875000000000691, 0.1745329251994338915 ) ;
#3 =( GEOMETRIC_REPRESENTATION_CONTEXT ( 3 ) GLOBAL_UNCERTAINTY_ASSIGNED_CONTEXT ( ( #189 ) ) GLOBAL_UNIT_ASSIGNED_CONTEXT ( ( #247, #130, #107 ) ) REPRESENTATION_CONTEXT ( 'NONE', 'WORKASPACE' ) );
#4 = FILL_AREA_STYLE_COLOUR ( '', #251 ) ;
#5 = VERTEX_POINT ( 'NONE', #270 ) ;
#6 = CARTESIAN_POINT ( 'NONE',  ( -0.03121874999999999997, 0.0000000000000000000, 7.646388452176290456E-18 ) ) ;
#7 = PRODUCT_DEFINITION ( 'UNKNOWN', '', #241, #82 ) ;
#8 = DIRECTION ( 'NONE',  ( -1.224646799147353700E-16, -0.0000000000000000000, -1.000000000000000000 ) ) ;
#9 = AXIS2_PLACEMENT_3D ( 'NONE', #188, #235, #56 ) ;
#10 = DIRECTION ( 'NONE',  ( -1.000000000000000000, 0.0000000000000000000, 1.224646799147353947E-16 ) ) ;
#11 = DIRECTION ( 'NONE',  ( 1.000000000000000000, 0.0000000000000000000, 0.0000000000000000000 ) ) ;
#12 = DIMENSIONAL_EXPONENTS ( 1.000000000000000000, 0.0000000000000000000, 0.0000000000000000000, 0.0000000000000000000, 0.0000000000000000000, 0.0000000000000000000, 0.0000000000000000000 ) ;
#13 = DIRECTION ( 'NONE',  ( -1.000000000000000000, 0.0000000000000000000, 0.0000000000000000000 ) ) ;
#14 = AXIS2_PLACEMENT_3D ( 'NONE', #139, #160, #92 ) ;
#15 =( CONVERSION_BASED_UNIT ( 'INCH', #98 ) LENGTH_UNIT ( ) NAMED_UNIT ( #254 ) );
#16 = ORIENTED_EDGE ( 'NONE', *, *, #76, .F. ) ;
#17 = AXIS2_PLACEMENT_3D ( 'NONE', #143, #292, #182 ) ;
#18 = UNCERTAINTY_MEASURE_WITH_UNIT (LENGTH_MEASURE( 1.000000000000000082E-05 ), #174, 'distance_accuracy_value', 'NONE');
#19 = DIRECTION ( 'NONE',  ( -0.0000000000000000000, -0.0000000000000000000, -1.000000000000000000 ) ) ;
#20 = EDGE_CURVE ( 'NONE', #239, #22, #245, .T. ) ;
#21 = CIRCLE ( 'NONE', #294, 0.03121874999999999997 ) ;
#22 = VERTEX_POINT ( 'NONE', #26 ) ;
#23 = MANIFOLD_SOLID_BREP ( 'Cut-Revolve1', #153 ) ;
#24 = APPLICATION_PROTOCOL_DEFINITION ( 'draft international standard', 'automotive_design', 1998, #229 ) ;
#25 = ORIENTED_EDGE ( 'NONE', *, *, #212, .T. ) ;
#26 = CARTESIAN_POINT ( 'NONE',  ( 0.06250000000000006939, 7.654042494670963708E-18, 0.3654047844199155848 ) ) ;
#27 = EDGE_CURVE ( 'NONE', #275, #22, #240, .T. ) ;
#28 = CARTESIAN_POINT ( 'NONE',  ( 2.302335982397025094E-17, 0.0000000000000000000, 0.1880000000000000282 ) ) ;
#29 = FACE_OUTER_BOUND ( 'NONE', #58, .T. ) ;
#30 = DIRECTION ( 'NONE',  ( -1.224646799147353700E-16, -0.0000000000000000000, -1.000000000000000000 ) ) ;
#31 = ADVANCED_FACE ( 'NONE', ( #228 ), #123, .T. ) ;
#32 = LINE ( 'NONE', #135, #203 ) ;
#33 = CARTESIAN_POINT ( 'NONE',  ( -0.03121875000000000691, 0.0000000000000000000, 3.823194226088145998E-18 ) ) ;
#34 = CARTESIAN_POINT ( 'NONE',  ( 0.0000000000000000000, 0.0000000000000000000, 0.0000000000000000000 ) ) ;
#35 = AXIS2_PLACEMENT_3D ( 'NONE', #116, #205, #11 ) ;
#36 = DIRECTION ( 'NONE',  ( 1.000000000000000000, 0.0000000000000000000, -0.0000000000000000000 ) ) ;
#37 = CARTESIAN_POINT ( 'NONE',  ( -0.03121874999999998609, 3.823194226088144458E-18, 0.1880000000000000282 ) ) ;
#38 = CYLINDRICAL_SURFACE ( 'NONE', #65, 0.06250000000000002776 ) ;
#39 = ORIENTED_EDGE ( 'NONE', *, *, #146, .F. ) ;
#40 = DIRECTION ( 'NONE',  ( 0.0000000000000000000, 0.0000000000000000000, 1.000000000000000000 ) ) ;
#41 = ORIENTED_EDGE ( 'NONE', *, *, #117, .T. ) ;
#42 = CARTESIAN_POINT ( 'NONE',  ( 0.0000000000000000000, 0.0000000000000000000, 0.0000000000000000000 ) ) ;
#43 = AXIS2_PLACEMENT_3D ( 'NONE', #121, #40, #264 ) ;
#44 = DIRECTION ( 'NONE',  ( -0.0000000000000000000, -0.0000000000000000000, -1.000000000000000000 ) ) ;
#45 = SURFACE_STYLE_FILL_AREA ( #63 ) ;
#46 = CARTESIAN_POINT ( 'NONE',  ( 4.474917996329784544E-17, 0.0000000000000000000, 0.3654047844199155848 ) ) ;
#47 = EDGE_LOOP ( 'NONE', ( #125, #243 ) ) ;
#48 = VECTOR ( 'NONE', #84, 39.37007874015747433 ) ;
#49 = DIRECTION ( 'NONE',  ( 1.000000000000000000, 0.0000000000000000000, 0.0000000000000000000 ) ) ;
#50 = CARTESIAN_POINT ( 'NONE',  ( 2.302335982397025094E-17, 0.0000000000000000000, 0.1880000000000000282 ) ) ;
#51 = DIRECTION ( 'NONE',  ( 1.000000000000000000, 0.0000000000000000000, 0.0000000000000000000 ) ) ;
#52 = AXIS2_PLACEMENT_3D ( 'NONE', #34, #122, #36 ) ;
#53 = DIRECTION ( 'NONE',  ( 0.1736481776669313859, 0.0000000000000000000, 0.9848077530122077983 ) ) ;
#54 = EDGE_LOOP ( 'NONE', ( #297, #190, #133, #211 ) ) ;
#55 = CARTESIAN_POINT ( 'NONE',  ( 2.302335982397025094E-17, 0.0000000000000000000, 0.1880000000000000282 ) ) ;
#56 = DIRECTION ( 'NONE',  ( 1.000000000000000000, 0.0000000000000000000, 0.0000000000000000000 ) ) ;
#57 = CARTESIAN_POINT ( 'NONE',  ( 0.06250000000000002776, 7.654042494670959086E-18, 1.485000000000000764 ) ) ;
#58 = EDGE_LOOP ( 'NONE', ( #222, #192, #249, #88 ) ) ;
#59 = AXIS2_PLACEMENT_3D ( 'NONE', #68, #281, #49 ) ;
#60 = CYLINDRICAL_SURFACE ( 'NONE', #194, 0.06250000000000002776 ) ;
#61 = ORIENTED_EDGE ( 'NONE', *, *, #76, .T. ) ;
#62 = SURFACE_SIDE_STYLE ('',( #220 ) ) ;
#63 = FILL_AREA_STYLE ('',( #4 ) ) ;
#64 = ORIENTED_EDGE ( 'NONE', *, *, #263, .T. ) ;
#65 = AXIS2_PLACEMENT_3D ( 'NONE', #164, #102, #166 ) ;
#66 = ORIENTED_EDGE ( 'NONE', *, *, #242, .F. ) ;
#67 = EDGE_LOOP ( 'NONE', ( #131, #127 ) ) ;
#68 = CARTESIAN_POINT ( 'NONE',  ( 0.0000000000000000000, 0.0000000000000000000, 1.500000000000000222 ) ) ;
#69 = AXIS2_PLACEMENT_3D ( 'NONE', #279, #252, #96 ) ;
#70 = DIRECTION ( 'NONE',  ( -1.224646799147353700E-16, -0.0000000000000000000, -1.000000000000000000 ) ) ;
#71 = LINE ( 'NONE', #257, #93 ) ;
#72 = DIRECTION ( 'NONE',  ( -0.0000000000000000000, -0.0000000000000000000, -1.000000000000000000 ) ) ;
#73 = AXIS2_PLACEMENT_3D ( 'NONE', #50, #226, #114 ) ;
#74 = STYLED_ITEM ( 'NONE', ( #277 ), #288 ) ;
#75 =( NAMED_UNIT ( * ) SI_UNIT ( $, .STERADIAN. ) SOLID_ANGLE_UNIT ( ) );
#76 = EDGE_CURVE ( 'NONE', #103, #83, #71, .T. ) ;
#77 = CARTESIAN_POINT ( 'NONE',  ( 0.0000000000000000000, 0.0000000000000000000, 1.500000000000000222 ) ) ;
#78 =( NAMED_UNIT ( * ) SI_UNIT ( $, .STERADIAN. ) SOLID_ANGLE_UNIT ( ) );
#79 = AXIS2_PLACEMENT_3D ( 'NONE', #77, #287, #118 ) ;
#80 = FACE_OUTER_BOUND ( 'NONE', #1, .T. ) ;
#81 = ADVANCED_FACE ( 'NONE', ( #115 ), #111, .T. ) ;
#82 = PRODUCT_DEFINITION_CONTEXT ( 'detailed design', #229, 'design' ) ;
#83 = VERTEX_POINT ( 'NONE', #136 ) ;
#84 = DIRECTION ( 'NONE',  ( -0.1736481776669311916, 2.126576849575783316E-17, 0.9848077530122080203 ) ) ;
#85 = DIRECTION ( 'NONE',  ( 1.000000000000000000, 0.0000000000000000000, 0.0000000000000000000 ) ) ;
#86 = ORIENTED_EDGE ( 'NONE', *, *, #138, .F. ) ;
#87 = EDGE_LOOP ( 'NONE', ( #16, #25, #41, #193 ) ) ;
#88 = ORIENTED_EDGE ( 'NONE', *, *, #199, .T. ) ;
#89 = LENGTH_MEASURE_WITH_UNIT ( LENGTH_MEASURE( 0.02539999999999999897 ), #197 );
#90 = FILL_AREA_STYLE ('',( #219 ) ) ;
#91 = PRODUCT_RELATED_PRODUCT_CATEGORY ( 'part', '', ( #298 ) ) ;
#92 = DIRECTION ( 'NONE',  ( 1.000000000000000000, 0.0000000000000000000, 0.0000000000000000000 ) ) ;
#93 = VECTOR ( 'NONE', #30, 39.37007874015748143 ) ;
#94 = FACE_OUTER_BOUND ( 'NONE', #87, .T. ) ;
#95 = CARTESIAN_POINT ( 'NONE',  ( 0.03121875000000002773, 0.0000000000000000000, 0.1880000000000000282 ) ) ;
#96 = DIRECTION ( 'NONE',  ( -1.000000000000000000, 0.0000000000000000000, 0.0000000000000000000 ) ) ;
#97 = CARTESIAN_POINT ( 'NONE',  ( 0.04750000000000064587, 5.817072295950006528E-18, 1.500000000000000222 ) ) ;
#98 = LENGTH_MEASURE_WITH_UNIT ( LENGTH_MEASURE( 0.02539999999999999897 ), #145 );
#99 =( NAMED_UNIT ( * ) PLANE_ANGLE_UNIT ( ) SI_UNIT ( $, .RADIAN. ) );
#100 = EDGE_LOOP ( 'NONE', ( #169, #61, #39, #152 ) ) ;
#101 = AXIS2_PLACEMENT_3D ( 'NONE', #253, #134, #10 ) ;
#102 = DIRECTION ( 'NONE',  ( -0.0000000000000000000, -0.0000000000000000000, -1.000000000000000000 ) ) ;
#103 = VERTEX_POINT ( 'NONE', #155 ) ;
#104 = EDGE_CURVE ( 'NONE', #103, #22, #159, .T. ) ;
#105 =( GEOMETRIC_REPRESENTATION_CONTEXT ( 3 ) GLOBAL_UNCERTAINTY_ASSIGNED_CONTEXT ( ( #18 ) ) GLOBAL_UNIT_ASSIGNED_CONTEXT ( ( #174, #278, #75 ) ) REPRESENTATION_CONTEXT ( 'NONE', 'WORKASPACE' ) );
#106 = ORIENTED_EDGE ( 'NONE', *, *, #141, .T. ) ;
#107 =( NAMED_UNIT ( * ) SI_UNIT ( $, .STERADIAN. ) SOLID_ANGLE_UNIT ( ) );
#108 = SURFACE_STYLE_USAGE ( .BOTH. , #62 ) ;
#109 = SURFACE_STYLE_USAGE ( .BOTH. , #244 ) ;
#110 = PRESENTATION_STYLE_ASSIGNMENT (( #108 ) ) ;
#111 = CONICAL_SURFACE ( 'NONE', #261, 0.04750000000000064587, 0.7853981633974466137 ) ;
#112 = AXIS2_PLACEMENT_3D ( 'NONE', #55, #213, #230 ) ;
#113 = DIRECTION ( 'NONE',  ( -1.000000000000000000, 0.0000000000000000000, 1.224646799147353947E-16 ) ) ;
#114 = DIRECTION ( 'NONE',  ( 1.000000000000000000, 0.0000000000000000000, 0.0000000000000000000 ) ) ;
#115 = FACE_OUTER_BOUND ( 'NONE', #144, .T. ) ;
#116 = CARTESIAN_POINT ( 'NONE',  ( 4.474917996329784544E-17, 0.0000000000000000000, 0.3654047844199155848 ) ) ;
#117 = EDGE_CURVE ( 'NONE', #129, #149, #175, .T. ) ;
#118 = DIRECTION ( 'NONE',  ( 1.000000000000000000, 0.0000000000000000000, -0.0000000000000000000 ) ) ;
#119 = STYLED_ITEM ( 'NONE', ( #110 ), #23 ) ;
#120 = AXIS2_PLACEMENT_3D ( 'NONE', #42, #216, #85 ) ;
#121 = CARTESIAN_POINT ( 'NONE',  ( 0.0000000000000000000, 0.0000000000000000000, 1.500000000000000222 ) ) ;
#122 = DIRECTION ( 'NONE',  ( 0.0000000000000000000, 0.0000000000000000000, 1.000000000000000000 ) ) ;
#123 = CONICAL_SURFACE ( 'NONE', #14, 0.03121875000000000691, 0.1745329251994338915 ) ;
#124 = CARTESIAN_POINT ( 'NONE',  ( 0.0000000000000000000, 0.0000000000000000000, 1.500000000000000222 ) ) ;
#125 = ORIENTED_EDGE ( 'NONE', *, *, #285, .T. ) ;
#126 = CIRCLE ( 'NONE', #101, 0.03121874999999999997 ) ;
#127 = ORIENTED_EDGE ( 'NONE', *, *, #165, .T. ) ;
#128 = ADVANCED_FACE ( 'NONE', ( #156 ), #198, .T. ) ;
#129 = VERTEX_POINT ( 'NONE', #181 ) ;
#130 =( NAMED_UNIT ( * ) PLANE_ANGLE_UNIT ( ) SI_UNIT ( $, .RADIAN. ) );
#131 = ORIENTED_EDGE ( 'NONE', *, *, #146, .T. ) ;
#132 = AXIS2_PLACEMENT_3D ( 'NONE', #178, #157, #282 ) ;
#133 = ORIENTED_EDGE ( 'NONE', *, *, #208, .T. ) ;
#134 = DIRECTION ( 'NONE',  ( -1.224646799147353700E-16, -0.0000000000000000000, -1.000000000000000000 ) ) ;
#135 = CARTESIAN_POINT ( 'NONE',  ( -0.04750000000000064587, 0.0000000000000000000, 1.500000000000000222 ) ) ;
#136 = CARTESIAN_POINT ( 'NONE',  ( 0.03121874999999999997, 3.823194226088143687E-18, -4.739000847409537175E-34 ) ) ;
#137 = CIRCLE ( 'NONE', #17, 0.06250000000000002776 ) ;
#138 = EDGE_CURVE ( 'NONE', #129, #103, #267, .T. ) ;
#139 = CARTESIAN_POINT ( 'NONE',  ( 2.302335982397025094E-17, 0.0000000000000000000, 0.1880000000000000282 ) ) ;
#140 = DIRECTION ( 'NONE',  ( -1.224646799147353700E-16, -0.0000000000000000000, -1.000000000000000000 ) ) ;
#141 = EDGE_CURVE ( 'NONE', #5, #147, #32, .T. ) ;
#142 = AXIS2_PLACEMENT_3D ( 'NONE', #28, #206, #227 ) ;
#143 = CARTESIAN_POINT ( 'NONE',  ( 0.0000000000000000000, 0.0000000000000000000, 1.485000000000000764 ) ) ;
#144 = EDGE_LOOP ( 'NONE', ( #246, #64, #66, #224 ) ) ;
#145 =( LENGTH_UNIT ( ) NAMED_UNIT ( * ) SI_UNIT ( $, .METRE. ) );
#146 = EDGE_CURVE ( 'NONE', #149, #83, #21, .T. ) ;
#147 = VERTEX_POINT ( 'NONE', #201 ) ;
#148 = ORIENTED_EDGE ( 'NONE', *, *, #285, .F. ) ;
#149 = VERTEX_POINT ( 'NONE', #6 ) ;
#150 = ORIENTED_EDGE ( 'NONE', *, *, #263, .F. ) ;
#151 = EDGE_LOOP ( 'NONE', ( #150, #148, #106, #171 ) ) ;
#152 = ORIENTED_EDGE ( 'NONE', *, *, #117, .F. ) ;
#153 = CLOSED_SHELL ( 'NONE', ( #299, #31, #81, #274, #268, #293, #128, #177, #186, #284 ) ) ;
#154 = VECTOR ( 'NONE', #72, 39.37007874015748143 ) ;
#155 = CARTESIAN_POINT ( 'NONE',  ( 0.03121875000000002773, 0.0000000000000000000, 0.1880000000000000282 ) ) ;
#156 = FACE_OUTER_BOUND ( 'NONE', #151, .T. ) ;
#157 = DIRECTION ( 'NONE',  ( -1.224646799147353700E-16, -0.0000000000000000000, -1.000000000000000000 ) ) ;
#158 = EDGE_CURVE ( 'NONE', #196, #5, #162, .T. ) ;
#159 = LINE ( 'NONE', #95, #256 ) ;
#160 = DIRECTION ( 'NONE',  ( 1.224646799147353700E-16, 0.0000000000000000000, 1.000000000000000000 ) ) ;
#161 = CYLINDRICAL_SURFACE ( 'NONE', #289, 0.03121875000000000691 ) ;
#162 = CIRCLE ( 'NONE', #59, 0.04750000000000064587 ) ;
#163 = PLANE ( 'NONE',  #52 ) ;
#164 = CARTESIAN_POINT ( 'NONE',  ( 0.0000000000000000000, 0.0000000000000000000, 1.500000000000000222 ) ) ;
#165 = EDGE_CURVE ( 'NONE', #83, #149, #126, .T. ) ;
#166 = DIRECTION ( 'NONE',  ( -1.000000000000000000, 0.0000000000000000000, 0.0000000000000000000 ) ) ;
#167 = CIRCLE ( 'NONE', #112, 0.03121875000000000691 ) ;
#168 = ORIENTED_EDGE ( 'NONE', *, *, #208, .F. ) ;
#169 = ORIENTED_EDGE ( 'NONE', *, *, #138, .T. ) ;
#170 = LENGTH_MEASURE_WITH_UNIT ( LENGTH_MEASURE( 0.02539999999999999897 ), #269 );
#171 = ORIENTED_EDGE ( 'NONE', *, *, #221, .F. ) ;
#172 = CIRCLE ( 'NONE', #9, 0.06250000000000002776 ) ;
#173 = MECHANICAL_DESIGN_GEOMETRIC_PRESENTATION_REPRESENTATION (  '', ( #74 ), #3 ) ;
#174 =( CONVERSION_BASED_UNIT ( 'INCH', #89 ) LENGTH_UNIT ( ) NAMED_UNIT ( #185 ) );
#175 = LINE ( 'NONE', #33, #276 ) ;
#176 = DIRECTION ( 'NONE',  ( 0.0000000000000000000, 0.0000000000000000000, -1.000000000000000000 ) ) ;
#177 = ADVANCED_FACE ( 'NONE', ( #29 ), #2, .T. ) ;
#178 = CARTESIAN_POINT ( 'NONE',  ( 0.0000000000000000000, 0.0000000000000000000, 0.0000000000000000000 ) ) ;
#179 = LINE ( 'NONE', #283, #154 ) ;
#180 = MECHANICAL_DESIGN_GEOMETRIC_PRESENTATION_REPRESENTATION (  '', ( #119 ), #105 ) ;
#181 = CARTESIAN_POINT ( 'NONE',  ( -0.03121874999999998609, 5.738618360379552157E-18, 0.1880000000000000282 ) ) ;
#182 = DIRECTION ( 'NONE',  ( 1.000000000000000000, 0.0000000000000000000, 0.0000000000000000000 ) ) ;
#183 = PRODUCT_DEFINITION_SHAPE ( 'NONE', 'NONE',  #7 ) ;
#184 = ORIENTED_EDGE ( 'NONE', *, *, #27, .F. ) ;
#185 = DIMENSIONAL_EXPONENTS ( 1.000000000000000000, 0.0000000000000000000, 0.0000000000000000000, 0.0000000000000000000, 0.0000000000000000000, 0.0000000000000000000, 0.0000000000000000000 ) ;
#186 = ADVANCED_FACE ( 'NONE', ( #94 ), #202, .T. ) ;
#187 =( GEOMETRIC_REPRESENTATION_CONTEXT ( 3 ) GLOBAL_UNCERTAINTY_ASSIGNED_CONTEXT ( ( #237 ) ) GLOBAL_UNIT_ASSIGNED_CONTEXT ( ( #15, #99, #78 ) ) REPRESENTATION_CONTEXT ( 'NONE', 'WORKASPACE' ) );
#188 = CARTESIAN_POINT ( 'NONE',  ( 0.0000000000000000000, 0.0000000000000000000, 1.485000000000000764 ) ) ;
#189 = UNCERTAINTY_MEASURE_WITH_UNIT (LENGTH_MEASURE( 1.000000000000000082E-05 ), #247, 'distance_accuracy_value', 'NONE');
#190 = ORIENTED_EDGE ( 'NONE', *, *, #221, .T. ) ;
#191 = LINE ( 'NONE', #97, #250 ) ;
#192 = ORIENTED_EDGE ( 'NONE', *, *, #212, .F. ) ;
#193 = ORIENTED_EDGE ( 'NONE', *, *, #165, .F. ) ;
#194 = AXIS2_PLACEMENT_3D ( 'NONE', #124, #19, #290 ) ;
#195 = ORIENTED_EDGE ( 'NONE', *, *, #104, .F. ) ;
#196 = VERTEX_POINT ( 'NONE', #255 ) ;
#197 =( LENGTH_UNIT ( ) NAMED_UNIT ( * ) SI_UNIT ( $, .METRE. ) );
#198 = CONICAL_SURFACE ( 'NONE', #69, 0.04750000000000064587, 0.7853981633974466137 ) ;
#199 = EDGE_CURVE ( 'NONE', #22, #275, #223, .T. ) ;
#200 = CARTESIAN_POINT ( 'NONE',  ( 0.06250000000000002776, 7.654042494670959086E-18, 1.500000000000000222 ) ) ;
#201 = CARTESIAN_POINT ( 'NONE',  ( -0.06250000000000002776, 0.0000000000000000000, 1.485000000000000764 ) ) ;
#202 = CYLINDRICAL_SURFACE ( 'NONE', #132, 0.03121875000000000691 ) ;
#203 = VECTOR ( 'NONE', #225, 39.37007874015748854 ) ;
#204 = CARTESIAN_POINT ( 'NONE',  ( 4.682062571497491304E-34, 0.0000000000000000000, 3.823194226088145228E-18 ) ) ;
#205 = DIRECTION ( 'NONE',  ( -1.224646799147353700E-16, -0.0000000000000000000, -1.000000000000000000 ) ) ;
#206 = DIRECTION ( 'NONE',  ( -1.224646799147353700E-16, -0.0000000000000000000, -1.000000000000000000 ) ) ;
#207 = DIRECTION ( 'NONE',  ( -1.224646799147353700E-16, -0.0000000000000000000, -1.000000000000000000 ) ) ;
#208 = EDGE_CURVE ( 'NONE', #147, #275, #179, .T. ) ;
#209 = FACE_OUTER_BOUND ( 'NONE', #100, .T. ) ;
#210 = FACE_OUTER_BOUND ( 'NONE', #47, .T. ) ;
#211 = ORIENTED_EDGE ( 'NONE', *, *, #199, .F. ) ;
#212 = EDGE_CURVE ( 'NONE', #103, #129, #167, .T. ) ;
#213 = DIRECTION ( 'NONE',  ( -1.224646799147353700E-16, -0.0000000000000000000, -1.000000000000000000 ) ) ;
#214 = PRESENTATION_LAYER_ASSIGNMENT (  '', '', ( #74 ) ) ;
#215 = DIRECTION ( 'NONE',  ( 0.7071067811865462405, 8.659560562354916834E-17, -0.7071067811865486830 ) ) ;
#216 = DIRECTION ( 'NONE',  ( 0.0000000000000000000, 0.0000000000000000000, 1.000000000000000000 ) ) ;
#217 = SHAPE_DEFINITION_REPRESENTATION ( #183, #288 ) ;
#218 = ORIENTED_EDGE ( 'NONE', *, *, #242, .T. ) ;
#219 = FILL_AREA_STYLE_COLOUR ( '', #231 ) ;
#220 = SURFACE_STYLE_FILL_AREA ( #90 ) ;
#221 = EDGE_CURVE ( 'NONE', #239, #147, #137, .T. ) ;
#222 = ORIENTED_EDGE ( 'NONE', *, *, #258, .F. ) ;
#223 = CIRCLE ( 'NONE', #35, 0.06250000000000002776 ) ;
#224 = ORIENTED_EDGE ( 'NONE', *, *, #141, .F. ) ;
#225 = DIRECTION ( 'NONE',  ( -0.7071067811865462405, 0.0000000000000000000, -0.7071067811865486830 ) ) ;
#226 = DIRECTION ( 'NONE',  ( 1.224646799147353700E-16, 0.0000000000000000000, 1.000000000000000000 ) ) ;
#227 = DIRECTION ( 'NONE',  ( -1.000000000000000000, 0.0000000000000000000, 0.0000000000000000000 ) ) ;
#228 = FACE_OUTER_BOUND ( 'NONE', #234, .T. ) ;
#229 = APPLICATION_CONTEXT ( 'automotive_design' ) ;
#230 = DIRECTION ( 'NONE',  ( -1.000000000000000000, 0.0000000000000000000, 0.0000000000000000000 ) ) ;
#231 = COLOUR_RGB ( '',0.7921568627450980005, 0.8196078431372548767, 0.9333333333333333481 ) ;
#232 = CIRCLE ( 'NONE', #43, 0.04750000000000064587 ) ;
#233 = LINE ( 'NONE', #37, #48 ) ;
#234 = EDGE_LOOP ( 'NONE', ( #86, #248, #295, #195 ) ) ;
#235 = DIRECTION ( 'NONE',  ( 0.0000000000000000000, 0.0000000000000000000, -1.000000000000000000 ) ) ;
#236 = CARTESIAN_POINT ( 'NONE',  ( 0.0000000000000000000, 0.0000000000000000000, 0.0000000000000000000 ) ) ;
#237 = UNCERTAINTY_MEASURE_WITH_UNIT (LENGTH_MEASURE( 1.000000000000000082E-05 ), #15, 'distance_accuracy_value', 'NONE');
#238 = CARTESIAN_POINT ( 'NONE',  ( -0.06249999999999997918, 0.0000000000000000000, 0.3654047844199155848 ) ) ;
#239 = VERTEX_POINT ( 'NONE', #57 ) ;
#240 = CIRCLE ( 'NONE', #280, 0.06250000000000002776 ) ;
#241 = PRODUCT_DEFINITION_FORMATION_WITH_SPECIFIED_SOURCE ( 'ANY', '', #298, .NOT_KNOWN. ) ;
#242 = EDGE_CURVE ( 'NONE', #147, #239, #172, .T. ) ;
#243 = ORIENTED_EDGE ( 'NONE', *, *, #158, .T. ) ;
#244 = SURFACE_SIDE_STYLE ('',( #45 ) ) ;
#245 = LINE ( 'NONE', #200, #273 ) ;
#246 = ORIENTED_EDGE ( 'NONE', *, *, #158, .F. ) ;
#247 =( CONVERSION_BASED_UNIT ( 'INCH', #170 ) LENGTH_UNIT ( ) NAMED_UNIT ( #12 ) );
#248 = ORIENTED_EDGE ( 'NONE', *, *, #258, .T. ) ;
#249 = ORIENTED_EDGE ( 'NONE', *, *, #104, .T. ) ;
#250 = VECTOR ( 'NONE', #215, 39.37007874015748854 ) ;
#251 = COLOUR_RGB ( '',0.7921568627450980005, 0.8196078431372548767, 0.9333333333333333481 ) ;
#252 = DIRECTION ( 'NONE',  ( 0.0000000000000000000, 0.0000000000000000000, -1.000000000000000000 ) ) ;
#253 = CARTESIAN_POINT ( 'NONE',  ( 4.682062571497491304E-34, 0.0000000000000000000, 3.823194226088145228E-18 ) ) ;
#254 = DIMENSIONAL_EXPONENTS ( 1.000000000000000000, 0.0000000000000000000, 0.0000000000000000000, 0.0000000000000000000, 0.0000000000000000000, 0.0000000000000000000, 0.0000000000000000000 ) ;
#255 = CARTESIAN_POINT ( 'NONE',  ( 0.04750000000000064587, 6.735557395310483192E-18, 1.500000000000000222 ) ) ;
#256 = VECTOR ( 'NONE', #53, 39.37007874015748143 ) ;
#257 = CARTESIAN_POINT ( 'NONE',  ( 0.03121875000000000691, 3.823194226088144458E-18, -3.823194226088145998E-18 ) ) ;
#258 = EDGE_CURVE ( 'NONE', #129, #275, #233, .T. ) ;
#259 = CARTESIAN_POINT ( 'NONE',  ( 0.0000000000000000000, 0.0000000000000000000, 1.500000000000000222 ) ) ;
#260 = DIRECTION ( 'NONE',  ( -1.000000000000000000, 0.0000000000000000000, 1.224646799147353700E-16 ) ) ;
#261 = AXIS2_PLACEMENT_3D ( 'NONE', #259, #176, #13 ) ;
#262 = PLANE ( 'NONE',  #79 ) ;
#263 = EDGE_CURVE ( 'NONE', #196, #239, #191, .T. ) ;
#264 = DIRECTION ( 'NONE',  ( 1.000000000000000000, 0.0000000000000000000, 0.0000000000000000000 ) ) ;
#265 = APPLICATION_PROTOCOL_DEFINITION ( 'draft international standard', 'automotive_design', 1998, #296 ) ;
#266 = FACE_OUTER_BOUND ( 'NONE', #54, .T. ) ;
#267 = CIRCLE ( 'NONE', #142, 0.03121875000000000691 ) ;
#268 = ADVANCED_FACE ( 'NONE', ( #266 ), #60, .T. ) ;
#269 =( LENGTH_UNIT ( ) NAMED_UNIT ( * ) SI_UNIT ( $, .METRE. ) );
#270 = CARTESIAN_POINT ( 'NONE',  ( -0.04750000000000064587, 0.0000000000000000000, 1.500000000000000222 ) ) ;
#271 = ORIENTED_EDGE ( 'NONE', *, *, #20, .T. ) ;
#272 = PRODUCT_CONTEXT ( 'NONE', #296, 'mechanical' ) ;
#273 = VECTOR ( 'NONE', #44, 39.37007874015748143 ) ;
#274 = ADVANCED_FACE ( 'NONE', ( #80 ), #38, .T. ) ;
#275 = VERTEX_POINT ( 'NONE', #238 ) ;
#276 = VECTOR ( 'NONE', #140, 39.37007874015748143 ) ;
#277 = PRESENTATION_STYLE_ASSIGNMENT (( #109 ) ) ;
#278 =( NAMED_UNIT ( * ) PLANE_ANGLE_UNIT ( ) SI_UNIT ( $, .RADIAN. ) );
#279 = CARTESIAN_POINT ( 'NONE',  ( 0.0000000000000000000, 0.0000000000000000000, 1.500000000000000222 ) ) ;
#280 = AXIS2_PLACEMENT_3D ( 'NONE', #46, #70, #51 ) ;
#281 = DIRECTION ( 'NONE',  ( 0.0000000000000000000, 0.0000000000000000000, 1.000000000000000000 ) ) ;
#282 = DIRECTION ( 'NONE',  ( -1.000000000000000000, 0.0000000000000000000, 1.224646799147353700E-16 ) ) ;
#283 = CARTESIAN_POINT ( 'NONE',  ( -0.06250000000000002776, 0.0000000000000000000, 1.500000000000000222 ) ) ;
#284 = ADVANCED_FACE ( 'NONE', ( #291 ), #163, .F. ) ;
#285 = EDGE_CURVE ( 'NONE', #5, #196, #232, .T. ) ;
#286 = PRESENTATION_LAYER_ASSIGNMENT (  '', '', ( #119 ) ) ;
#287 = DIRECTION ( 'NONE',  ( 0.0000000000000000000, 0.0000000000000000000, 1.000000000000000000 ) ) ;
#288 = ADVANCED_BREP_SHAPE_REPRESENTATION ( 'Micro_EMS-062-4X', ( #23, #120 ), #187 ) ;
#289 = AXIS2_PLACEMENT_3D ( 'NONE', #236, #207, #260 ) ;
#290 = DIRECTION ( 'NONE',  ( -1.000000000000000000, 0.0000000000000000000, 0.0000000000000000000 ) ) ;
#291 = FACE_OUTER_BOUND ( 'NONE', #67, .T. ) ;
#292 = DIRECTION ( 'NONE',  ( 0.0000000000000000000, 0.0000000000000000000, -1.000000000000000000 ) ) ;
#293 = ADVANCED_FACE ( 'NONE', ( #210 ), #262, .T. ) ;
#294 = AXIS2_PLACEMENT_3D ( 'NONE', #204, #8, #113 ) ;
#295 = ORIENTED_EDGE ( 'NONE', *, *, #27, .T. ) ;
#296 = APPLICATION_CONTEXT ( 'automotive_design' ) ;
#297 = ORIENTED_EDGE ( 'NONE', *, *, #20, .F. ) ;
#298 = PRODUCT ( 'Micro_EMS-062-4X', 'Micro_EMS-062-4X', '', ( #272 ) ) ;
#299 = ADVANCED_FACE ( 'NONE', ( #209 ), #161, .T. ) ;
ENDSEC;
END-ISO-10303-21;
