ISO-10303-21;
HEADER;
FILE_DESCRIPTION (( 'STEP AP214' ),
    '1' );
FILE_NAME ('06240.STEP',
    '2023-07-05T16:01:13',
    ( '' ),
    ( '' ),
    'SwSTEP 2.0',
    'SolidWorks 2023',
    '' );
FILE_SCHEMA (( 'AUTOMOTIVE_DESIGN' ));
ENDSEC;

DATA;
#1 =( CONVERSION_BASED_UNIT ( 'INCH', #92 ) LENGTH_UNIT ( ) NAMED_UNIT ( #185 ) );
#2 =( CONVERSION_BASED_UNIT ( 'INCH', #228 ) LENGTH_UNIT ( ) NAMED_UNIT ( #102 ) );
#3 = DIMENSIONAL_EXPONENTS ( 1.000000000000000000, 0.000000000000000000, 0.000000000000000000, 0.000000000000000000, 0.000000000000000000, 0.000000000000000000, 0.000000000000000000 ) ;
#4 = FILL_AREA_STYLE_COLOUR ( '', #224 ) ;
#5 = DIMENSIONAL_EXPONENTS ( 1.000000000000000000, 0.000000000000000000, 0.000000000000000000, 0.000000000000000000, 0.000000000000000000, 0.000000000000000000, 0.000000000000000000 ) ;
#6 = PRESENTATION_STYLE_ASSIGNMENT (( #184 ) ) ;
#7 = DIRECTION ( 'NONE',  ( 0.000000000000000000, -0.000000000000000000, 1.000000000000000000 ) ) ;
#8 = COLOUR_RGB ( '',1.000000000000000000, 0.000000000000000000, 0.000000000000000000 ) ;
#9 = VECTOR ( 'NONE', #133, 39.37007874015748143 ) ;
#10 = CARTESIAN_POINT ( 'NONE',  ( 0.000000000000000000, 39.37007874015748143, 0.000000000000000000 ) ) ;
#11 = AXIS2_PLACEMENT_3D ( 'NONE', #65, #247, #7 ) ;
#12 = VERTEX_POINT ( 'NONE', #32 ) ;
#13 = ORIENTED_EDGE ( 'NONE', *, *, #39, .F. ) ;
#14 = DIRECTION ( 'NONE',  ( -0.000000000000000000, -1.000000000000000000, -0.000000000000000000 ) ) ;
#15 = PRODUCT_DEFINITION_SHAPE ( 'NONE', 'NONE',  #103 ) ;
#16 = VERTEX_POINT ( 'NONE', #112 ) ;
#17 = CARTESIAN_POINT ( 'NONE',  ( 2.262311619753217762E-16, 0.1623797632095817789, 0.000000000000000000 ) ) ;
#18 = CARTESIAN_POINT ( 'NONE',  ( 0.09374999999999994449, 2.000000000000000000, 1.148106374200641398E-17 ) ) ;
#19 = PLANE ( 'NONE',  #11 ) ;
#20 = PRESENTATION_LAYER_ASSIGNMENT (  '', '', ( #106 ) ) ;
#21 = DIRECTION ( 'NONE',  ( -0.000000000000000000, -1.000000000000000000, -0.000000000000000000 ) ) ;
#22 = CARTESIAN_POINT ( 'NONE',  ( 0.000000000000000000, 0.000000000000000000, 0.000000000000000000 ) ) ;
#23 = AXIS2_PLACEMENT_3D ( 'NONE', #250, #63, #66 ) ;
#24 = DIRECTION ( 'NONE',  ( 1.000000000000000000, 0.000000000000000000, 0.000000000000000000 ) ) ;
#25 =( NAMED_UNIT ( * ) PLANE_ANGLE_UNIT ( ) SI_UNIT ( $, .RADIAN. ) );
#26 = ADVANCED_FACE ( 'NONE', ( #199 ), #90, .T. ) ;
#27 = ORIENTED_EDGE ( 'NONE', *, *, #225, .F. ) ;
#28 = LINE ( 'NONE', #198, #9 ) ;
#29 = AXIS2_PLACEMENT_3D ( 'NONE', #17, #34, #76 ) ;
#30 = UNCERTAINTY_MEASURE_WITH_UNIT (LENGTH_MEASURE( 1.000000000000000082E-05 ), #1, 'distance_accuracy_value', 'NONE');
#31 = ORIENTED_EDGE ( 'NONE', *, *, #57, .F. ) ;
#32 = CARTESIAN_POINT ( 'NONE',  ( -0.09374999999999975020, 2.000000000000000000, 0.000000000000000000 ) ) ;
#33 = EDGE_CURVE ( 'NONE', #216, #132, #58, .T. ) ;
#34 = DIRECTION ( 'NONE',  ( -5.646785988917090927E-17, 1.000000000000000000, 0.000000000000000000 ) ) ;
#35 = EDGE_LOOP ( 'NONE', ( #87, #177 ) ) ;
#36 = AXIS2_PLACEMENT_3D ( 'NONE', #170, #14, #111 ) ;
#37 = FACE_OUTER_BOUND ( 'NONE', #35, .T. ) ;
#38 = CARTESIAN_POINT ( 'NONE',  ( 0.000000000000000000, 0.000000000000000000, 0.000000000000000000 ) ) ;
#39 = EDGE_CURVE ( 'NONE', #223, #235, #204, .T. ) ;
#40 = CARTESIAN_POINT ( 'NONE',  ( 0.000000000000000000, 0.1623797632095817789, 0.000000000000000000 ) ) ;
#41 = CLOSED_SHELL ( 'NONE', ( #265, #89, #26, #134 ) ) ;
#42 = VECTOR ( 'NONE', #98, 39.37007874015748143 ) ;
#43 =( CONVERSION_BASED_UNIT ( 'INCH', #205 ) LENGTH_UNIT ( ) NAMED_UNIT ( #5 ) );
#44 = FACE_OUTER_BOUND ( 'NONE', #197, .T. ) ;
#45 = STYLED_ITEM ( 'NONE', ( #136 ), #186 ) ;
#46 = FILL_AREA_STYLE_COLOUR ( '', #8 ) ;
#47 = APPLICATION_CONTEXT ( 'automotive_design' ) ;
#48 =( NAMED_UNIT ( * ) PLANE_ANGLE_UNIT ( ) SI_UNIT ( $, .RADIAN. ) );
#49 = EDGE_CURVE ( 'NONE', #129, #223, #161, .T. ) ;
#50 = FILL_AREA_STYLE ('',( #201 ) ) ;
#51 = CARTESIAN_POINT ( 'NONE',  ( 0.000000000000000000, 0.000000000000000000, 0.000000000000000000 ) ) ;
#52 = ORIENTED_EDGE ( 'NONE', *, *, #57, .T. ) ;
#53 =( CONVERSION_BASED_UNIT ( 'INCH', #234 ) LENGTH_UNIT ( ) NAMED_UNIT ( #209 ) );
#54 = ORIENTED_EDGE ( 'NONE', *, *, #254, .F. ) ;
#55 = CONICAL_SURFACE ( 'NONE', #190, 22.73032555864674364, 0.5235987755983000369 ) ;
#56 = ORIENTED_EDGE ( 'NONE', *, *, #39, .T. ) ;
#57 = EDGE_CURVE ( 'NONE', #223, #129, #251, .T. ) ;
#58 = LINE ( 'NONE', #22, #232 ) ;
#59 = DIRECTION ( 'NONE',  ( 1.000000000000000000, 5.646785988917090927E-17, 0.000000000000000000 ) ) ;
#60 = ORIENTED_EDGE ( 'NONE', *, *, #33, .T. ) ;
#61 = SURFACE_STYLE_USAGE ( .BOTH. , #243 ) ;
#62 = AXIS2_PLACEMENT_3D ( 'NONE', #164, #77, #183 ) ;
#63 = DIRECTION ( 'NONE',  ( -5.646785988917090927E-17, 1.000000000000000000, -0.000000000000000000 ) ) ;
#64 = PRESENTATION_STYLE_ASSIGNMENT (( #114 ) ) ;
#65 = CARTESIAN_POINT ( 'NONE',  ( 0.000000000000000000, 0.1623797632095817789, 0.000000000000000000 ) ) ;
#66 = DIRECTION ( 'NONE',  ( -1.000000000000000000, 0.000000000000000000, 0.000000000000000000 ) ) ;
#67 = MECHANICAL_DESIGN_GEOMETRIC_PRESENTATION_REPRESENTATION (  '', ( #122 ), #230 ) ;
#68 = ADVANCED_FACE ( 'NONE', ( #44 ), #189, .T. ) ;
#69 = FACE_OUTER_BOUND ( 'NONE', #135, .T. ) ;
#70 = AXIS2_PLACEMENT_3D ( 'NONE', #253, #159, #97 ) ;
#71 = ORIENTED_EDGE ( 'NONE', *, *, #49, .F. ) ;
#72 = UNCERTAINTY_MEASURE_WITH_UNIT (LENGTH_MEASURE( 1.000000000000000082E-05 ), #2, 'distance_accuracy_value', 'NONE');
#73 = EDGE_LOOP ( 'NONE', ( #152, #27 ) ) ;
#74 =( GEOMETRIC_REPRESENTATION_CONTEXT ( 3 ) GLOBAL_UNCERTAINTY_ASSIGNED_CONTEXT ( ( #72 ) ) GLOBAL_UNIT_ASSIGNED_CONTEXT ( ( #2, #160, #226 ) ) REPRESENTATION_CONTEXT ( 'NONE', 'WORKASPACE' ) );
#75 = DIRECTION ( 'NONE',  ( -1.000000000000000000, 0.000000000000000000, 0.000000000000000000 ) ) ;
#76 = DIRECTION ( 'NONE',  ( -1.000000000000000000, -5.646785988917090927E-17, 0.000000000000000000 ) ) ;
#77 = DIRECTION ( 'NONE',  ( -5.646785988917090927E-17, 1.000000000000000000, -0.000000000000000000 ) ) ;
#78 =( GEOMETRIC_REPRESENTATION_CONTEXT ( 3 ) GLOBAL_UNCERTAINTY_ASSIGNED_CONTEXT ( ( #108 ) ) GLOBAL_UNIT_ASSIGNED_CONTEXT ( ( #43, #80, #180 ) ) REPRESENTATION_CONTEXT ( 'NONE', 'WORKASPACE' ) );
#79 = SURFACE_STYLE_FILL_AREA ( #139 ) ;
#80 =( NAMED_UNIT ( * ) PLANE_ANGLE_UNIT ( ) SI_UNIT ( $, .RADIAN. ) );
#81 = CIRCLE ( 'NONE', #36, 0.09374999999999998612 ) ;
#82 = CARTESIAN_POINT ( 'NONE',  ( 0.000000000000000000, 39.37007874015748143, 0.000000000000000000 ) ) ;
#83 = VECTOR ( 'NONE', #140, 39.37007874015748143 ) ;
#84 = CARTESIAN_POINT ( 'NONE',  ( -0.09374999999999954203, 0.1623797632095817234, 0.000000000000000000 ) ) ;
#85 = DIRECTION ( 'NONE',  ( -5.646785988917090927E-17, 1.000000000000000000, -0.000000000000000000 ) ) ;
#86 = SURFACE_STYLE_FILL_AREA ( #88 ) ;
#87 = ORIENTED_EDGE ( 'NONE', *, *, #148, .T. ) ;
#88 = FILL_AREA_STYLE ('',( #158 ) ) ;
#89 = ADVANCED_FACE ( 'NONE', ( #69 ), #249, .F. ) ;
#90 = CYLINDRICAL_SURFACE ( 'NONE', #96, 0.09374999999999981959 ) ;
#91 = PRESENTATION_LAYER_ASSIGNMENT (  '', '', ( #179 ) ) ;
#92 = LENGTH_MEASURE_WITH_UNIT ( LENGTH_MEASURE( 0.02539999999999999897 ), #117 );
#93 = ORIENTED_EDGE ( 'NONE', *, *, #157, .F. ) ;
#94 = MANIFOLD_SOLID_BREP ( 'Revolve - Tool Body (Pointed)', #41 ) ;
#95 = FACE_OUTER_BOUND ( 'NONE', #73, .T. ) ;
#96 = AXIS2_PLACEMENT_3D ( 'NONE', #263, #156, #239 ) ;
#97 = DIRECTION ( 'NONE',  ( -1.000000000000000000, 0.000000000000000000, 0.000000000000000000 ) ) ;
#98 = DIRECTION ( 'NONE',  ( 6.123233995736778362E-17, 0.8660254037844380415, -0.5000000000000009992 ) ) ;
#99 = DIRECTION ( 'NONE',  ( 0.000000000000000000, 0.000000000000000000, -1.000000000000000000 ) ) ;
#100 = ADVANCED_FACE ( 'NONE', ( #191 ), #55, .T. ) ;
#101 = FILL_AREA_STYLE ('',( #120 ) ) ;
#102 = DIMENSIONAL_EXPONENTS ( 1.000000000000000000, 0.000000000000000000, 0.000000000000000000, 0.000000000000000000, 0.000000000000000000, 0.000000000000000000, 0.000000000000000000 ) ;
#103 = PRODUCT_DEFINITION ( 'UNKNOWN', '', #264, #131 ) ;
#104 = FILL_AREA_STYLE ('',( #46 ) ) ;
#105 =( NAMED_UNIT ( * ) SI_UNIT ( $, .STERADIAN. ) SOLID_ANGLE_UNIT ( ) );
#106 = STYLED_ITEM ( 'NONE', ( #64 ), #94 ) ;
#107 = MECHANICAL_DESIGN_GEOMETRIC_PRESENTATION_REPRESENTATION (  '', ( #45 ), #173 ) ;
#108 = UNCERTAINTY_MEASURE_WITH_UNIT (LENGTH_MEASURE( 1.000000000000000082E-05 ), #43, 'distance_accuracy_value', 'NONE');
#109 = EDGE_LOOP ( 'NONE', ( #13, #52, #220, #54 ) ) ;
#110 = AXIS2_PLACEMENT_3D ( 'NONE', #40, #21, #99 ) ;
#111 = DIRECTION ( 'NONE',  ( 0.000000000000000000, 0.000000000000000000, -1.000000000000000000 ) ) ;
#112 = CARTESIAN_POINT ( 'NONE',  ( 1.148106374200643401E-17, 0.1623797632095817789, -0.09374999999999998612 ) ) ;
#113 =( NAMED_UNIT ( * ) SI_UNIT ( $, .STERADIAN. ) SOLID_ANGLE_UNIT ( ) );
#114 = SURFACE_STYLE_USAGE ( .BOTH. , #163 ) ;
#115 = LINE ( 'NONE', #38, #42 ) ;
#116 = CARTESIAN_POINT ( 'NONE',  ( 0.09374999999999998612, 2.000000000000000000, 1.148106374200641860E-17 ) ) ;
#117 =( LENGTH_UNIT ( ) NAMED_UNIT ( * ) SI_UNIT ( $, .METRE. ) );
#118 = MECHANICAL_DESIGN_GEOMETRIC_PRESENTATION_REPRESENTATION (  '', ( #179 ), #165 ) ;
#119 = AXIS2_PLACEMENT_3D ( 'NONE', #178, #221, #59 ) ;
#120 = FILL_AREA_STYLE_COLOUR ( '', #238 ) ;
#121 = CARTESIAN_POINT ( 'NONE',  ( 0.09374999999999998612, 0.1623797632095817234, 1.148106374200641860E-17 ) ) ;
#122 = STYLED_ITEM ( 'NONE', ( #171 ), #68 ) ;
#123 = MECHANICAL_DESIGN_GEOMETRIC_PRESENTATION_REPRESENTATION (  '', ( #137 ), #78 ) ;
#124 = LENGTH_MEASURE_WITH_UNIT ( LENGTH_MEASURE( 0.02539999999999999897 ), #147 );
#125 = CARTESIAN_POINT ( 'NONE',  ( 2.262311619753217762E-16, 0.1623797632095817234, 0.000000000000000000 ) ) ;
#126 = SURFACE_SIDE_STYLE ('',( #149 ) ) ;
#127 = PRESENTATION_LAYER_ASSIGNMENT (  '', '', ( #137 ) ) ;
#128 =( LENGTH_UNIT ( ) NAMED_UNIT ( * ) SI_UNIT ( $, .METRE. ) );
#129 = VERTEX_POINT ( 'NONE', #84 ) ;
#130 = EDGE_CURVE ( 'NONE', #132, #16, #81, .T. ) ;
#131 = PRODUCT_DEFINITION_CONTEXT ( 'detailed design', #47, 'design' ) ;
#132 = VERTEX_POINT ( 'NONE', #240 ) ;
#133 = DIRECTION ( 'NONE',  ( -5.646785988917090927E-17, 1.000000000000000000, -0.000000000000000000 ) ) ;
#134 = ADVANCED_FACE ( 'NONE', ( #37 ), #154, .F. ) ;
#135 = EDGE_LOOP ( 'NONE', ( #71, #31 ) ) ;
#136 = PRESENTATION_STYLE_ASSIGNMENT (( #61 ) ) ;
#137 = STYLED_ITEM ( 'NONE', ( #6 ), #242 ) ;
#138 = CYLINDRICAL_SURFACE ( 'NONE', #62, 0.09374999999999981959 ) ;
#139 = FILL_AREA_STYLE ('',( #4 ) ) ;
#140 = DIRECTION ( 'NONE',  ( -5.646785988917090927E-17, 1.000000000000000000, -0.000000000000000000 ) ) ;
#141 = FACE_OUTER_BOUND ( 'NONE', #155, .T. ) ;
#142 = COLOUR_RGB ( '',1.000000000000000000, 0.000000000000000000, 0.000000000000000000 ) ;
#143 =( LENGTH_UNIT ( ) NAMED_UNIT ( * ) SI_UNIT ( $, .METRE. ) );
#144 = SURFACE_STYLE_FILL_AREA ( #101 ) ;
#145 = COLOUR_RGB ( '',0.7921568627450980005, 0.8196078431372548767, 0.9333333333333333481 ) ;
#146 = SURFACE_STYLE_USAGE ( .BOTH. , #126 ) ;
#147 =( LENGTH_UNIT ( ) NAMED_UNIT ( * ) SI_UNIT ( $, .METRE. ) );
#148 = EDGE_CURVE ( 'NONE', #12, #235, #162, .T. ) ;
#149 = SURFACE_STYLE_FILL_AREA ( #50 ) ;
#150 =( GEOMETRIC_REPRESENTATION_CONTEXT ( 3 ) GLOBAL_UNCERTAINTY_ASSIGNED_CONTEXT ( ( #30 ) ) GLOBAL_UNIT_ASSIGNED_CONTEXT ( ( #1, #48, #215 ) ) REPRESENTATION_CONTEXT ( 'NONE', 'WORKASPACE' ) );
#151 =( CONVERSION_BASED_UNIT ( 'INCH', #258 ) LENGTH_UNIT ( ) NAMED_UNIT ( #3 ) );
#152 = ORIENTED_EDGE ( 'NONE', *, *, #130, .F. ) ;
#153 = DIRECTION ( 'NONE',  ( -5.646785988917090927E-17, 1.000000000000000000, -0.000000000000000000 ) ) ;
#154 = PLANE ( 'NONE',  #119 ) ;
#155 = EDGE_LOOP ( 'NONE', ( #233, #56, #176, #93 ) ) ;
#156 = DIRECTION ( 'NONE',  ( -5.646785988917090927E-17, 1.000000000000000000, -0.000000000000000000 ) ) ;
#157 = EDGE_CURVE ( 'NONE', #129, #12, #28, .T. ) ;
#158 = FILL_AREA_STYLE_COLOUR ( '', #145 ) ;
#159 = DIRECTION ( 'NONE',  ( -5.646785988917090927E-17, 1.000000000000000000, -0.000000000000000000 ) ) ;
#160 =( NAMED_UNIT ( * ) PLANE_ANGLE_UNIT ( ) SI_UNIT ( $, .RADIAN. ) );
#161 = CIRCLE ( 'NONE', #70, 0.09374999999999976408 ) ;
#162 = CIRCLE ( 'NONE', #252, 0.09374999999999987510 ) ;
#163 = SURFACE_SIDE_STYLE ('',( #79 ) ) ;
#164 = CARTESIAN_POINT ( 'NONE',  ( 1.224646799147353700E-16, 2.000000000000000000, 0.000000000000000000 ) ) ;
#165 =( GEOMETRIC_REPRESENTATION_CONTEXT ( 3 ) GLOBAL_UNCERTAINTY_ASSIGNED_CONTEXT ( ( #259 ) ) GLOBAL_UNIT_ASSIGNED_CONTEXT ( ( #212, #25, #105 ) ) REPRESENTATION_CONTEXT ( 'NONE', 'WORKASPACE' ) );
#166 = PRODUCT_RELATED_PRODUCT_CATEGORY ( 'part', '', ( #172 ) ) ;
#167 = DIRECTION ( 'NONE',  ( 0.000000000000000000, 0.8660254037844380415, 0.5000000000000009992 ) ) ;
#168 = DIRECTION ( 'NONE',  ( 0.000000000000000000, 0.000000000000000000, 1.000000000000000000 ) ) ;
#169 =( NAMED_UNIT ( * ) PLANE_ANGLE_UNIT ( ) SI_UNIT ( $, .RADIAN. ) );
#170 = CARTESIAN_POINT ( 'NONE',  ( 0.000000000000000000, 0.1623797632095817789, 0.000000000000000000 ) ) ;
#171 = PRESENTATION_STYLE_ASSIGNMENT (( #210 ) ) ;
#172 = PRODUCT ( '06240', '06240', '', ( #211 ) ) ;
#173 =( GEOMETRIC_REPRESENTATION_CONTEXT ( 3 ) GLOBAL_UNCERTAINTY_ASSIGNED_CONTEXT ( ( #196 ) ) GLOBAL_UNIT_ASSIGNED_CONTEXT ( ( #53, #217, #113 ) ) REPRESENTATION_CONTEXT ( 'NONE', 'WORKASPACE' ) );
#174 =( LENGTH_UNIT ( ) NAMED_UNIT ( * ) SI_UNIT ( $, .METRE. ) );
#175 = UNCERTAINTY_MEASURE_WITH_UNIT (LENGTH_MEASURE( 1.000000000000000082E-05 ), #151, 'distance_accuracy_value', 'NONE');
#176 = ORIENTED_EDGE ( 'NONE', *, *, #148, .F. ) ;
#177 = ORIENTED_EDGE ( 'NONE', *, *, #254, .T. ) ;
#178 = CARTESIAN_POINT ( 'NONE',  ( 0.09374999999999998612, 2.000000000000000000, 0.000000000000000000 ) ) ;
#179 = STYLED_ITEM ( 'NONE', ( #231 ), #100 ) ;
#180 =( NAMED_UNIT ( * ) SI_UNIT ( $, .STERADIAN. ) SOLID_ANGLE_UNIT ( ) );
#181 =( LENGTH_UNIT ( ) NAMED_UNIT ( * ) SI_UNIT ( $, .METRE. ) );
#182 = MECHANICAL_DESIGN_GEOMETRIC_PRESENTATION_REPRESENTATION (  '', ( #106 ), #150 ) ;
#183 = DIRECTION ( 'NONE',  ( -1.000000000000000000, 0.000000000000000000, 0.000000000000000000 ) ) ;
#184 = SURFACE_STYLE_USAGE ( .BOTH. , #202 ) ;
#185 = DIMENSIONAL_EXPONENTS ( 1.000000000000000000, 0.000000000000000000, 0.000000000000000000, 0.000000000000000000, 0.000000000000000000, 0.000000000000000000, 0.000000000000000000 ) ;
#186 = MANIFOLD_SOLID_BREP ( 'Revolve - Cutting Edge', #219 ) ;
#187 = DIMENSIONAL_EXPONENTS ( 1.000000000000000000, 0.000000000000000000, 0.000000000000000000, 0.000000000000000000, 0.000000000000000000, 0.000000000000000000, 0.000000000000000000 ) ;
#188 = DIRECTION ( 'NONE',  ( 0.000000000000000000, 0.000000000000000000, 1.000000000000000000 ) ) ;
#189 = CONICAL_SURFACE ( 'NONE', #244, 22.73032555864674364, 0.5235987755983000369 ) ;
#190 = AXIS2_PLACEMENT_3D ( 'NONE', #10, #257, #188 ) ;
#191 = FACE_OUTER_BOUND ( 'NONE', #218, .T. ) ;
#192 = APPLICATION_PROTOCOL_DEFINITION ( 'draft international standard', 'automotive_design', 1998, #47 ) ;
#193 = ORIENTED_EDGE ( 'NONE', *, *, #200, .F. ) ;
#194 = CIRCLE ( 'NONE', #23, 0.09374999999999987510 ) ;
#195 = CARTESIAN_POINT ( 'NONE',  ( 1.224646799147353700E-16, 2.000000000000000000, 0.000000000000000000 ) ) ;
#196 = UNCERTAINTY_MEASURE_WITH_UNIT (LENGTH_MEASURE( 1.000000000000000082E-05 ), #53, 'distance_accuracy_value', 'NONE');
#197 = EDGE_LOOP ( 'NONE', ( #193, #60, #241 ) ) ;
#198 = CARTESIAN_POINT ( 'NONE',  ( -0.09374999999999969469, 2.000000000000000000, 0.000000000000000000 ) ) ;
#199 = FACE_OUTER_BOUND ( 'NONE', #109, .T. ) ;
#200 = EDGE_CURVE ( 'NONE', #216, #16, #115, .T. ) ;
#201 = FILL_AREA_STYLE_COLOUR ( '', #142 ) ;
#202 = SURFACE_SIDE_STYLE ('',( #144 ) ) ;
#203 = DIRECTION ( 'NONE',  ( 0.000000000000000000, 0.000000000000000000, 1.000000000000000000 ) ) ;
#204 = LINE ( 'NONE', #18, #83 ) ;
#205 = LENGTH_MEASURE_WITH_UNIT ( LENGTH_MEASURE( 0.02539999999999999897 ), #181 );
#206 = CARTESIAN_POINT ( 'NONE',  ( 0.000000000000000000, 0.000000000000000000, 0.000000000000000000 ) ) ;
#207 =( NAMED_UNIT ( * ) SI_UNIT ( $, .STERADIAN. ) SOLID_ANGLE_UNIT ( ) );
#208 = ADVANCED_BREP_SHAPE_REPRESENTATION ( '06240', ( #186, #94, #227 ), #74 ) ;
#209 = DIMENSIONAL_EXPONENTS ( 1.000000000000000000, 0.000000000000000000, 0.000000000000000000, 0.000000000000000000, 0.000000000000000000, 0.000000000000000000, 0.000000000000000000 ) ;
#210 = SURFACE_STYLE_USAGE ( .BOTH. , #255 ) ;
#211 = PRODUCT_CONTEXT ( 'NONE', #262, 'mechanical' ) ;
#212 =( CONVERSION_BASED_UNIT ( 'INCH', #124 ) LENGTH_UNIT ( ) NAMED_UNIT ( #187 ) );
#213 = PRESENTATION_LAYER_ASSIGNMENT (  '', '', ( #122 ) ) ;
#214 = CIRCLE ( 'NONE', #110, 0.09374999999999998612 ) ;
#215 =( NAMED_UNIT ( * ) SI_UNIT ( $, .STERADIAN. ) SOLID_ANGLE_UNIT ( ) );
#216 = VERTEX_POINT ( 'NONE', #206 ) ;
#217 =( NAMED_UNIT ( * ) PLANE_ANGLE_UNIT ( ) SI_UNIT ( $, .RADIAN. ) );
#218 = EDGE_LOOP ( 'NONE', ( #236, #261, #260 ) ) ;
#219 = CLOSED_SHELL ( 'NONE', ( #100, #242, #68 ) ) ;
#220 = ORIENTED_EDGE ( 'NONE', *, *, #157, .T. ) ;
#221 = DIRECTION ( 'NONE',  ( 5.646785988917090927E-17, -1.000000000000000000, 0.000000000000000000 ) ) ;
#222 = DIRECTION ( 'NONE',  ( 0.000000000000000000, 1.000000000000000000, 0.000000000000000000 ) ) ;
#223 = VERTEX_POINT ( 'NONE', #121 ) ;
#224 = COLOUR_RGB ( '',0.7921568627450980005, 0.8196078431372548767, 0.9333333333333333481 ) ;
#225 = EDGE_CURVE ( 'NONE', #16, #132, #214, .T. ) ;
#226 =( NAMED_UNIT ( * ) SI_UNIT ( $, .STERADIAN. ) SOLID_ANGLE_UNIT ( ) );
#227 = AXIS2_PLACEMENT_3D ( 'NONE', #51, #168, #24 ) ;
#228 = LENGTH_MEASURE_WITH_UNIT ( LENGTH_MEASURE( 0.02539999999999999897 ), #143 );
#229 = DIRECTION ( 'NONE',  ( -1.000000000000000000, 0.000000000000000000, 0.000000000000000000 ) ) ;
#230 =( GEOMETRIC_REPRESENTATION_CONTEXT ( 3 ) GLOBAL_UNCERTAINTY_ASSIGNED_CONTEXT ( ( #175 ) ) GLOBAL_UNIT_ASSIGNED_CONTEXT ( ( #151, #169, #207 ) ) REPRESENTATION_CONTEXT ( 'NONE', 'WORKASPACE' ) );
#231 = PRESENTATION_STYLE_ASSIGNMENT (( #146 ) ) ;
#232 = VECTOR ( 'NONE', #167, 39.37007874015748143 ) ;
#233 = ORIENTED_EDGE ( 'NONE', *, *, #49, .T. ) ;
#234 = LENGTH_MEASURE_WITH_UNIT ( LENGTH_MEASURE( 0.02539999999999999897 ), #174 );
#235 = VERTEX_POINT ( 'NONE', #116 ) ;
#236 = ORIENTED_EDGE ( 'NONE', *, *, #33, .F. ) ;
#237 = AXIS2_PLACEMENT_3D ( 'NONE', #125, #85, #229 ) ;
#238 = COLOUR_RGB ( '',1.000000000000000000, 0.000000000000000000, 0.000000000000000000 ) ;
#239 = DIRECTION ( 'NONE',  ( -1.000000000000000000, 0.000000000000000000, 0.000000000000000000 ) ) ;
#240 = CARTESIAN_POINT ( 'NONE',  ( 0.000000000000000000, 0.1623797632095817789, 0.09374999999999998612 ) ) ;
#241 = ORIENTED_EDGE ( 'NONE', *, *, #130, .T. ) ;
#242 = ADVANCED_FACE ( 'NONE', ( #95 ), #19, .T. ) ;
#243 = SURFACE_SIDE_STYLE ('',( #86 ) ) ;
#244 = AXIS2_PLACEMENT_3D ( 'NONE', #82, #222, #203 ) ;
#245 = PRESENTATION_LAYER_ASSIGNMENT (  '', '', ( #45 ) ) ;
#246 = SHAPE_DEFINITION_REPRESENTATION ( #15, #208 ) ;
#247 = DIRECTION ( 'NONE',  ( 0.000000000000000000, 1.000000000000000000, 0.000000000000000000 ) ) ;
#248 = APPLICATION_PROTOCOL_DEFINITION ( 'draft international standard', 'automotive_design', 1998, #262 ) ;
#249 = PLANE ( 'NONE',  #29 ) ;
#250 = CARTESIAN_POINT ( 'NONE',  ( 1.224646799147353700E-16, 2.000000000000000000, 0.000000000000000000 ) ) ;
#251 = CIRCLE ( 'NONE', #237, 0.09374999999999976408 ) ;
#252 = AXIS2_PLACEMENT_3D ( 'NONE', #195, #153, #75 ) ;
#253 = CARTESIAN_POINT ( 'NONE',  ( 2.262311619753217762E-16, 0.1623797632095817234, 0.000000000000000000 ) ) ;
#254 = EDGE_CURVE ( 'NONE', #235, #12, #194, .T. ) ;
#255 = SURFACE_SIDE_STYLE ('',( #256 ) ) ;
#256 = SURFACE_STYLE_FILL_AREA ( #104 ) ;
#257 = DIRECTION ( 'NONE',  ( 0.000000000000000000, 1.000000000000000000, 0.000000000000000000 ) ) ;
#258 = LENGTH_MEASURE_WITH_UNIT ( LENGTH_MEASURE( 0.02539999999999999897 ), #128 );
#259 = UNCERTAINTY_MEASURE_WITH_UNIT (LENGTH_MEASURE( 1.000000000000000082E-05 ), #212, 'distance_accuracy_value', 'NONE');
#260 = ORIENTED_EDGE ( 'NONE', *, *, #225, .T. ) ;
#261 = ORIENTED_EDGE ( 'NONE', *, *, #200, .T. ) ;
#262 = APPLICATION_CONTEXT ( 'automotive_design' ) ;
#263 = CARTESIAN_POINT ( 'NONE',  ( 1.224646799147353700E-16, 2.000000000000000000, 0.000000000000000000 ) ) ;
#264 = PRODUCT_DEFINITION_FORMATION_WITH_SPECIFIED_SOURCE ( 'ANY', '', #172, .NOT_KNOWN. ) ;
#265 = ADVANCED_FACE ( 'NONE', ( #141 ), #138, .T. ) ;
ENDSEC;
END-ISO-10303-21;
