ISO-10303-21;
HEADER;
FILE_DESCRIPTION (( 'STEP AP214' ),
    '1' );
FILE_NAME ('Micro_BMRM-030-2.STEP',
    '2021-09-03T14:37:25',
    ( '' ),
    ( '' ),
    'SwSTEP 2.0',
    'SolidWorks 2020',
    '' );
FILE_SCHEMA (( 'AUTOMOTIVE_DESIGN' ));
ENDSEC;

DATA;
#1 = DIRECTION ( 'NONE',  ( 1.224646799147353207E-16, 0.0000000000000000000, 1.000000000000000000 ) ) ;
#2 = AXIS2_PLACEMENT_3D ( 'NONE', #174, #127, #228 ) ;
#3 = FACE_OUTER_BOUND ( 'NONE', #28, .T. ) ;
#4 = DIRECTION ( 'NONE',  ( 0.0000000000000000000, 0.0000000000000000000, -1.000000000000000000 ) ) ;
#5 = DIRECTION ( 'NONE',  ( 1.224646799147353207E-16, 0.0000000000000000000, 1.000000000000000000 ) ) ;
#6 = CARTESIAN_POINT ( 'NONE',  ( -0.06374000000000018540, 0.0000000000000000000, 1.968503999999999809 ) ) ;
#7 = ORIENTED_EDGE ( 'NONE', *, *, #162, .T. ) ;
#8 = VERTEX_POINT ( 'NONE', #166 ) ;
#9 = LINE ( 'NONE', #307, #112 ) ;
#10 = ORIENTED_EDGE ( 'NONE', *, *, #168, .T. ) ;
#11 = ORIENTED_EDGE ( 'NONE', *, *, #314, .T. ) ;
#12 =( GEOMETRIC_REPRESENTATION_CONTEXT ( 3 ) GLOBAL_UNCERTAINTY_ASSIGNED_CONTEXT ( ( #154 ) ) GLOBAL_UNIT_ASSIGNED_CONTEXT ( ( #293, #157, #232 ) ) REPRESENTATION_CONTEXT ( 'NONE', 'WORKASPACE' ) );
#13 = AXIS2_PLACEMENT_3D ( 'NONE', #71, #47, #250 ) ;
#14 = EDGE_LOOP ( 'NONE', ( #287, #36, #130, #121 ) ) ;
#15 = DIRECTION ( 'NONE',  ( 1.000000000000000000, 0.0000000000000000000, 0.0000000000000000000 ) ) ;
#16 = CARTESIAN_POINT ( 'NONE',  ( -0.05899594499999995939, 7.224919520692329689E-18, 0.3543310000000000071 ) ) ;
#17 = DIRECTION ( 'NONE',  ( 0.0000000000000000000, 1.000000000000000000, 0.0000000000000000000 ) ) ;
#18 = CARTESIAN_POINT ( 'NONE',  ( 7.224919520692329689E-18, 0.0000000000000000000, 0.05899594499999999409 ) ) ;
#19 = CARTESIAN_POINT ( 'NONE',  ( 4.339303249886808058E-17, 0.0000000000000000000, 0.3543310000000000071 ) ) ;
#20 = VECTOR ( 'NONE', #197, 39.37007874015748143 ) ;
#21 = DIRECTION ( 'NONE',  ( -0.7071067811865502373, 0.0000000000000000000, -0.7071067811865446862 ) ) ;
#22 = ORIENTED_EDGE ( 'NONE', *, *, #44, .T. ) ;
#23 = EDGE_CURVE ( 'NONE', #29, #280, #63, .T. ) ;
#24 = LENGTH_MEASURE_WITH_UNIT ( LENGTH_MEASURE( 0.02539999999999999897 ), #305 );
#25 = DIRECTION ( 'NONE',  ( -1.000000000000000000, 0.0000000000000000000, 0.0000000000000000000 ) ) ;
#26 = AXIS2_PLACEMENT_3D ( 'NONE', #325, #146, #103 ) ;
#27 = ADVANCED_FACE ( 'NONE', ( #94 ), #145, .T. ) ;
#28 = EDGE_LOOP ( 'NONE', ( #294, #7, #10, #186 ) ) ;
#29 = VERTEX_POINT ( 'NONE', #296 ) ;
#30 = FACE_OUTER_BOUND ( 'NONE', #14, .T. ) ;
#31 = AXIS2_PLACEMENT_3D ( 'NONE', #42, #201, #45 ) ;
#32 = PRODUCT_DEFINITION_SHAPE ( 'NONE', 'NONE',  #235 ) ;
#33 = CYLINDRICAL_SURFACE ( 'NONE', #53, 0.07874000000000000443 ) ;
#34 = DIRECTION ( 'NONE',  ( 0.0000000000000000000, 1.000000000000000000, 0.0000000000000000000 ) ) ;
#35 = ORIENTED_EDGE ( 'NONE', *, *, #92, .F. ) ;
#36 = ORIENTED_EDGE ( 'NONE', *, *, #265, .T. ) ;
#37 = EDGE_CURVE ( 'NONE', #8, #187, #264, .T. ) ;
#38 = CIRCLE ( 'NONE', #171, 0.05899594500000000796 ) ;
#39 = ORIENTED_EDGE ( 'NONE', *, *, #139, .F. ) ;
#40 = DIRECTION ( 'NONE',  ( 0.0000000000000000000, 0.0000000000000000000, 1.000000000000000000 ) ) ;
#41 = DIRECTION ( 'NONE',  ( -1.224646799147353207E-16, -0.0000000000000000000, -1.000000000000000000 ) ) ;
#42 = CARTESIAN_POINT ( 'NONE',  ( 0.0000000000000000000, 0.0000000000000000000, 1.953504000000000129 ) ) ;
#43 = AXIS2_PLACEMENT_3D ( 'NONE', #75, #196, #323 ) ;
#44 = EDGE_CURVE ( 'NONE', #83, #140, #272, .T. ) ;
#45 = DIRECTION ( 'NONE',  ( 1.000000000000000000, 0.0000000000000000000, 0.0000000000000000000 ) ) ;
#46 = APPLICATION_CONTEXT ( 'automotive_design' ) ;
#47 = DIRECTION ( 'NONE',  ( -1.224646799147353207E-16, -0.0000000000000000000, -1.000000000000000000 ) ) ;
#48 = CARTESIAN_POINT ( 'NONE',  ( -0.07873999999999994892, 0.0000000000000000000, 0.4663051001670314721 ) ) ;
#49 = AXIS2_PLACEMENT_3D ( 'NONE', #55, #239, #218 ) ;
#50 = DIRECTION ( 'NONE',  ( -0.0000000000000000000, -0.0000000000000000000, -1.000000000000000000 ) ) ;
#51 = ORIENTED_EDGE ( 'NONE', *, *, #81, .T. ) ;
#52 = DIRECTION ( 'NONE',  ( -1.000000000000000000, 0.0000000000000000000, 0.0000000000000000000 ) ) ;
#53 = AXIS2_PLACEMENT_3D ( 'NONE', #138, #240, #205 ) ;
#54 = ORIENTED_EDGE ( 'NONE', *, *, #210, .T. ) ;
#55 = CARTESIAN_POINT ( 'NONE',  ( 0.0000000000000000000, 0.0000000000000000000, 1.968503999999999809 ) ) ;
#56 = ADVANCED_FACE ( 'NONE', ( #30 ), #310, .T. ) ;
#57 = CARTESIAN_POINT ( 'NONE',  ( 7.224919520692329689E-18, 0.0000000000000000000, 0.05899594499999999409 ) ) ;
#58 = AXIS2_PLACEMENT_3D ( 'NONE', #57, #34, #277 ) ;
#59 = AXIS2_PLACEMENT_3D ( 'NONE', #198, #40, #97 ) ;
#60 = DIRECTION ( 'NONE',  ( -1.224646799147353207E-16, -0.0000000000000000000, -1.000000000000000000 ) ) ;
#61 = ORIENTED_EDGE ( 'NONE', *, *, #200, .T. ) ;
#62 = APPLICATION_CONTEXT ( 'automotive_design' ) ;
#63 = LINE ( 'NONE', #241, #134 ) ;
#64 = APPLICATION_PROTOCOL_DEFINITION ( 'draft international standard', 'automotive_design', 1998, #46 ) ;
#65 = ADVANCED_FACE ( 'NONE', ( #115 ), #88, .T. ) ;
#66 = CARTESIAN_POINT ( 'NONE',  ( -0.07874000000000000443, 0.0000000000000000000, 1.968503999999999809 ) ) ;
#67 = CIRCLE ( 'NONE', #202, 0.07874000000000000443 ) ;
#68 = FILL_AREA_STYLE_COLOUR ( '', #213 ) ;
#69 = DIRECTION ( 'NONE',  ( 1.000000000000000000, 0.0000000000000000000, 0.0000000000000000000 ) ) ;
#70 = CARTESIAN_POINT ( 'NONE',  ( 0.0000000000000000000, 0.0000000000000000000, 1.968503999999999809 ) ) ;
#71 = CARTESIAN_POINT ( 'NONE',  ( 0.0000000000000000000, 0.0000000000000000000, 0.0000000000000000000 ) ) ;
#72 = STYLED_ITEM ( 'NONE', ( #255 ), #263 ) ;
#73 = PRODUCT_DEFINITION_CONTEXT ( 'detailed design', #62, 'design' ) ;
#74 = DIRECTION ( 'NONE',  ( 1.224646799147353207E-16, 0.0000000000000000000, 1.000000000000000000 ) ) ;
#75 = CARTESIAN_POINT ( 'NONE',  ( 0.0000000000000000000, 0.0000000000000000000, 0.0000000000000000000 ) ) ;
#76 = LENGTH_MEASURE_WITH_UNIT ( LENGTH_MEASURE( 0.02539999999999999897 ), #209 );
#77 = DIMENSIONAL_EXPONENTS ( 1.000000000000000000, 0.0000000000000000000, 0.0000000000000000000, 0.0000000000000000000, 0.0000000000000000000, 0.0000000000000000000, 0.0000000000000000000 ) ;
#78 = COLOUR_RGB ( '',0.7921568627450980005, 0.8196078431372548767, 0.9333333333333333481 ) ;
#79 = VECTOR ( 'NONE', #60, 39.37007874015748143 ) ;
#80 = DIRECTION ( 'NONE',  ( 0.0000000000000000000, -1.000000000000000000, 0.0000000000000000000 ) ) ;
#81 = EDGE_CURVE ( 'NONE', #306, #187, #216, .T. ) ;
#82 = ADVANCED_FACE ( 'NONE', ( #3 ), #102, .T. ) ;
#83 = VERTEX_POINT ( 'NONE', #304 ) ;
#84 = AXIS2_PLACEMENT_3D ( 'NONE', #303, #74, #15 ) ;
#85 = ORIENTED_EDGE ( 'NONE', *, *, #200, .F. ) ;
#86 = ORIENTED_EDGE ( 'NONE', *, *, #23, .T. ) ;
#87 = PRODUCT ( 'Micro_BMRM-030-2', 'Micro_BMRM-030-2', '', ( #95 ) ) ;
#88 = SPHERICAL_SURFACE ( 'NONE', #58, 0.05899594499999999409 ) ;
#89 = CARTESIAN_POINT ( 'NONE',  ( -0.05899594499999995939, 8.433894208589294869E-18, 0.3543310000000000071 ) ) ;
#90 = EDGE_LOOP ( 'NONE', ( #160, #22, #269, #260 ) ) ;
#91 = CIRCLE ( 'NONE', #316, 0.07874000000000000443 ) ;
#92 = EDGE_CURVE ( 'NONE', #267, #83, #279, .T. ) ;
#93 =( NAMED_UNIT ( * ) SI_UNIT ( $, .STERADIAN. ) SOLID_ANGLE_UNIT ( ) );
#94 = FACE_OUTER_BOUND ( 'NONE', #169, .T. ) ;
#95 = PRODUCT_CONTEXT ( 'NONE', #46, 'mechanical' ) ;
#96 = DIRECTION ( 'NONE',  ( 1.000000000000000000, 0.0000000000000000000, -0.0000000000000000000 ) ) ;
#97 = DIRECTION ( 'NONE',  ( 1.000000000000000000, 0.0000000000000000000, 0.0000000000000000000 ) ) ;
#98 = DIRECTION ( 'NONE',  ( 1.000000000000000000, 0.0000000000000000000, 0.0000000000000000000 ) ) ;
#99 = AXIS2_PLACEMENT_3D ( 'NONE', #124, #80, #4 ) ;
#100 =( LENGTH_UNIT ( ) NAMED_UNIT ( * ) SI_UNIT ( $, .METRE. ) );
#101 = CARTESIAN_POINT ( 'NONE',  ( 4.339303249886808058E-17, 0.0000000000000000000, 0.3543310000000000071 ) ) ;
#102 = CYLINDRICAL_SURFACE ( 'NONE', #13, 0.05899594500000000796 ) ;
#103 = DIRECTION ( 'NONE',  ( -1.000000000000000000, 0.0000000000000000000, 0.0000000000000000000 ) ) ;
#104 = CIRCLE ( 'NONE', #159, 0.06374000000000018540 ) ;
#105 = CARTESIAN_POINT ( 'NONE',  ( 1.083737928103849376E-17, 0.0000000000000000000, 0.0000000000000000000 ) ) ;
#106 = EDGE_CURVE ( 'NONE', #163, #256, #125, .T. ) ;
#107 = FACE_OUTER_BOUND ( 'NONE', #313, .T. ) ;
#108 = CLOSED_SHELL ( 'NONE', ( #149, #141, #188, #152, #282, #56, #27, #254, #195, #82, #65 ) ) ;
#109 = CARTESIAN_POINT ( 'NONE',  ( -0.06374000000000018540, 0.0000000000000000000, 1.968503999999999809 ) ) ;
#110 = ORIENTED_EDGE ( 'NONE', *, *, #106, .T. ) ;
#111 = AXIS2_PLACEMENT_3D ( 'NONE', #18, #203, #150 ) ;
#112 = VECTOR ( 'NONE', #50, 39.37007874015748143 ) ;
#113 = VERTEX_POINT ( 'NONE', #105 ) ;
#114 = DIRECTION ( 'NONE',  ( -1.000000000000000000, 0.0000000000000000000, 1.447052840699614406E-16 ) ) ;
#115 = FACE_OUTER_BOUND ( 'NONE', #211, .T. ) ;
#116 = SURFACE_STYLE_USAGE ( .BOTH. , #217 ) ;
#117 = ORIENTED_EDGE ( 'NONE', *, *, #206, .T. ) ;
#118 = EDGE_LOOP ( 'NONE', ( #144, #245, #85, #270 ) ) ;
#119 = CIRCLE ( 'NONE', #183, 0.05899594500000000796 ) ;
#120 = UNCERTAINTY_MEASURE_WITH_UNIT (LENGTH_MEASURE( 1.000000000000000082E-05 ), #182, 'distance_accuracy_value', 'NONE');
#121 = ORIENTED_EDGE ( 'NONE', *, *, #206, .F. ) ;
#122 = DIRECTION ( 'NONE',  ( 1.000000000000000000, 0.0000000000000000000, 0.0000000000000000000 ) ) ;
#123 = SURFACE_STYLE_FILL_AREA ( #192 ) ;
#124 = CARTESIAN_POINT ( 'NONE',  ( 7.224919520692329689E-18, 0.0000000000000000000, 0.05899594499999999409 ) ) ;
#125 = CIRCLE ( 'NONE', #190, 0.05899594500000000796 ) ;
#126 = DIRECTION ( 'NONE',  ( -1.000000000000000000, 0.0000000000000000000, 1.447052840699614406E-16 ) ) ;
#127 = DIRECTION ( 'NONE',  ( 0.0000000000000000000, 0.0000000000000000000, 1.000000000000000000 ) ) ;
#128 = DIRECTION ( 'NONE',  ( 1.224646799147353207E-16, 0.0000000000000000000, 1.000000000000000000 ) ) ;
#129 = DIMENSIONAL_EXPONENTS ( 1.000000000000000000, 0.0000000000000000000, 0.0000000000000000000, 0.0000000000000000000, 0.0000000000000000000, 0.0000000000000000000, 0.0000000000000000000 ) ;
#130 = ORIENTED_EDGE ( 'NONE', *, *, #37, .T. ) ;
#131 = LINE ( 'NONE', #283, #79 ) ;
#132 = CONICAL_SURFACE ( 'NONE', #26, 0.06374000000000018540, 0.7853981633974522758 ) ;
#133 =( GEOMETRIC_REPRESENTATION_CONTEXT ( 3 ) GLOBAL_UNCERTAINTY_ASSIGNED_CONTEXT ( ( #318 ) ) GLOBAL_UNIT_ASSIGNED_CONTEXT ( ( #321, #242, #221 ) ) REPRESENTATION_CONTEXT ( 'NONE', 'WORKASPACE' ) );
#134 = VECTOR ( 'NONE', #319, 39.37007874015748143 ) ;
#135 = EDGE_LOOP ( 'NONE', ( #311, #288, #285 ) ) ;
#136 = PRODUCT_DEFINITION_FORMATION_WITH_SPECIFIED_SOURCE ( 'ANY', '', #87, .NOT_KNOWN. ) ;
#137 = ORIENTED_EDGE ( 'NONE', *, *, #175, .T. ) ;
#138 = CARTESIAN_POINT ( 'NONE',  ( 0.0000000000000000000, 0.0000000000000000000, 1.968503999999999809 ) ) ;
#139 = EDGE_CURVE ( 'NONE', #113, #256, #230, .T. ) ;
#140 = VERTEX_POINT ( 'NONE', #226 ) ;
#141 = ADVANCED_FACE ( 'NONE', ( #176 ), #199, .T. ) ;
#142 = ORIENTED_EDGE ( 'NONE', *, *, #168, .F. ) ;
#143 = CONICAL_SURFACE ( 'NONE', #84, 0.05899594500000000796, 0.1745329251994338637 ) ;
#144 = ORIENTED_EDGE ( 'NONE', *, *, #178, .T. ) ;
#145 = PLANE ( 'NONE',  #284 ) ;
#146 = DIRECTION ( 'NONE',  ( 0.0000000000000000000, 0.0000000000000000000, -1.000000000000000000 ) ) ;
#147 = FACE_OUTER_BOUND ( 'NONE', #158, .T. ) ;
#148 = VECTOR ( 'NONE', #275, 39.37007874015747433 ) ;
#149 = ADVANCED_FACE ( 'NONE', ( #276 ), #151, .T. ) ;
#150 = DIRECTION ( 'NONE',  ( -1.000000000000000000, 1.224646799147353454E-16, 0.0000000000000000000 ) ) ;
#151 = SPHERICAL_SURFACE ( 'NONE', #244, 0.05899594499999999409 ) ;
#152 = ADVANCED_FACE ( 'NONE', ( #227 ), #132, .T. ) ;
#153 = CARTESIAN_POINT ( 'NONE',  ( 7.224919520692329689E-18, 0.0000000000000000000, 0.05899594499999999409 ) ) ;
#154 = UNCERTAINTY_MEASURE_WITH_UNIT (LENGTH_MEASURE( 1.000000000000000082E-05 ), #293, 'distance_accuracy_value', 'NONE');
#155 = FILL_AREA_STYLE ('',( #281 ) ) ;
#156 = EDGE_LOOP ( 'NONE', ( #170, #295, #110, #142 ) ) ;
#157 =( NAMED_UNIT ( * ) PLANE_ANGLE_UNIT ( ) SI_UNIT ( $, .RADIAN. ) );
#158 = EDGE_LOOP ( 'NONE', ( #246, #204, #86, #117 ) ) ;
#159 = AXIS2_PLACEMENT_3D ( 'NONE', #70, #274, #302 ) ;
#160 = ORIENTED_EDGE ( 'NONE', *, *, #175, .F. ) ;
#161 = ORIENTED_EDGE ( 'NONE', *, *, #44, .F. ) ;
#162 = EDGE_CURVE ( 'NONE', #29, #306, #38, .T. ) ;
#163 = VERTEX_POINT ( 'NONE', #252 ) ;
#164 = SURFACE_STYLE_FILL_AREA ( #155 ) ;
#165 = VECTOR ( 'NONE', #290, 39.37007874015748854 ) ;
#166 = CARTESIAN_POINT ( 'NONE',  ( -0.07874000000000000443, 0.0000000000000000000, 1.953504000000000129 ) ) ;
#167 = LENGTH_MEASURE_WITH_UNIT ( LENGTH_MEASURE( 0.02539999999999999897 ), #100 );
#168 = EDGE_CURVE ( 'NONE', #306, #256, #229, .T. ) ;
#169 = EDGE_LOOP ( 'NONE', ( #308, #137 ) ) ;
#170 = ORIENTED_EDGE ( 'NONE', *, *, #268, .T. ) ;
#171 = AXIS2_PLACEMENT_3D ( 'NONE', #101, #180, #273 ) ;
#172 = DIRECTION ( 'NONE',  ( -0.0000000000000000000, -0.0000000000000000000, -1.000000000000000000 ) ) ;
#173 = CARTESIAN_POINT ( 'NONE',  ( 5.710590483456409964E-17, 0.0000000000000000000, 0.4663051001670314721 ) ) ;
#174 = CARTESIAN_POINT ( 'NONE',  ( 0.0000000000000000000, 0.0000000000000000000, 1.968503999999999809 ) ) ;
#175 = EDGE_CURVE ( 'NONE', #83, #267, #104, .T. ) ;
#176 = FACE_OUTER_BOUND ( 'NONE', #156, .T. ) ;
#177 = CONICAL_SURFACE ( 'NONE', #219, 0.06374000000000018540, 0.7853981633974522758 ) ;
#178 = EDGE_CURVE ( 'NONE', #8, #140, #286, .T. ) ;
#179 = CARTESIAN_POINT ( 'NONE',  ( -0.05899594500000000796, 0.0000000000000000000, 7.224919520692329689E-18 ) ) ;
#180 = DIRECTION ( 'NONE',  ( -1.224646799147353207E-16, -0.0000000000000000000, -1.000000000000000000 ) ) ;
#181 = ADVANCED_BREP_SHAPE_REPRESENTATION ( 'Micro_BMRM-030-2', ( #263, #59 ), #234 ) ;
#182 =( CONVERSION_BASED_UNIT ( 'INCH', #76 ) LENGTH_UNIT ( ) NAMED_UNIT ( #278 ) );
#183 = AXIS2_PLACEMENT_3D ( 'NONE', #289, #215, #52 ) ;
#184 = DIRECTION ( 'NONE',  ( 0.0000000000000000000, 0.0000000000000000000, -1.000000000000000000 ) ) ;
#185 = DIRECTION ( 'NONE',  ( 0.0000000000000000000, 0.0000000000000000000, -1.000000000000000000 ) ) ;
#186 = ORIENTED_EDGE ( 'NONE', *, *, #248, .T. ) ;
#187 = VERTEX_POINT ( 'NONE', #48 ) ;
#188 = ADVANCED_FACE ( 'NONE', ( #251 ), #143, .T. ) ;
#189 = DIRECTION ( 'NONE',  ( 1.000000000000000000, 0.0000000000000000000, 0.0000000000000000000 ) ) ;
#190 = AXIS2_PLACEMENT_3D ( 'NONE', #300, #1, #126 ) ;
#191 = STYLED_ITEM ( 'NONE', ( #324 ), #181 ) ;
#192 = FILL_AREA_STYLE ('',( #68 ) ) ;
#193 = CARTESIAN_POINT ( 'NONE',  ( 0.0000000000000000000, 0.0000000000000000000, 1.968503999999999809 ) ) ;
#194 = DIRECTION ( 'NONE',  ( 0.0000000000000000000, 0.0000000000000000000, 1.000000000000000000 ) ) ;
#195 = ADVANCED_FACE ( 'NONE', ( #147 ), #212, .T. ) ;
#196 = DIRECTION ( 'NONE',  ( -1.224646799147353207E-16, -0.0000000000000000000, -1.000000000000000000 ) ) ;
#197 = DIRECTION ( 'NONE',  ( -1.224646799147353207E-16, -0.0000000000000000000, -1.000000000000000000 ) ) ;
#198 = CARTESIAN_POINT ( 'NONE',  ( 0.0000000000000000000, 0.0000000000000000000, 0.0000000000000000000 ) ) ;
#199 = CYLINDRICAL_SURFACE ( 'NONE', #43, 0.05899594500000000796 ) ;
#200 = EDGE_CURVE ( 'NONE', #187, #280, #67, .T. ) ;
#201 = DIRECTION ( 'NONE',  ( 0.0000000000000000000, 0.0000000000000000000, -1.000000000000000000 ) ) ;
#202 = AXIS2_PLACEMENT_3D ( 'NONE', #224, #320, #98 ) ;
#203 = DIRECTION ( 'NONE',  ( 1.224646799147353207E-16, 1.000000000000000000, -0.0000000000000000000 ) ) ;
#204 = ORIENTED_EDGE ( 'NONE', *, *, #162, .F. ) ;
#205 = DIRECTION ( 'NONE',  ( -1.000000000000000000, 0.0000000000000000000, 0.0000000000000000000 ) ) ;
#206 = EDGE_CURVE ( 'NONE', #280, #187, #298, .T. ) ;
#207 = ORIENTED_EDGE ( 'NONE', *, *, #268, .F. ) ;
#208 = CIRCLE ( 'NONE', #99, 0.05899594499999999409 ) ;
#209 =( LENGTH_UNIT ( ) NAMED_UNIT ( * ) SI_UNIT ( $, .METRE. ) );
#210 = EDGE_CURVE ( 'NONE', #113, #163, #208, .T. ) ;
#211 = EDGE_LOOP ( 'NONE', ( #39, #54, #317 ) ) ;
#212 = CONICAL_SURFACE ( 'NONE', #237, 0.05899594500000000796, 0.1745329251994338637 ) ;
#213 = COLOUR_RGB ( '',0.7921568627450980005, 0.8196078431372548767, 0.9333333333333333481 ) ;
#214 = CARTESIAN_POINT ( 'NONE',  ( 0.06374000000000018540, 7.805898697765251255E-18, 1.968503999999999809 ) ) ;
#215 = DIRECTION ( 'NONE',  ( -1.224646799147353207E-16, -0.0000000000000000000, -1.000000000000000000 ) ) ;
#216 = LINE ( 'NONE', #16, #148 ) ;
#217 = SURFACE_SIDE_STYLE ('',( #164 ) ) ;
#218 = DIRECTION ( 'NONE',  ( -1.000000000000000000, 0.0000000000000000000, 0.0000000000000000000 ) ) ;
#219 = AXIS2_PLACEMENT_3D ( 'NONE', #233, #184, #25 ) ;
#220 = ORIENTED_EDGE ( 'NONE', *, *, #23, .F. ) ;
#221 =( NAMED_UNIT ( * ) SI_UNIT ( $, .STERADIAN. ) SOLID_ANGLE_UNIT ( ) );
#222 = EDGE_LOOP ( 'NONE', ( #207, #51, #61, #220 ) ) ;
#223 =( NAMED_UNIT ( * ) PLANE_ANGLE_UNIT ( ) SI_UNIT ( $, .RADIAN. ) );
#224 = CARTESIAN_POINT ( 'NONE',  ( 5.710590483456409964E-17, 0.0000000000000000000, 0.4663051001670314721 ) ) ;
#225 = SURFACE_STYLE_USAGE ( .BOTH. , #271 ) ;
#226 = CARTESIAN_POINT ( 'NONE',  ( 0.07874000000000000443, 9.642868896486258509E-18, 1.953504000000000129 ) ) ;
#227 = FACE_OUTER_BOUND ( 'NONE', #90, .T. ) ;
#228 = DIRECTION ( 'NONE',  ( 1.000000000000000000, 0.0000000000000000000, 0.0000000000000000000 ) ) ;
#229 = LINE ( 'NONE', #179, #20 ) ;
#230 = CIRCLE ( 'NONE', #111, 0.05899594499999999409 ) ;
#231 = VECTOR ( 'NONE', #21, 39.37007874015748854 ) ;
#232 =( NAMED_UNIT ( * ) SI_UNIT ( $, .STERADIAN. ) SOLID_ANGLE_UNIT ( ) );
#233 = CARTESIAN_POINT ( 'NONE',  ( 0.0000000000000000000, 0.0000000000000000000, 1.968503999999999809 ) ) ;
#234 =( GEOMETRIC_REPRESENTATION_CONTEXT ( 3 ) GLOBAL_UNCERTAINTY_ASSIGNED_CONTEXT ( ( #120 ) ) GLOBAL_UNIT_ASSIGNED_CONTEXT ( ( #182, #223, #93 ) ) REPRESENTATION_CONTEXT ( 'NONE', 'WORKASPACE' ) );
#235 = PRODUCT_DEFINITION ( 'UNKNOWN', '', #136, #73 ) ;
#236 = VECTOR ( 'NONE', #172, 39.37007874015748143 ) ;
#237 = AXIS2_PLACEMENT_3D ( 'NONE', #19, #128, #122 ) ;
#238 = CARTESIAN_POINT ( 'NONE',  ( -0.05899594499999999409, 0.0000000000000000000, 0.05899594500000000796 ) ) ;
#239 = DIRECTION ( 'NONE',  ( -0.0000000000000000000, -0.0000000000000000000, -1.000000000000000000 ) ) ;
#240 = DIRECTION ( 'NONE',  ( -0.0000000000000000000, -0.0000000000000000000, -1.000000000000000000 ) ) ;
#241 = CARTESIAN_POINT ( 'NONE',  ( 0.05899594500000004960, 0.0000000000000000000, 0.3543310000000000071 ) ) ;
#242 =( NAMED_UNIT ( * ) PLANE_ANGLE_UNIT ( ) SI_UNIT ( $, .RADIAN. ) );
#243 = ORIENTED_EDGE ( 'NONE', *, *, #265, .F. ) ;
#244 = AXIS2_PLACEMENT_3D ( 'NONE', #153, #17, #69 ) ;
#245 = ORIENTED_EDGE ( 'NONE', *, *, #292, .T. ) ;
#246 = ORIENTED_EDGE ( 'NONE', *, *, #81, .F. ) ;
#247 = DIRECTION ( 'NONE',  ( 1.000000000000000000, 0.0000000000000000000, 0.0000000000000000000 ) ) ;
#248 = EDGE_CURVE ( 'NONE', #256, #163, #315, .T. ) ;
#249 = PRESENTATION_LAYER_ASSIGNMENT (  '', '', ( #72 ) ) ;
#250 = DIRECTION ( 'NONE',  ( -1.000000000000000000, 0.0000000000000000000, 1.224646799147352961E-16 ) ) ;
#251 = FACE_OUTER_BOUND ( 'NONE', #222, .T. ) ;
#252 = CARTESIAN_POINT ( 'NONE',  ( 0.05899594500000001490, 7.224919520692329689E-18, 0.05899594499999998715 ) ) ;
#253 = LINE ( 'NONE', #6, #231 ) ;
#254 = ADVANCED_FACE ( 'NONE', ( #107 ), #177, .T. ) ;
#255 = PRESENTATION_STYLE_ASSIGNMENT (( #116 ) ) ;
#256 = VERTEX_POINT ( 'NONE', #238 ) ;
#257 = CARTESIAN_POINT ( 'NONE',  ( 0.0000000000000000000, 0.0000000000000000000, 1.953504000000000129 ) ) ;
#258 = PRODUCT_RELATED_PRODUCT_CATEGORY ( 'part', '', ( #87 ) ) ;
#259 = CARTESIAN_POINT ( 'NONE',  ( 7.224919520692329689E-18, 0.0000000000000000000, 0.05899594499999999409 ) ) ;
#260 = ORIENTED_EDGE ( 'NONE', *, *, #314, .F. ) ;
#261 = MECHANICAL_DESIGN_GEOMETRIC_PRESENTATION_REPRESENTATION (  '', ( #72 ), #12 ) ;
#262 = PRESENTATION_LAYER_ASSIGNMENT (  '', '', ( #191 ) ) ;
#263 = MANIFOLD_SOLID_BREP ( 'Fillet1', #108 ) ;
#264 = LINE ( 'NONE', #66, #236 ) ;
#265 = EDGE_CURVE ( 'NONE', #140, #8, #91, .T. ) ;
#266 = FACE_OUTER_BOUND ( 'NONE', #118, .T. ) ;
#267 = VERTEX_POINT ( 'NONE', #109 ) ;
#268 = EDGE_CURVE ( 'NONE', #306, #29, #119, .T. ) ;
#269 = ORIENTED_EDGE ( 'NONE', *, *, #178, .F. ) ;
#270 = ORIENTED_EDGE ( 'NONE', *, *, #37, .F. ) ;
#271 = SURFACE_SIDE_STYLE ('',( #123 ) ) ;
#272 = LINE ( 'NONE', #214, #165 ) ;
#273 = DIRECTION ( 'NONE',  ( -1.000000000000000000, 0.0000000000000000000, 0.0000000000000000000 ) ) ;
#274 = DIRECTION ( 'NONE',  ( 0.0000000000000000000, 0.0000000000000000000, 1.000000000000000000 ) ) ;
#275 = DIRECTION ( 'NONE',  ( -0.1736481776669311639, 2.126576849575783008E-17, 0.9848077530122080203 ) ) ;
#276 = FACE_OUTER_BOUND ( 'NONE', #135, .T. ) ;
#277 = DIRECTION ( 'NONE',  ( 1.000000000000000000, 0.0000000000000000000, 0.0000000000000000000 ) ) ;
#278 = DIMENSIONAL_EXPONENTS ( 1.000000000000000000, 0.0000000000000000000, 0.0000000000000000000, 0.0000000000000000000, 0.0000000000000000000, 0.0000000000000000000, 0.0000000000000000000 ) ;
#279 = CIRCLE ( 'NONE', #2, 0.06374000000000018540 ) ;
#280 = VERTEX_POINT ( 'NONE', #312 ) ;
#281 = FILL_AREA_STYLE_COLOUR ( '', #78 ) ;
#282 = ADVANCED_FACE ( 'NONE', ( #266 ), #33, .T. ) ;
#283 = CARTESIAN_POINT ( 'NONE',  ( 0.05899594500000000796, 7.224919520692329689E-18, -7.224919520692329689E-18 ) ) ;
#284 = AXIS2_PLACEMENT_3D ( 'NONE', #193, #194, #96 ) ;
#285 = ORIENTED_EDGE ( 'NONE', *, *, #106, .F. ) ;
#286 = CIRCLE ( 'NONE', #31, 0.07874000000000000443 ) ;
#287 = ORIENTED_EDGE ( 'NONE', *, *, #292, .F. ) ;
#288 = ORIENTED_EDGE ( 'NONE', *, *, #139, .T. ) ;
#289 = CARTESIAN_POINT ( 'NONE',  ( 4.339303249886808058E-17, 0.0000000000000000000, 0.3543310000000000071 ) ) ;
#290 = DIRECTION ( 'NONE',  ( 0.7071067811865502373, 8.659560562354966138E-17, -0.7071067811865446862 ) ) ;
#291 = AXIS2_PLACEMENT_3D ( 'NONE', #173, #41, #247 ) ;
#292 = EDGE_CURVE ( 'NONE', #140, #280, #9, .T. ) ;
#293 =( CONVERSION_BASED_UNIT ( 'INCH', #24 ) LENGTH_UNIT ( ) NAMED_UNIT ( #129 ) );
#294 = ORIENTED_EDGE ( 'NONE', *, *, #309, .F. ) ;
#295 = ORIENTED_EDGE ( 'NONE', *, *, #309, .T. ) ;
#296 = CARTESIAN_POINT ( 'NONE',  ( 0.05899594500000004960, 0.0000000000000000000, 0.3543310000000000071 ) ) ;
#297 = APPLICATION_PROTOCOL_DEFINITION ( 'draft international standard', 'automotive_design', 1998, #62 ) ;
#298 = CIRCLE ( 'NONE', #291, 0.07874000000000000443 ) ;
#299 = MECHANICAL_DESIGN_GEOMETRIC_PRESENTATION_REPRESENTATION (  '', ( #191 ), #133 ) ;
#300 = CARTESIAN_POINT ( 'NONE',  ( 7.224919520692329689E-18, 0.0000000000000000000, 0.05899594499999999409 ) ) ;
#301 = SHAPE_DEFINITION_REPRESENTATION ( #32, #181 ) ;
#302 = DIRECTION ( 'NONE',  ( 1.000000000000000000, 0.0000000000000000000, 0.0000000000000000000 ) ) ;
#303 = CARTESIAN_POINT ( 'NONE',  ( 4.339303249886808058E-17, 0.0000000000000000000, 0.3543310000000000071 ) ) ;
#304 = CARTESIAN_POINT ( 'NONE',  ( 0.06374000000000018540, 8.724383797125754882E-18, 1.968503999999999809 ) ) ;
#305 =( LENGTH_UNIT ( ) NAMED_UNIT ( * ) SI_UNIT ( $, .METRE. ) );
#306 = VERTEX_POINT ( 'NONE', #89 ) ;
#307 = CARTESIAN_POINT ( 'NONE',  ( 0.07874000000000000443, 9.642868896486258509E-18, 1.968503999999999809 ) ) ;
#308 = ORIENTED_EDGE ( 'NONE', *, *, #92, .T. ) ;
#309 = EDGE_CURVE ( 'NONE', #29, #163, #131, .T. ) ;
#310 = CYLINDRICAL_SURFACE ( 'NONE', #49, 0.07874000000000000443 ) ;
#311 = ORIENTED_EDGE ( 'NONE', *, *, #210, .F. ) ;
#312 = CARTESIAN_POINT ( 'NONE',  ( 0.07874000000000004607, 9.642868896486264672E-18, 0.4663051001670314721 ) ) ;
#313 = EDGE_LOOP ( 'NONE', ( #161, #35, #11, #243 ) ) ;
#314 = EDGE_CURVE ( 'NONE', #267, #8, #253, .T. ) ;
#315 = CIRCLE ( 'NONE', #322, 0.05899594500000000796 ) ;
#316 = AXIS2_PLACEMENT_3D ( 'NONE', #257, #185, #189 ) ;
#317 = ORIENTED_EDGE ( 'NONE', *, *, #248, .F. ) ;
#318 = UNCERTAINTY_MEASURE_WITH_UNIT (LENGTH_MEASURE( 1.000000000000000082E-05 ), #321, 'distance_accuracy_value', 'NONE');
#319 = DIRECTION ( 'NONE',  ( 0.1736481776669313581, 0.0000000000000000000, 0.9848077530122077983 ) ) ;
#320 = DIRECTION ( 'NONE',  ( -1.224646799147353207E-16, -0.0000000000000000000, -1.000000000000000000 ) ) ;
#321 =( CONVERSION_BASED_UNIT ( 'INCH', #167 ) LENGTH_UNIT ( ) NAMED_UNIT ( #77 ) );
#322 = AXIS2_PLACEMENT_3D ( 'NONE', #259, #5, #114 ) ;
#323 = DIRECTION ( 'NONE',  ( -1.000000000000000000, 0.0000000000000000000, 1.224646799147352961E-16 ) ) ;
#324 = PRESENTATION_STYLE_ASSIGNMENT (( #225 ) ) ;
#325 = CARTESIAN_POINT ( 'NONE',  ( 0.0000000000000000000, 0.0000000000000000000, 1.968503999999999809 ) ) ;
ENDSEC;
END-ISO-10303-21;
