ISO-10303-21;
HEADER;
FILE_DESCRIPTION (( 'STEP AP214' ),
    '1' );
FILE_NAME ('Micro_RSCM-040-2X.STEP',
    '2021-09-03T17:57:06',
    ( '' ),
    ( '' ),
    'SwSTEP 2.0',
    'SolidWorks 2020',
    '' );
FILE_SCHEMA (( 'AUTOMOTIVE_DESIGN' ));
ENDSEC;

DATA;
#1 = CARTESIAN_POINT ( 'NONE',  ( 0.0000000000000000000, 0.0000000000000000000, 0.0000000000000000000 ) ) ;
#2 = ORIENTED_EDGE ( 'NONE', *, *, #9, .T. ) ;
#3 = CARTESIAN_POINT ( 'NONE',  ( 0.0000000000000000000, 0.0000000000000000000, 0.0000000000000000000 ) ) ;
#4 = VERTEX_POINT ( 'NONE', #175 ) ;
#5 = CARTESIAN_POINT ( 'NONE',  ( -0.003936999999999995191, 4.821434448243123477E-19, 0.0000000000000000000 ) ) ;
#6 = AXIS2_PLACEMENT_3D ( 'NONE', #113, #12, #145 ) ;
#7 = SURFACE_SIDE_STYLE ('',( #219 ) ) ;
#8 = LINE ( 'NONE', #218, #109 ) ;
#9 = EDGE_CURVE ( 'NONE', #26, #4, #230, .T. ) ;
#10 = VECTOR ( 'NONE', #107, 39.37007874015748854 ) ;
#11 = CARTESIAN_POINT ( 'NONE',  ( -0.07874000000000000443, 0.0000000000000000000, 1.968503999999999809 ) ) ;
#12 = DIRECTION ( 'NONE',  ( -0.0000000000000000000, -0.0000000000000000000, -1.000000000000000000 ) ) ;
#13 = DIRECTION ( 'NONE',  ( -0.0000000000000000000, -0.0000000000000000000, -1.000000000000000000 ) ) ;
#14 = EDGE_CURVE ( 'NONE', #38, #211, #147, .T. ) ;
#15 =( NAMED_UNIT ( * ) SI_UNIT ( $, .STERADIAN. ) SOLID_ANGLE_UNIT ( ) );
#16 = CIRCLE ( 'NONE', #138, 0.003936999999999995191 ) ;
#17 = DIRECTION ( 'NONE',  ( -1.000000000000000000, 0.0000000000000000000, 0.0000000000000000000 ) ) ;
#18 = COLOUR_RGB ( '',0.7921568627450980005, 0.8196078431372548767, 0.9333333333333333481 ) ;
#19 = ORIENTED_EDGE ( 'NONE', *, *, #232, .F. ) ;
#20 = CARTESIAN_POINT ( 'NONE',  ( 0.07874000000000000443, 9.642868896486258509E-18, 1.838941403441425759 ) ) ;
#21 = DIMENSIONAL_EXPONENTS ( 1.000000000000000000, 0.0000000000000000000, 0.0000000000000000000, 0.0000000000000000000, 0.0000000000000000000, 0.0000000000000000000, 0.0000000000000000000 ) ;
#22 = ORIENTED_EDGE ( 'NONE', *, *, #14, .F. ) ;
#23 = ORIENTED_EDGE ( 'NONE', *, *, #60, .T. ) ;
#24 = VECTOR ( 'NONE', #65, 39.37007874015748143 ) ;
#25 =( GEOMETRIC_REPRESENTATION_CONTEXT ( 3 ) GLOBAL_UNCERTAINTY_ASSIGNED_CONTEXT ( ( #127 ) ) GLOBAL_UNIT_ASSIGNED_CONTEXT ( ( #79, #27, #48 ) ) REPRESENTATION_CONTEXT ( 'NONE', 'WORKASPACE' ) );
#26 = VERTEX_POINT ( 'NONE', #200 ) ;
#27 =( NAMED_UNIT ( * ) PLANE_ANGLE_UNIT ( ) SI_UNIT ( $, .RADIAN. ) );
#28 = EDGE_CURVE ( 'NONE', #154, #211, #112, .T. ) ;
#29 = CIRCLE ( 'NONE', #186, 0.07874000000000000443 ) ;
#30 = EDGE_CURVE ( 'NONE', #4, #26, #114, .T. ) ;
#31 = DIRECTION ( 'NONE',  ( 1.000000000000000000, 0.0000000000000000000, -0.0000000000000000000 ) ) ;
#32 = CYLINDRICAL_SURFACE ( 'NONE', #6, 0.07874000000000000443 ) ;
#33 = DIRECTION ( 'NONE',  ( -0.0000000000000000000, -0.0000000000000000000, -1.000000000000000000 ) ) ;
#34 = DIRECTION ( 'NONE',  ( 0.0000000000000000000, 0.0000000000000000000, 1.000000000000000000 ) ) ;
#35 = ORIENTED_EDGE ( 'NONE', *, *, #117, .F. ) ;
#36 =( CONVERSION_BASED_UNIT ( 'INCH', #210 ) LENGTH_UNIT ( ) NAMED_UNIT ( #21 ) );
#37 = EDGE_CURVE ( 'NONE', #211, #38, #225, .T. ) ;
#38 = VERTEX_POINT ( 'NONE', #110 ) ;
#39 = CARTESIAN_POINT ( 'NONE',  ( 0.0000000000000000000, 0.0000000000000000000, 1.968503999999999809 ) ) ;
#40 = CONICAL_SURFACE ( 'NONE', #61, 0.003936999999999995191, 0.5235987755983005920 ) ;
#41 = CARTESIAN_POINT ( 'NONE',  ( 0.0000000000000000000, 0.0000000000000000000, 0.0000000000000000000 ) ) ;
#42 = ORIENTED_EDGE ( 'NONE', *, *, #178, .T. ) ;
#43 = ORIENTED_EDGE ( 'NONE', *, *, #90, .F. ) ;
#44 = APPLICATION_PROTOCOL_DEFINITION ( 'draft international standard', 'automotive_design', 1998, #140 ) ;
#45 = EDGE_LOOP ( 'NONE', ( #80, #2 ) ) ;
#46 = ADVANCED_FACE ( 'NONE', ( #183 ), #146, .F. ) ;
#47 = PRESENTATION_LAYER_ASSIGNMENT (  '', '', ( #83 ) ) ;
#48 =( NAMED_UNIT ( * ) SI_UNIT ( $, .STERADIAN. ) SOLID_ANGLE_UNIT ( ) );
#49 = UNCERTAINTY_MEASURE_WITH_UNIT (LENGTH_MEASURE( 1.000000000000000082E-05 ), #241, 'distance_accuracy_value', 'NONE');
#50 = AXIS2_PLACEMENT_3D ( 'NONE', #3, #159, #214 ) ;
#51 = CARTESIAN_POINT ( 'NONE',  ( 0.0000000000000000000, 0.0000000000000000000, 1.968503999999999809 ) ) ;
#52 = CARTESIAN_POINT ( 'NONE',  ( -0.003936999999999995191, -4.821434448243123477E-19, 1.968503999999999809 ) ) ;
#53 = FACE_OUTER_BOUND ( 'NONE', #156, .T. ) ;
#54 = DIRECTION ( 'NONE',  ( -1.000000000000000000, 0.0000000000000000000, 0.0000000000000000000 ) ) ;
#55 = ADVANCED_FACE ( 'NONE', ( #89 ), #32, .T. ) ;
#56 = CYLINDRICAL_SURFACE ( 'NONE', #245, 0.07874000000000000443 ) ;
#57 =( NAMED_UNIT ( * ) PLANE_ANGLE_UNIT ( ) SI_UNIT ( $, .RADIAN. ) );
#58 = PRODUCT_DEFINITION_SHAPE ( 'NONE', 'NONE',  #182 ) ;
#59 = APPLICATION_PROTOCOL_DEFINITION ( 'draft international standard', 'automotive_design', 1998, #207 ) ;
#60 = EDGE_CURVE ( 'NONE', #103, #174, #8, .T. ) ;
#61 = AXIS2_PLACEMENT_3D ( 'NONE', #189, #69, #204 ) ;
#62 =( GEOMETRIC_REPRESENTATION_CONTEXT ( 3 ) GLOBAL_UNCERTAINTY_ASSIGNED_CONTEXT ( ( #194 ) ) GLOBAL_UNIT_ASSIGNED_CONTEXT ( ( #36, #57, #15 ) ) REPRESENTATION_CONTEXT ( 'NONE', 'WORKASPACE' ) );
#63 = CONICAL_SURFACE ( 'NONE', #141, 0.003936999999999995191, 0.5235987755983005920 ) ;
#64 =( LENGTH_UNIT ( ) NAMED_UNIT ( * ) SI_UNIT ( $, .METRE. ) );
#65 = DIRECTION ( 'NONE',  ( -0.0000000000000000000, -0.0000000000000000000, -1.000000000000000000 ) ) ;
#66 = CARTESIAN_POINT ( 'NONE',  ( 0.0000000000000000000, 0.0000000000000000000, 0.0000000000000000000 ) ) ;
#67 = VECTOR ( 'NONE', #85, 39.37007874015748143 ) ;
#68 = FILL_AREA_STYLE_COLOUR ( '', #167 ) ;
#69 = DIRECTION ( 'NONE',  ( 0.0000000000000000000, 0.0000000000000000000, -1.000000000000000000 ) ) ;
#70 = ADVANCED_FACE ( 'NONE', ( #143 ), #185, .T. ) ;
#71 = DIRECTION ( 'NONE',  ( 0.0000000000000000000, 0.0000000000000000000, -1.000000000000000000 ) ) ;
#72 = CARTESIAN_POINT ( 'NONE',  ( 0.0000000000000000000, 0.0000000000000000000, 1.968503999999999809 ) ) ;
#73 = DIRECTION ( 'NONE',  ( 0.0000000000000000000, 0.0000000000000000000, -1.000000000000000000 ) ) ;
#74 = EDGE_LOOP ( 'NONE', ( #43, #188, #169, #98 ) ) ;
#75 = ORIENTED_EDGE ( 'NONE', *, *, #226, .F. ) ;
#76 = CARTESIAN_POINT ( 'NONE',  ( 0.0000000000000000000, 0.0000000000000000000, 1.968503999999999809 ) ) ;
#77 = ORIENTED_EDGE ( 'NONE', *, *, #90, .T. ) ;
#78 = PRODUCT_CONTEXT ( 'NONE', #207, 'mechanical' ) ;
#79 =( CONVERSION_BASED_UNIT ( 'INCH', #142 ) LENGTH_UNIT ( ) NAMED_UNIT ( #81 ) );
#80 = ORIENTED_EDGE ( 'NONE', *, *, #30, .T. ) ;
#81 = DIMENSIONAL_EXPONENTS ( 1.000000000000000000, 0.0000000000000000000, 0.0000000000000000000, 0.0000000000000000000, 0.0000000000000000000, 0.0000000000000000000, 0.0000000000000000000 ) ;
#82 = AXIS2_PLACEMENT_3D ( 'NONE', #202, #33, #179 ) ;
#83 = STYLED_ITEM ( 'NONE', ( #203 ), #136 ) ;
#84 = AXIS2_PLACEMENT_3D ( 'NONE', #193, #125, #240 ) ;
#85 = DIRECTION ( 'NONE',  ( -0.0000000000000000000, -0.0000000000000000000, -1.000000000000000000 ) ) ;
#86 = DIRECTION ( 'NONE',  ( 1.000000000000000000, 0.0000000000000000000, -0.0000000000000000000 ) ) ;
#87 =( NAMED_UNIT ( * ) SI_UNIT ( $, .STERADIAN. ) SOLID_ANGLE_UNIT ( ) );
#88 = VECTOR ( 'NONE', #131, 39.37007874015748854 ) ;
#89 = FACE_OUTER_BOUND ( 'NONE', #192, .T. ) ;
#90 = EDGE_CURVE ( 'NONE', #26, #211, #221, .T. ) ;
#91 = MANIFOLD_SOLID_BREP ( 'Mirror1', #171 ) ;
#92 = ORIENTED_EDGE ( 'NONE', *, *, #123, .T. ) ;
#93 = AXIS2_PLACEMENT_3D ( 'NONE', #66, #199, #126 ) ;
#94 = DIMENSIONAL_EXPONENTS ( 1.000000000000000000, 0.0000000000000000000, 0.0000000000000000000, 0.0000000000000000000, 0.0000000000000000000, 0.0000000000000000000, 0.0000000000000000000 ) ;
#95 = CARTESIAN_POINT ( 'NONE',  ( 0.0000000000000000000, 0.0000000000000000000, 1.968503999999999809 ) ) ;
#96 = ORIENTED_EDGE ( 'NONE', *, *, #123, .F. ) ;
#97 = DIRECTION ( 'NONE',  ( 1.000000000000000000, 0.0000000000000000000, 0.0000000000000000000 ) ) ;
#98 = ORIENTED_EDGE ( 'NONE', *, *, #14, .T. ) ;
#99 = DIRECTION ( 'NONE',  ( 0.0000000000000000000, 0.0000000000000000000, -1.000000000000000000 ) ) ;
#100 = ORIENTED_EDGE ( 'NONE', *, *, #128, .T. ) ;
#101 = CIRCLE ( 'NONE', #233, 0.07874000000000000443 ) ;
#102 = ORIENTED_EDGE ( 'NONE', *, *, #37, .F. ) ;
#103 = VERTEX_POINT ( 'NONE', #222 ) ;
#104 = PRODUCT_DEFINITION_CONTEXT ( 'detailed design', #140, 'design' ) ;
#105 = PRODUCT_RELATED_PRODUCT_CATEGORY ( 'part', '', ( #208 ) ) ;
#106 = SURFACE_STYLE_USAGE ( .BOTH. , #7 ) ;
#107 = DIRECTION ( 'NONE',  ( -0.5000000000000013323, -6.123233995736782060E-17, -0.8660254037844377084 ) ) ;
#108 =( GEOMETRIC_REPRESENTATION_CONTEXT ( 3 ) GLOBAL_UNCERTAINTY_ASSIGNED_CONTEXT ( ( #49 ) ) GLOBAL_UNIT_ASSIGNED_CONTEXT ( ( #241, #184, #87 ) ) REPRESENTATION_CONTEXT ( 'NONE', 'WORKASPACE' ) );
#109 = VECTOR ( 'NONE', #149, 39.37007874015748854 ) ;
#110 = CARTESIAN_POINT ( 'NONE',  ( 0.07874000000000000443, 9.642868896486258509E-18, 0.1295625965585742445 ) ) ;
#111 = FILL_AREA_STYLE ('',( #68 ) ) ;
#112 = LINE ( 'NONE', #11, #24 ) ;
#113 = CARTESIAN_POINT ( 'NONE',  ( 0.0000000000000000000, 0.0000000000000000000, 1.968503999999999809 ) ) ;
#114 = CIRCLE ( 'NONE', #93, 0.003936999999999995191 ) ;
#115 = CARTESIAN_POINT ( 'NONE',  ( -0.07874000000000000443, 0.0000000000000000000, 1.838941403441425759 ) ) ;
#116 = EDGE_LOOP ( 'NONE', ( #176, #92, #19, #120 ) ) ;
#117 = EDGE_CURVE ( 'NONE', #4, #38, #144, .T. ) ;
#118 = EDGE_LOOP ( 'NONE', ( #96, #209, #23, #244 ) ) ;
#119 = VERTEX_POINT ( 'NONE', #163 ) ;
#120 = ORIENTED_EDGE ( 'NONE', *, *, #60, .F. ) ;
#121 = SURFACE_SIDE_STYLE ('',( #153 ) ) ;
#122 = ORIENTED_EDGE ( 'NONE', *, *, #28, .T. ) ;
#123 = EDGE_CURVE ( 'NONE', #119, #154, #237, .T. ) ;
#124 = SHAPE_DEFINITION_REPRESENTATION ( #58, #136 ) ;
#125 = DIRECTION ( 'NONE',  ( -0.0000000000000000000, -0.0000000000000000000, -1.000000000000000000 ) ) ;
#126 = DIRECTION ( 'NONE',  ( -1.000000000000000000, 0.0000000000000000000, 0.0000000000000000000 ) ) ;
#127 = UNCERTAINTY_MEASURE_WITH_UNIT (LENGTH_MEASURE( 1.000000000000000082E-05 ), #79, 'distance_accuracy_value', 'NONE');
#128 = EDGE_CURVE ( 'NONE', #174, #38, #197, .T. ) ;
#129 = AXIS2_PLACEMENT_3D ( 'NONE', #51, #161, #31 ) ;
#130 = MECHANICAL_DESIGN_GEOMETRIC_PRESENTATION_REPRESENTATION (  '', ( #83 ), #25 ) ;
#131 = DIRECTION ( 'NONE',  ( 0.5000000000000013323, 0.0000000000000000000, 0.8660254037844377084 ) ) ;
#132 = SURFACE_STYLE_USAGE ( .BOTH. , #121 ) ;
#133 = AXIS2_PLACEMENT_3D ( 'NONE', #72, #155, #17 ) ;
#134 = AXIS2_PLACEMENT_3D ( 'NONE', #228, #34, #135 ) ;
#135 = DIRECTION ( 'NONE',  ( 1.000000000000000000, 0.0000000000000000000, 0.0000000000000000000 ) ) ;
#136 = ADVANCED_BREP_SHAPE_REPRESENTATION ( 'Micro_RSCM-040-2X', ( #91, #212 ), #62 ) ;
#137 = DIRECTION ( 'NONE',  ( 0.0000000000000000000, 0.0000000000000000000, -1.000000000000000000 ) ) ;
#138 = AXIS2_PLACEMENT_3D ( 'NONE', #95, #71, #54 ) ;
#139 = CARTESIAN_POINT ( 'NONE',  ( -0.07874000000000000443, 0.0000000000000000000, 0.1295625965585742445 ) ) ;
#140 = APPLICATION_CONTEXT ( 'automotive_design' ) ;
#141 = AXIS2_PLACEMENT_3D ( 'NONE', #41, #187, #97 ) ;
#142 = LENGTH_MEASURE_WITH_UNIT ( LENGTH_MEASURE( 0.02539999999999999897 ), #158 );
#143 = FACE_OUTER_BOUND ( 'NONE', #165, .T. ) ;
#144 = LINE ( 'NONE', #238, #88 ) ;
#145 = DIRECTION ( 'NONE',  ( -1.000000000000000000, 0.0000000000000000000, 0.0000000000000000000 ) ) ;
#146 = PLANE ( 'NONE',  #198 ) ;
#147 = CIRCLE ( 'NONE', #84, 0.07874000000000000443 ) ;
#148 = ADVANCED_FACE ( 'NONE', ( #53 ), #63, .T. ) ;
#149 = DIRECTION ( 'NONE',  ( 0.5000000000000013323, 0.0000000000000000000, -0.8660254037844377084 ) ) ;
#150 = ORIENTED_EDGE ( 'NONE', *, *, #232, .T. ) ;
#151 = FACE_OUTER_BOUND ( 'NONE', #231, .T. ) ;
#152 = PRESENTATION_LAYER_ASSIGNMENT (  '', '', ( #180 ) ) ;
#153 = SURFACE_STYLE_FILL_AREA ( #242 ) ;
#154 = VERTEX_POINT ( 'NONE', #115 ) ;
#155 = DIRECTION ( 'NONE',  ( 0.0000000000000000000, 0.0000000000000000000, -1.000000000000000000 ) ) ;
#156 = EDGE_LOOP ( 'NONE', ( #205, #77, #229, #35 ) ) ;
#157 = CONICAL_SURFACE ( 'NONE', #177, 0.003936999999999995191, 0.5235987755983005920 ) ;
#158 =( LENGTH_UNIT ( ) NAMED_UNIT ( * ) SI_UNIT ( $, .METRE. ) );
#159 = DIRECTION ( 'NONE',  ( -0.0000000000000000000, -0.0000000000000000000, -1.000000000000000000 ) ) ;
#160 = DIRECTION ( 'NONE',  ( 0.0000000000000000000, 0.0000000000000000000, 1.000000000000000000 ) ) ;
#161 = DIRECTION ( 'NONE',  ( 0.0000000000000000000, 0.0000000000000000000, 1.000000000000000000 ) ) ;
#162 = PRESENTATION_STYLE_ASSIGNMENT (( #106 ) ) ;
#163 = CARTESIAN_POINT ( 'NONE',  ( -0.003936999999999995191, -5.062506170655283406E-18, 1.968503999999999809 ) ) ;
#164 = ADVANCED_FACE ( 'NONE', ( #151 ), #56, .T. ) ;
#165 = EDGE_LOOP ( 'NONE', ( #75, #249 ) ) ;
#166 = FILL_AREA_STYLE_COLOUR ( '', #18 ) ;
#167 = COLOUR_RGB ( '',0.7921568627450980005, 0.8196078431372548767, 0.9333333333333333481 ) ;
#168 = CARTESIAN_POINT ( 'NONE',  ( 0.0000000000000000000, 0.0000000000000000000, 1.838941403441425759 ) ) ;
#169 = ORIENTED_EDGE ( 'NONE', *, *, #117, .T. ) ;
#170 = DIRECTION ( 'NONE',  ( 1.000000000000000000, 0.0000000000000000000, 0.0000000000000000000 ) ) ;
#171 = CLOSED_SHELL ( 'NONE', ( #215, #148, #164, #55, #243, #46, #223, #70 ) ) ;
#172 = ORIENTED_EDGE ( 'NONE', *, *, #28, .F. ) ;
#173 = PRODUCT_DEFINITION_FORMATION_WITH_SPECIFIED_SOURCE ( 'ANY', '', #208, .NOT_KNOWN. ) ;
#174 = VERTEX_POINT ( 'NONE', #20 ) ;
#175 = CARTESIAN_POINT ( 'NONE',  ( 0.003936999999999995191, 0.0000000000000000000, 0.0000000000000000000 ) ) ;
#176 = ORIENTED_EDGE ( 'NONE', *, *, #226, .T. ) ;
#177 = AXIS2_PLACEMENT_3D ( 'NONE', #76, #73, #170 ) ;
#178 = EDGE_CURVE ( 'NONE', #154, #174, #101, .T. ) ;
#179 = DIRECTION ( 'NONE',  ( -1.000000000000000000, 0.0000000000000000000, 0.0000000000000000000 ) ) ;
#180 = STYLED_ITEM ( 'NONE', ( #162 ), #91 ) ;
#181 = CARTESIAN_POINT ( 'NONE',  ( 0.07874000000000000443, 9.642868896486258509E-18, 1.968503999999999809 ) ) ;
#182 = PRODUCT_DEFINITION ( 'UNKNOWN', '', #173, #104 ) ;
#183 = FACE_OUTER_BOUND ( 'NONE', #45, .T. ) ;
#184 =( NAMED_UNIT ( * ) PLANE_ANGLE_UNIT ( ) SI_UNIT ( $, .RADIAN. ) );
#185 = PLANE ( 'NONE',  #129 ) ;
#186 = AXIS2_PLACEMENT_3D ( 'NONE', #224, #137, #227 ) ;
#187 = DIRECTION ( 'NONE',  ( 0.0000000000000000000, 0.0000000000000000000, 1.000000000000000000 ) ) ;
#188 = ORIENTED_EDGE ( 'NONE', *, *, #30, .F. ) ;
#189 = CARTESIAN_POINT ( 'NONE',  ( 0.0000000000000000000, 0.0000000000000000000, 1.968503999999999809 ) ) ;
#190 = DIRECTION ( 'NONE',  ( -1.000000000000000000, 0.0000000000000000000, 0.0000000000000000000 ) ) ;
#191 = FACE_OUTER_BOUND ( 'NONE', #116, .T. ) ;
#192 = EDGE_LOOP ( 'NONE', ( #216, #150, #122, #22 ) ) ;
#193 = CARTESIAN_POINT ( 'NONE',  ( 0.0000000000000000000, 0.0000000000000000000, 0.1295625965585742445 ) ) ;
#194 = UNCERTAINTY_MEASURE_WITH_UNIT (LENGTH_MEASURE( 1.000000000000000082E-05 ), #36, 'distance_accuracy_value', 'NONE');
#195 = DIRECTION ( 'NONE',  ( 1.000000000000000000, 0.0000000000000000000, 0.0000000000000000000 ) ) ;
#196 = CARTESIAN_POINT ( 'NONE',  ( 0.0000000000000000000, 0.0000000000000000000, 0.0000000000000000000 ) ) ;
#197 = LINE ( 'NONE', #181, #67 ) ;
#198 = AXIS2_PLACEMENT_3D ( 'NONE', #196, #160, #86 ) ;
#199 = DIRECTION ( 'NONE',  ( -0.0000000000000000000, -0.0000000000000000000, -1.000000000000000000 ) ) ;
#200 = CARTESIAN_POINT ( 'NONE',  ( -0.003936999999999995191, 5.062506170655285717E-18, 0.0000000000000000000 ) ) ;
#201 = LENGTH_MEASURE_WITH_UNIT ( LENGTH_MEASURE( 0.02539999999999999897 ), #64 );
#202 = CARTESIAN_POINT ( 'NONE',  ( 0.0000000000000000000, 0.0000000000000000000, 0.1295625965585742445 ) ) ;
#203 = PRESENTATION_STYLE_ASSIGNMENT (( #132 ) ) ;
#204 = DIRECTION ( 'NONE',  ( 1.000000000000000000, 0.0000000000000000000, 0.0000000000000000000 ) ) ;
#205 = ORIENTED_EDGE ( 'NONE', *, *, #9, .F. ) ;
#206 = DIRECTION ( 'NONE',  ( -1.000000000000000000, 0.0000000000000000000, 0.0000000000000000000 ) ) ;
#207 = APPLICATION_CONTEXT ( 'automotive_design' ) ;
#208 = PRODUCT ( 'Micro_RSCM-040-2X', 'Micro_RSCM-040-2X', '', ( #78 ) ) ;
#209 = ORIENTED_EDGE ( 'NONE', *, *, #234, .T. ) ;
#210 = LENGTH_MEASURE_WITH_UNIT ( LENGTH_MEASURE( 0.02539999999999999897 ), #213 );
#211 = VERTEX_POINT ( 'NONE', #139 ) ;
#212 = AXIS2_PLACEMENT_3D ( 'NONE', #1, #217, #195 ) ;
#213 =( LENGTH_UNIT ( ) NAMED_UNIT ( * ) SI_UNIT ( $, .METRE. ) );
#214 = DIRECTION ( 'NONE',  ( -1.000000000000000000, 0.0000000000000000000, 0.0000000000000000000 ) ) ;
#215 = ADVANCED_FACE ( 'NONE', ( #191 ), #40, .T. ) ;
#216 = ORIENTED_EDGE ( 'NONE', *, *, #128, .F. ) ;
#217 = DIRECTION ( 'NONE',  ( 0.0000000000000000000, 0.0000000000000000000, 1.000000000000000000 ) ) ;
#218 = CARTESIAN_POINT ( 'NONE',  ( 0.003936999999999995191, 0.0000000000000000000, 1.968503999999999809 ) ) ;
#219 = SURFACE_STYLE_FILL_AREA ( #111 ) ;
#220 = MECHANICAL_DESIGN_GEOMETRIC_PRESENTATION_REPRESENTATION (  '', ( #180 ), #108 ) ;
#221 = LINE ( 'NONE', #5, #247 ) ;
#222 = CARTESIAN_POINT ( 'NONE',  ( 0.003936999999999995191, 0.0000000000000000000, 1.968503999999999809 ) ) ;
#223 = ADVANCED_FACE ( 'NONE', ( #246 ), #157, .T. ) ;
#224 = CARTESIAN_POINT ( 'NONE',  ( 0.0000000000000000000, 0.0000000000000000000, 1.838941403441425759 ) ) ;
#225 = CIRCLE ( 'NONE', #82, 0.07874000000000000443 ) ;
#226 = EDGE_CURVE ( 'NONE', #103, #119, #16, .T. ) ;
#227 = DIRECTION ( 'NONE',  ( -1.000000000000000000, 0.0000000000000000000, 0.0000000000000000000 ) ) ;
#228 = CARTESIAN_POINT ( 'NONE',  ( 0.0000000000000000000, 0.0000000000000000000, 0.0000000000000000000 ) ) ;
#229 = ORIENTED_EDGE ( 'NONE', *, *, #37, .T. ) ;
#230 = CIRCLE ( 'NONE', #50, 0.003936999999999995191 ) ;
#231 = EDGE_LOOP ( 'NONE', ( #42, #100, #102, #172 ) ) ;
#232 = EDGE_CURVE ( 'NONE', #174, #154, #29, .T. ) ;
#233 = AXIS2_PLACEMENT_3D ( 'NONE', #168, #99, #206 ) ;
#234 = EDGE_CURVE ( 'NONE', #119, #103, #235, .T. ) ;
#235 = CIRCLE ( 'NONE', #133, 0.003936999999999995191 ) ;
#236 = CONICAL_SURFACE ( 'NONE', #134, 0.003936999999999995191, 0.5235987755983005920 ) ;
#237 = LINE ( 'NONE', #52, #10 ) ;
#238 = CARTESIAN_POINT ( 'NONE',  ( 0.003936999999999995191, 0.0000000000000000000, 0.0000000000000000000 ) ) ;
#239 = DIRECTION ( 'NONE',  ( -0.5000000000000013323, 6.123233995736782060E-17, 0.8660254037844377084 ) ) ;
#240 = DIRECTION ( 'NONE',  ( -1.000000000000000000, 0.0000000000000000000, 0.0000000000000000000 ) ) ;
#241 =( CONVERSION_BASED_UNIT ( 'INCH', #201 ) LENGTH_UNIT ( ) NAMED_UNIT ( #94 ) );
#242 = FILL_AREA_STYLE ('',( #166 ) ) ;
#243 = ADVANCED_FACE ( 'NONE', ( #248 ), #236, .T. ) ;
#244 = ORIENTED_EDGE ( 'NONE', *, *, #178, .F. ) ;
#245 = AXIS2_PLACEMENT_3D ( 'NONE', #39, #13, #190 ) ;
#246 = FACE_OUTER_BOUND ( 'NONE', #118, .T. ) ;
#247 = VECTOR ( 'NONE', #239, 39.37007874015748854 ) ;
#248 = FACE_OUTER_BOUND ( 'NONE', #74, .T. ) ;
#249 = ORIENTED_EDGE ( 'NONE', *, *, #234, .F. ) ;
ENDSEC;
END-ISO-10303-21;
