ISO-10303-21;
HEADER;
FILE_DESCRIPTION (( 'STEP AP214' ),
    '1' );
FILE_NAME ('59732.STEP',
    '2023-07-24T15:55:03',
    ( '' ),
    ( '' ),
    'SwSTEP 2.0',
    'SolidWorks 2023',
    '' );
FILE_SCHEMA (( 'AUTOMOTIVE_DESIGN' ));
ENDSEC;

DATA;
#1 = FILL_AREA_STYLE_COLOUR ( '', #56 ) ;
#2 = DIRECTION ( 'NONE',  ( -0.000000000000000000, -1.000000000000000000, -0.000000000000000000 ) ) ;
#3 = VECTOR ( 'NONE', #68, 1000.000000000000000 ) ;
#4 = EDGE_LOOP ( 'NONE', ( #79, #124, #200, #212 ) ) ;
#5 = DIRECTION ( 'NONE',  ( 0.000000000000000000, 0.000000000000000000, 1.000000000000000000 ) ) ;
#6 = DIRECTION ( 'NONE',  ( 0.000000000000000000, 0.000000000000000000, -1.000000000000000000 ) ) ;
#7 = EDGE_LOOP ( 'NONE', ( #112, #131, #12, #153 ) ) ;
#8 = CARTESIAN_POINT ( 'NONE',  ( 0.000000000000000000, 0.000000000000000000, -4.000000000000000000 ) ) ;
#9 = AXIS2_PLACEMENT_3D ( 'NONE', #72, #94, #43 ) ;
#10 = VERTEX_POINT ( 'NONE', #277 ) ;
#11 = VERTEX_POINT ( 'NONE', #242 ) ;
#12 = ORIENTED_EDGE ( 'NONE', *, *, #222, .T. ) ;
#13 = DIRECTION ( 'NONE',  ( -6.774641867623654571E-17, -1.000000000000000000, 0.000000000000000000 ) ) ;
#14 = STYLED_ITEM ( 'NONE', ( #174 ), #269 ) ;
#15 = SURFACE_STYLE_USAGE ( .BOTH. , #201 ) ;
#16 = MANIFOLD_SOLID_BREP ( 'Revolve - Tool Body (Straight Shanked)', #105 ) ;
#17 = SURFACE_STYLE_USAGE ( .BOTH. , #119 ) ;
#18 = PRESENTATION_LAYER_ASSIGNMENT (  '', '', ( #157 ) ) ;
#19 = CARTESIAN_POINT ( 'NONE',  ( 0.000000000000000000, 16.00000000000000000, 0.000000000000000000 ) ) ;
#20 = DIRECTION ( 'NONE',  ( 0.000000000000000000, 0.000000000000000000, -1.000000000000000000 ) ) ;
#21 = APPLICATION_CONTEXT ( 'automotive_design' ) ;
#22 = ORIENTED_EDGE ( 'NONE', *, *, #167, .T. ) ;
#23 = MANIFOLD_SOLID_BREP ( 'Revolve - Cutting Edge', #279 ) ;
#24 = AXIS2_PLACEMENT_3D ( 'NONE', #194, #273, #253 ) ;
#25 = VERTEX_POINT ( 'NONE', #287 ) ;
#26 = ADVANCED_FACE ( 'NONE', ( #46 ), #166, .T. ) ;
#27 = FACE_OUTER_BOUND ( 'NONE', #176, .T. ) ;
#28 = VERTEX_POINT ( 'NONE', #255 ) ;
#29 = FILL_AREA_STYLE_COLOUR ( '', #217 ) ;
#30 = EDGE_CURVE ( 'NONE', #107, #11, #91, .T. ) ;
#31 = DIRECTION ( 'NONE',  ( 6.774641867623654571E-17, 1.000000000000000000, -0.000000000000000000 ) ) ;
#32 = UNCERTAINTY_MEASURE_WITH_UNIT (LENGTH_MEASURE( 1.000000000000000082E-05 ), #80, 'distance_accuracy_value', 'NONE');
#33 = DIRECTION ( 'NONE',  ( -1.000000000000000000, 0.000000000000000000, 0.000000000000000000 ) ) ;
#34 = FILL_AREA_STYLE ('',( #260 ) ) ;
#35 = EDGE_CURVE ( 'NONE', #193, #11, #234, .T. ) ;
#36 = CIRCLE ( 'NONE', #221, 4.000000000000000000 ) ;
#37 = PRESENTATION_STYLE_ASSIGNMENT (( #15 ) ) ;
#38 = STYLED_ITEM ( 'NONE', ( #37 ), #16 ) ;
#39 = PRESENTATION_LAYER_ASSIGNMENT (  '', '', ( #14 ) ) ;
#40 = FILL_AREA_STYLE_COLOUR ( '', #87 ) ;
#41 =( NAMED_UNIT ( * ) SI_UNIT ( $, .STERADIAN. ) SOLID_ANGLE_UNIT ( ) );
#42 = FILL_AREA_STYLE ('',( #40 ) ) ;
#43 = DIRECTION ( 'NONE',  ( 0.000000000000000000, 0.000000000000000000, -1.000000000000000000 ) ) ;
#44 =( GEOMETRIC_REPRESENTATION_CONTEXT ( 3 ) GLOBAL_UNCERTAINTY_ASSIGNED_CONTEXT ( ( #32 ) ) GLOBAL_UNIT_ASSIGNED_CONTEXT ( ( #80, #196, #108 ) ) REPRESENTATION_CONTEXT ( 'NONE', 'WORKASPACE' ) );
#45 = LINE ( 'NONE', #268, #3 ) ;
#46 = FACE_OUTER_BOUND ( 'NONE', #137, .T. ) ;
#47 = FACE_OUTER_BOUND ( 'NONE', #282, .T. ) ;
#48 = SHAPE_DEFINITION_REPRESENTATION ( #266, #120 ) ;
#49 = DIRECTION ( 'NONE',  ( -0.000000000000000000, -1.000000000000000000, -0.000000000000000000 ) ) ;
#50 = CIRCLE ( 'NONE', #78, 3.999999999999996447 ) ;
#51 = APPLICATION_PROTOCOL_DEFINITION ( 'draft international standard', 'automotive_design', 1998, #21 ) ;
#52 = FILL_AREA_STYLE ('',( #259 ) ) ;
#53 = ORIENTED_EDGE ( 'NONE', *, *, #60, .T. ) ;
#54 = UNCERTAINTY_MEASURE_WITH_UNIT (LENGTH_MEASURE( 1.000000000000000082E-05 ), #232, 'distance_accuracy_value', 'NONE');
#55 = DIRECTION ( 'NONE',  ( 0.000000000000000000, 0.000000000000000000, -1.000000000000000000 ) ) ;
#56 = COLOUR_RGB ( '',0.7921568627450980005, 0.8196078431372548767, 0.9333333333333333481 ) ;
#57 = CIRCLE ( 'NONE', #139, 3.999999999999996447 ) ;
#58 = SURFACE_STYLE_FILL_AREA ( #52 ) ;
#59 = SURFACE_STYLE_FILL_AREA ( #34 ) ;
#60 = EDGE_CURVE ( 'NONE', #141, #25, #45, .T. ) ;
#61 = AXIS2_PLACEMENT_3D ( 'NONE', #130, #109, #192 ) ;
#62 =( NAMED_UNIT ( * ) PLANE_ANGLE_UNIT ( ) SI_UNIT ( $, .RADIAN. ) );
#63 = EDGE_CURVE ( 'NONE', #126, #193, #207, .T. ) ;
#64 = CARTESIAN_POINT ( 'NONE',  ( 3.184081677783117402E-15, 63.00000000000000000, 0.000000000000000000 ) ) ;
#65 = AXIS2_PLACEMENT_3D ( 'NONE', #198, #49, #149 ) ;
#66 = SURFACE_STYLE_FILL_AREA ( #42 ) ;
#67 = PRODUCT_DEFINITION ( 'UNKNOWN', '', #258, #244 ) ;
#68 = DIRECTION ( 'NONE',  ( 6.774641867623654571E-17, 1.000000000000000000, -0.000000000000000000 ) ) ;
#69 = PRESENTATION_LAYER_ASSIGNMENT (  '', '', ( #77 ) ) ;
#70 =( NAMED_UNIT ( * ) SI_UNIT ( $, .STERADIAN. ) SOLID_ANGLE_UNIT ( ) );
#71 = VECTOR ( 'NONE', #142, 1000.000000000000000 ) ;
#72 = CARTESIAN_POINT ( 'NONE',  ( 0.000000000000000000, 0.000000000000000000, 0.000000000000000000 ) ) ;
#73 = DIRECTION ( 'NONE',  ( 0.000000000000000000, 0.000000000000000000, -1.000000000000000000 ) ) ;
#74 = DIRECTION ( 'NONE',  ( -1.000000000000000000, 0.000000000000000000, 0.000000000000000000 ) ) ;
#75 =( NAMED_UNIT ( * ) PLANE_ANGLE_UNIT ( ) SI_UNIT ( $, .RADIAN. ) );
#76 = CARTESIAN_POINT ( 'NONE',  ( 3.184081677783117402E-15, 63.00000000000000000, 0.000000000000000000 ) ) ;
#77 = STYLED_ITEM ( 'NONE', ( #283 ), #23 ) ;
#78 = AXIS2_PLACEMENT_3D ( 'NONE', #76, #209, #33 ) ;
#79 = ORIENTED_EDGE ( 'NONE', *, *, #30, .F. ) ;
#80 =( LENGTH_UNIT ( ) NAMED_UNIT ( * ) SI_UNIT ( .MILLI., .METRE. ) );
#81 = EDGE_CURVE ( 'NONE', #28, #25, #57, .T. ) ;
#82 = DIRECTION ( 'NONE',  ( 6.774641867623654571E-17, 1.000000000000000000, -0.000000000000000000 ) ) ;
#83 = ORIENTED_EDGE ( 'NONE', *, *, #186, .T. ) ;
#84 = PRESENTATION_STYLE_ASSIGNMENT (( #270 ) ) ;
#85 = UNCERTAINTY_MEASURE_WITH_UNIT (LENGTH_MEASURE( 1.000000000000000082E-05 ), #230, 'distance_accuracy_value', 'NONE');
#86 = SURFACE_STYLE_FILL_AREA ( #132 ) ;
#87 = COLOUR_RGB ( '',1.000000000000000000, 0.000000000000000000, 0.000000000000000000 ) ;
#88 = CIRCLE ( 'NONE', #179, 4.000000000000000000 ) ;
#89 = EDGE_LOOP ( 'NONE', ( #228, #191 ) ) ;
#90 = AXIS2_PLACEMENT_3D ( 'NONE', #274, #31, #104 ) ;
#91 = LINE ( 'NONE', #172, #111 ) ;
#92 =( NAMED_UNIT ( * ) PLANE_ANGLE_UNIT ( ) SI_UNIT ( $, .RADIAN. ) );
#93 =( NAMED_UNIT ( * ) PLANE_ANGLE_UNIT ( ) SI_UNIT ( $, .RADIAN. ) );
#94 = DIRECTION ( 'NONE',  ( -0.000000000000000000, -1.000000000000000000, -0.000000000000000000 ) ) ;
#95 = SURFACE_STYLE_USAGE ( .BOTH. , #168 ) ;
#96 = MECHANICAL_DESIGN_GEOMETRIC_PRESENTATION_REPRESENTATION (  '', ( #38 ), #133 ) ;
#97 = AXIS2_PLACEMENT_3D ( 'NONE', #148, #13, #116 ) ;
#98 = DIRECTION ( 'NONE',  ( 0.000000000000000000, -1.000000000000000000, -0.000000000000000000 ) ) ;
#99 = EDGE_CURVE ( 'NONE', #107, #126, #36, .T. ) ;
#100 = CARTESIAN_POINT ( 'NONE',  ( 3.184081677783117402E-15, 63.00000000000000000, 0.000000000000000000 ) ) ;
#101 = ORIENTED_EDGE ( 'NONE', *, *, #35, .F. ) ;
#102 = SURFACE_STYLE_USAGE ( .BOTH. , #256 ) ;
#103 = ADVANCED_FACE ( 'NONE', ( #47 ), #190, .T. ) ;
#104 = DIRECTION ( 'NONE',  ( -1.000000000000000000, 0.000000000000000000, 0.000000000000000000 ) ) ;
#105 = CLOSED_SHELL ( 'NONE', ( #103, #140, #239, #128 ) ) ;
#106 = AXIS2_PLACEMENT_3D ( 'NONE', #175, #177, #55 ) ;
#107 = VERTEX_POINT ( 'NONE', #143 ) ;
#108 =( NAMED_UNIT ( * ) SI_UNIT ( $, .STERADIAN. ) SOLID_ANGLE_UNIT ( ) );
#109 = DIRECTION ( 'NONE',  ( -0.000000000000000000, -1.000000000000000000, -0.000000000000000000 ) ) ;
#110 = CYLINDRICAL_SURFACE ( 'NONE', #106, 4.000000000000000000 ) ;
#111 = VECTOR ( 'NONE', #2, 1000.000000000000000 ) ;
#112 = ORIENTED_EDGE ( 'NONE', *, *, #60, .F. ) ;
#113 = FILL_AREA_STYLE ('',( #261 ) ) ;
#114 = ORIENTED_EDGE ( 'NONE', *, *, #218, .T. ) ;
#115 = MECHANICAL_DESIGN_GEOMETRIC_PRESENTATION_REPRESENTATION (  '', ( #77 ), #208 ) ;
#116 = DIRECTION ( 'NONE',  ( 1.000000000000000000, -6.774641867623654571E-17, 0.000000000000000000 ) ) ;
#117 = COLOUR_RGB ( '',1.000000000000000000, 0.000000000000000000, 0.000000000000000000 ) ;
#118 =( GEOMETRIC_REPRESENTATION_CONTEXT ( 3 ) GLOBAL_UNCERTAINTY_ASSIGNED_CONTEXT ( ( #276 ) ) GLOBAL_UNIT_ASSIGNED_CONTEXT ( ( #197, #216, #238 ) ) REPRESENTATION_CONTEXT ( 'NONE', 'WORKASPACE' ) );
#119 = SURFACE_SIDE_STYLE ('',( #66 ) ) ;
#120 = ADVANCED_BREP_SHAPE_REPRESENTATION ( '59732', ( #23, #16, #134 ), #44 ) ;
#121 =( NAMED_UNIT ( * ) SI_UNIT ( $, .STERADIAN. ) SOLID_ANGLE_UNIT ( ) );
#122 = PRODUCT ( '59732', '59732', '', ( #229 ) ) ;
#123 = DIRECTION ( 'NONE',  ( 6.774641867623654571E-17, 1.000000000000000000, -0.000000000000000000 ) ) ;
#124 = ORIENTED_EDGE ( 'NONE', *, *, #99, .T. ) ;
#125 = STYLED_ITEM ( 'NONE', ( #225 ), #26 ) ;
#126 = VERTEX_POINT ( 'NONE', #170 ) ;
#127 =( NAMED_UNIT ( * ) SI_UNIT ( $, .STERADIAN. ) SOLID_ANGLE_UNIT ( ) );
#128 = ADVANCED_FACE ( 'NONE', ( #206 ), #248, .F. ) ;
#129 = PRESENTATION_STYLE_ASSIGNMENT (( #233 ) ) ;
#130 = CARTESIAN_POINT ( 'NONE',  ( 0.000000000000000000, 0.000000000000000000, 0.000000000000000000 ) ) ;
#131 = ORIENTED_EDGE ( 'NONE', *, *, #158, .T. ) ;
#132 = FILL_AREA_STYLE ('',( #29 ) ) ;
#133 =( GEOMETRIC_REPRESENTATION_CONTEXT ( 3 ) GLOBAL_UNCERTAINTY_ASSIGNED_CONTEXT ( ( #180 ) ) GLOBAL_UNIT_ASSIGNED_CONTEXT ( ( #219, #62, #121 ) ) REPRESENTATION_CONTEXT ( 'NONE', 'WORKASPACE' ) );
#134 = AXIS2_PLACEMENT_3D ( 'NONE', #152, #5, #235 ) ;
#135 = SURFACE_SIDE_STYLE ('',( #58 ) ) ;
#136 = CARTESIAN_POINT ( 'NONE',  ( -3.999999999999994671, 63.00000000000000000, 0.000000000000000000 ) ) ;
#137 = EDGE_LOOP ( 'NONE', ( #231, #114 ) ) ;
#138 = FACE_OUTER_BOUND ( 'NONE', #89, .T. ) ;
#139 = AXIS2_PLACEMENT_3D ( 'NONE', #100, #123, #220 ) ;
#140 = ADVANCED_FACE ( 'NONE', ( #205 ), #203, .F. ) ;
#141 = VERTEX_POINT ( 'NONE', #267 ) ;
#142 = DIRECTION ( 'NONE',  ( -0.000000000000000000, -1.000000000000000000, -0.000000000000000000 ) ) ;
#143 = CARTESIAN_POINT ( 'NONE',  ( 4.898587196589412829E-16, 16.00000000000000000, 4.000000000000000000 ) ) ;
#144 =( GEOMETRIC_REPRESENTATION_CONTEXT ( 3 ) GLOBAL_UNCERTAINTY_ASSIGNED_CONTEXT ( ( #85 ) ) GLOBAL_UNIT_ASSIGNED_CONTEXT ( ( #230, #213, #127 ) ) REPRESENTATION_CONTEXT ( 'NONE', 'WORKASPACE' ) );
#145 = CARTESIAN_POINT ( 'NONE',  ( -3.851859888774471706E-31, 16.00000000000000000, 0.000000000000000000 ) ) ;
#146 = CARTESIAN_POINT ( 'NONE',  ( 0.000000000000000000, 0.000000000000000000, 0.000000000000000000 ) ) ;
#147 = ORIENTED_EDGE ( 'NONE', *, *, #81, .F. ) ;
#148 = CARTESIAN_POINT ( 'NONE',  ( 4.000000000000000000, 63.00000000000000000, 0.000000000000000000 ) ) ;
#149 = DIRECTION ( 'NONE',  ( 0.000000000000000000, 0.000000000000000000, -1.000000000000000000 ) ) ;
#150 = APPLICATION_CONTEXT ( 'automotive_design' ) ;
#151 = ORIENTED_EDGE ( 'NONE', *, *, #158, .F. ) ;
#152 = CARTESIAN_POINT ( 'NONE',  ( 0.000000000000000000, 0.000000000000000000, 0.000000000000000000 ) ) ;
#153 = ORIENTED_EDGE ( 'NONE', *, *, #186, .F. ) ;
#154 = APPLICATION_PROTOCOL_DEFINITION ( 'draft international standard', 'automotive_design', 1998, #150 ) ;
#155 = CARTESIAN_POINT ( 'NONE',  ( 0.000000000000000000, 0.000000000000000000, 0.000000000000000000 ) ) ;
#156 = DIRECTION ( 'NONE',  ( -0.000000000000000000, -1.000000000000000000, -0.000000000000000000 ) ) ;
#157 = STYLED_ITEM ( 'NONE', ( #129 ), #286 ) ;
#158 = EDGE_CURVE ( 'NONE', #141, #10, #189, .T. ) ;
#159 = PLANE ( 'NONE',  #24 ) ;
#160 = EDGE_LOOP ( 'NONE', ( #181, #83 ) ) ;
#161 = COLOUR_RGB ( '',0.7921568627450980005, 0.8196078431372548767, 0.9333333333333333481 ) ;
#162 = CIRCLE ( 'NONE', #65, 4.000000000000000000 ) ;
#163 = EDGE_LOOP ( 'NONE', ( #241, #151 ) ) ;
#164 = PRESENTATION_LAYER_ASSIGNMENT (  '', '', ( #125 ) ) ;
#165 = CARTESIAN_POINT ( 'NONE',  ( -3.851859888774471706E-31, 16.00000000000000000, 0.000000000000000000 ) ) ;
#166 = PLANE ( 'NONE',  #243 ) ;
#167 = EDGE_CURVE ( 'NONE', #10, #141, #237, .T. ) ;
#168 = SURFACE_SIDE_STYLE ('',( #185 ) ) ;
#169 = DIRECTION ( 'NONE',  ( -0.000000000000000000, -1.000000000000000000, -0.000000000000000000 ) ) ;
#170 = CARTESIAN_POINT ( 'NONE',  ( 0.000000000000000000, 16.00000000000000000, -4.000000000000000000 ) ) ;
#171 = ORIENTED_EDGE ( 'NONE', *, *, #278, .T. ) ;
#172 = CARTESIAN_POINT ( 'NONE',  ( 4.898587196589412829E-16, 0.000000000000000000, 4.000000000000000000 ) ) ;
#173 = AXIS2_PLACEMENT_3D ( 'NONE', #145, #224, #288 ) ;
#174 = PRESENTATION_STYLE_ASSIGNMENT (( #102 ) ) ;
#175 = CARTESIAN_POINT ( 'NONE',  ( 0.000000000000000000, 0.000000000000000000, 0.000000000000000000 ) ) ;
#176 = EDGE_LOOP ( 'NONE', ( #171, #226, #101, #272 ) ) ;
#177 = DIRECTION ( 'NONE',  ( -0.000000000000000000, -1.000000000000000000, -0.000000000000000000 ) ) ;
#178 = ADVANCED_FACE ( 'NONE', ( #254 ), #252, .T. ) ;
#179 = AXIS2_PLACEMENT_3D ( 'NONE', #155, #156, #6 ) ;
#180 = UNCERTAINTY_MEASURE_WITH_UNIT (LENGTH_MEASURE( 1.000000000000000082E-05 ), #219, 'distance_accuracy_value', 'NONE');
#181 = ORIENTED_EDGE ( 'NONE', *, *, #81, .T. ) ;
#182 = DIRECTION ( 'NONE',  ( 6.774641867623654571E-17, 1.000000000000000000, -0.000000000000000000 ) ) ;
#183 =( LENGTH_UNIT ( ) NAMED_UNIT ( * ) SI_UNIT ( .MILLI., .METRE. ) );
#184 = PRESENTATION_LAYER_ASSIGNMENT (  '', '', ( #257 ) ) ;
#185 = SURFACE_STYLE_FILL_AREA ( #285 ) ;
#186 = EDGE_CURVE ( 'NONE', #25, #28, #50, .T. ) ;
#187 =( LENGTH_UNIT ( ) NAMED_UNIT ( * ) SI_UNIT ( .MILLI., .METRE. ) );
#188 = DIRECTION ( 'NONE',  ( -1.000000000000000000, 0.000000000000000000, 0.000000000000000000 ) ) ;
#189 = CIRCLE ( 'NONE', #265, 4.000000000000000000 ) ;
#190 = CYLINDRICAL_SURFACE ( 'NONE', #199, 3.999999999999998224 ) ;
#191 = ORIENTED_EDGE ( 'NONE', *, *, #99, .F. ) ;
#192 = DIRECTION ( 'NONE',  ( 0.000000000000000000, 0.000000000000000000, -1.000000000000000000 ) ) ;
#193 = VERTEX_POINT ( 'NONE', #8 ) ;
#194 = CARTESIAN_POINT ( 'NONE',  ( 0.000000000000000000, 16.00000000000000000, 0.000000000000000000 ) ) ;
#195 = VECTOR ( 'NONE', #82, 1000.000000000000000 ) ;
#196 =( NAMED_UNIT ( * ) PLANE_ANGLE_UNIT ( ) SI_UNIT ( $, .RADIAN. ) );
#197 =( LENGTH_UNIT ( ) NAMED_UNIT ( * ) SI_UNIT ( .MILLI., .METRE. ) );
#198 = CARTESIAN_POINT ( 'NONE',  ( 0.000000000000000000, 16.00000000000000000, 0.000000000000000000 ) ) ;
#199 = AXIS2_PLACEMENT_3D ( 'NONE', #64, #246, #74 ) ;
#200 = ORIENTED_EDGE ( 'NONE', *, *, #63, .T. ) ;
#201 = SURFACE_SIDE_STYLE ('',( #263 ) ) ;
#202 = MECHANICAL_DESIGN_GEOMETRIC_PRESENTATION_REPRESENTATION (  '', ( #14 ), #118 ) ;
#203 = PLANE ( 'NONE',  #284 ) ;
#204 = COLOUR_RGB ( '',1.000000000000000000, 0.000000000000000000, 0.000000000000000000 ) ;
#205 = FACE_OUTER_BOUND ( 'NONE', #163, .T. ) ;
#206 = FACE_OUTER_BOUND ( 'NONE', #160, .T. ) ;
#207 = LINE ( 'NONE', #249, #71 ) ;
#208 =( GEOMETRIC_REPRESENTATION_CONTEXT ( 3 ) GLOBAL_UNCERTAINTY_ASSIGNED_CONTEXT ( ( #236 ) ) GLOBAL_UNIT_ASSIGNED_CONTEXT ( ( #183, #93, #70 ) ) REPRESENTATION_CONTEXT ( 'NONE', 'WORKASPACE' ) );
#209 = DIRECTION ( 'NONE',  ( 6.774641867623654571E-17, 1.000000000000000000, -0.000000000000000000 ) ) ;
#210 =( NAMED_UNIT ( * ) SI_UNIT ( $, .STERADIAN. ) SOLID_ANGLE_UNIT ( ) );
#211 = LINE ( 'NONE', #136, #195 ) ;
#212 = ORIENTED_EDGE ( 'NONE', *, *, #218, .F. ) ;
#213 =( NAMED_UNIT ( * ) PLANE_ANGLE_UNIT ( ) SI_UNIT ( $, .RADIAN. ) );
#214 = CYLINDRICAL_SURFACE ( 'NONE', #90, 3.999999999999998224 ) ;
#215 = UNCERTAINTY_MEASURE_WITH_UNIT (LENGTH_MEASURE( 1.000000000000000082E-05 ), #187, 'distance_accuracy_value', 'NONE');
#216 =( NAMED_UNIT ( * ) PLANE_ANGLE_UNIT ( ) SI_UNIT ( $, .RADIAN. ) );
#217 = COLOUR_RGB ( '',1.000000000000000000, 0.000000000000000000, 0.000000000000000000 ) ;
#218 = EDGE_CURVE ( 'NONE', #11, #193, #88, .T. ) ;
#219 =( LENGTH_UNIT ( ) NAMED_UNIT ( * ) SI_UNIT ( .MILLI., .METRE. ) );
#220 = DIRECTION ( 'NONE',  ( -1.000000000000000000, 0.000000000000000000, 0.000000000000000000 ) ) ;
#221 = AXIS2_PLACEMENT_3D ( 'NONE', #19, #169, #20 ) ;
#222 = EDGE_CURVE ( 'NONE', #10, #28, #211, .T. ) ;
#223 = PRESENTATION_LAYER_ASSIGNMENT (  '', '', ( #38 ) ) ;
#224 = DIRECTION ( 'NONE',  ( 6.774641867623654571E-17, 1.000000000000000000, -0.000000000000000000 ) ) ;
#225 = PRESENTATION_STYLE_ASSIGNMENT (( #17 ) ) ;
#226 = ORIENTED_EDGE ( 'NONE', *, *, #30, .T. ) ;
#227 = MECHANICAL_DESIGN_GEOMETRIC_PRESENTATION_REPRESENTATION (  '', ( #125 ), #250 ) ;
#228 = ORIENTED_EDGE ( 'NONE', *, *, #278, .F. ) ;
#229 = PRODUCT_CONTEXT ( 'NONE', #21, 'mechanical' ) ;
#230 =( LENGTH_UNIT ( ) NAMED_UNIT ( * ) SI_UNIT ( .MILLI., .METRE. ) );
#231 = ORIENTED_EDGE ( 'NONE', *, *, #35, .T. ) ;
#232 =( LENGTH_UNIT ( ) NAMED_UNIT ( * ) SI_UNIT ( .MILLI., .METRE. ) );
#233 = SURFACE_STYLE_USAGE ( .BOTH. , #240 ) ;
#234 = CIRCLE ( 'NONE', #9, 4.000000000000000000 ) ;
#235 = DIRECTION ( 'NONE',  ( 1.000000000000000000, 0.000000000000000000, 0.000000000000000000 ) ) ;
#236 = UNCERTAINTY_MEASURE_WITH_UNIT (LENGTH_MEASURE( 1.000000000000000082E-05 ), #183, 'distance_accuracy_value', 'NONE');
#237 = CIRCLE ( 'NONE', #173, 4.000000000000000000 ) ;
#238 =( NAMED_UNIT ( * ) SI_UNIT ( $, .STERADIAN. ) SOLID_ANGLE_UNIT ( ) );
#239 = ADVANCED_FACE ( 'NONE', ( #275 ), #214, .T. ) ;
#240 = SURFACE_SIDE_STYLE ('',( #59 ) ) ;
#241 = ORIENTED_EDGE ( 'NONE', *, *, #167, .F. ) ;
#242 = CARTESIAN_POINT ( 'NONE',  ( 4.898587196589412829E-16, 0.000000000000000000, 4.000000000000000000 ) ) ;
#243 = AXIS2_PLACEMENT_3D ( 'NONE', #146, #98, #73 ) ;
#244 = PRODUCT_DEFINITION_CONTEXT ( 'detailed design', #150, 'design' ) ;
#245 = DIRECTION ( 'NONE',  ( 6.774641867623654571E-17, 1.000000000000000000, -0.000000000000000000 ) ) ;
#246 = DIRECTION ( 'NONE',  ( 6.774641867623654571E-17, 1.000000000000000000, -0.000000000000000000 ) ) ;
#247 =( GEOMETRIC_REPRESENTATION_CONTEXT ( 3 ) GLOBAL_UNCERTAINTY_ASSIGNED_CONTEXT ( ( #54 ) ) GLOBAL_UNIT_ASSIGNED_CONTEXT ( ( #232, #75, #210 ) ) REPRESENTATION_CONTEXT ( 'NONE', 'WORKASPACE' ) );
#248 = PLANE ( 'NONE',  #97 ) ;
#249 = CARTESIAN_POINT ( 'NONE',  ( 0.000000000000000000, 0.000000000000000000, -4.000000000000000000 ) ) ;
#250 =( GEOMETRIC_REPRESENTATION_CONTEXT ( 3 ) GLOBAL_UNCERTAINTY_ASSIGNED_CONTEXT ( ( #215 ) ) GLOBAL_UNIT_ASSIGNED_CONTEXT ( ( #187, #92, #41 ) ) REPRESENTATION_CONTEXT ( 'NONE', 'WORKASPACE' ) );
#251 = ORIENTED_EDGE ( 'NONE', *, *, #222, .F. ) ;
#252 = CYLINDRICAL_SURFACE ( 'NONE', #61, 4.000000000000000000 ) ;
#253 = DIRECTION ( 'NONE',  ( 0.000000000000000000, -0.000000000000000000, 1.000000000000000000 ) ) ;
#254 = FACE_OUTER_BOUND ( 'NONE', #4, .T. ) ;
#255 = CARTESIAN_POINT ( 'NONE',  ( -3.999999999999993339, 63.00000000000000000, 0.000000000000000000 ) ) ;
#256 = SURFACE_SIDE_STYLE ('',( #86 ) ) ;
#257 = STYLED_ITEM ( 'NONE', ( #84 ), #178 ) ;
#258 = PRODUCT_DEFINITION_FORMATION_WITH_SPECIFIED_SOURCE ( 'ANY', '', #122, .NOT_KNOWN. ) ;
#259 = FILL_AREA_STYLE_COLOUR ( '', #204 ) ;
#260 = FILL_AREA_STYLE_COLOUR ( '', #117 ) ;
#261 = FILL_AREA_STYLE_COLOUR ( '', #161 ) ;
#262 = PRODUCT_RELATED_PRODUCT_CATEGORY ( 'part', '', ( #122 ) ) ;
#263 = SURFACE_STYLE_FILL_AREA ( #113 ) ;
#264 = DIRECTION ( 'NONE',  ( -1.000000000000000000, 6.774641867623654571E-17, 0.000000000000000000 ) ) ;
#265 = AXIS2_PLACEMENT_3D ( 'NONE', #165, #245, #188 ) ;
#266 = PRODUCT_DEFINITION_SHAPE ( 'NONE', 'NONE',  #67 ) ;
#267 = CARTESIAN_POINT ( 'NONE',  ( 4.000000000000000000, 16.00000000000000000, 4.898587196589411843E-16 ) ) ;
#268 = CARTESIAN_POINT ( 'NONE',  ( 4.000000000000001776, 63.00000000000000000, 4.898587196589410857E-16 ) ) ;
#269 = ADVANCED_FACE ( 'NONE', ( #27 ), #110, .T. ) ;
#270 = SURFACE_STYLE_USAGE ( .BOTH. , #135 ) ;
#271 = MECHANICAL_DESIGN_GEOMETRIC_PRESENTATION_REPRESENTATION (  '', ( #257 ), #144 ) ;
#272 = ORIENTED_EDGE ( 'NONE', *, *, #63, .F. ) ;
#273 = DIRECTION ( 'NONE',  ( 0.000000000000000000, 1.000000000000000000, 0.000000000000000000 ) ) ;
#274 = CARTESIAN_POINT ( 'NONE',  ( 3.184081677783117402E-15, 63.00000000000000000, 0.000000000000000000 ) ) ;
#275 = FACE_OUTER_BOUND ( 'NONE', #7, .T. ) ;
#276 = UNCERTAINTY_MEASURE_WITH_UNIT (LENGTH_MEASURE( 1.000000000000000082E-05 ), #197, 'distance_accuracy_value', 'NONE');
#277 = CARTESIAN_POINT ( 'NONE',  ( -4.000000000000000000, 16.00000000000000000, 0.000000000000000000 ) ) ;
#278 = EDGE_CURVE ( 'NONE', #126, #107, #162, .T. ) ;
#279 = CLOSED_SHELL ( 'NONE', ( #269, #286, #178, #26 ) ) ;
#280 = MECHANICAL_DESIGN_GEOMETRIC_PRESENTATION_REPRESENTATION (  '', ( #157 ), #247 ) ;
#281 = CARTESIAN_POINT ( 'NONE',  ( 9.179154486911863099E-33, 16.00000000000000000, 0.000000000000000000 ) ) ;
#282 = EDGE_LOOP ( 'NONE', ( #22, #53, #147, #251 ) ) ;
#283 = PRESENTATION_STYLE_ASSIGNMENT (( #95 ) ) ;
#284 = AXIS2_PLACEMENT_3D ( 'NONE', #281, #182, #264 ) ;
#285 = FILL_AREA_STYLE ('',( #1 ) ) ;
#286 = ADVANCED_FACE ( 'NONE', ( #138 ), #159, .T. ) ;
#287 = CARTESIAN_POINT ( 'NONE',  ( 4.000000000000000000, 63.00000000000000000, 4.898587196589411843E-16 ) ) ;
#288 = DIRECTION ( 'NONE',  ( -1.000000000000000000, 0.000000000000000000, 0.000000000000000000 ) ) ;
ENDSEC;
END-ISO-10303-21;
