ISO-10303-21;
HEADER;
FILE_DESCRIPTION (( 'STEP AP214' ),
    '1' );
FILE_NAME ('Micro_RNC-250-14.STEP',
    '2021-09-03T17:35:07',
    ( '' ),
    ( '' ),
    'SwSTEP 2.0',
    'SolidWorks 2020',
    '' );
FILE_SCHEMA (( 'AUTOMOTIVE_DESIGN' ));
ENDSEC;

DATA;
#1 = LINE ( 'NONE', #135, #246 ) ;
#2 = CARTESIAN_POINT ( 'NONE',  ( 0.0000000000000000000, 0.0000000000000000000, 3.985000000000000320 ) ) ;
#3 = AXIS2_PLACEMENT_3D ( 'NONE', #6, #83, #179 ) ;
#4 = DIRECTION ( 'NONE',  ( -0.0000000000000000000, -0.0000000000000000000, -1.000000000000000000 ) ) ;
#5 = DIRECTION ( 'NONE',  ( 0.0000000000000000000, 0.0000000000000000000, -1.000000000000000000 ) ) ;
#6 = CARTESIAN_POINT ( 'NONE',  ( 0.0000000000000000000, 0.0000000000000000000, 0.0000000000000000000 ) ) ;
#7 = CARTESIAN_POINT ( 'NONE',  ( 0.0000000000000000000, 0.0000000000000000000, 0.1209999999999993997 ) ) ;
#8 = LINE ( 'NONE', #80, #70 ) ;
#9 = STYLED_ITEM ( 'NONE', ( #107 ), #149 ) ;
#10 = ORIENTED_EDGE ( 'NONE', *, *, #208, .T. ) ;
#11 = FILL_AREA_STYLE_COLOUR ( '', #130 ) ;
#12 = ORIENTED_EDGE ( 'NONE', *, *, #81, .F. ) ;
#13 =( NAMED_UNIT ( * ) PLANE_ANGLE_UNIT ( ) SI_UNIT ( $, .RADIAN. ) );
#14 = AXIS2_PLACEMENT_3D ( 'NONE', #2, #78, #39 ) ;
#15 = ADVANCED_FACE ( 'NONE', ( #226 ), #248, .T. ) ;
#16 =( GEOMETRIC_REPRESENTATION_CONTEXT ( 3 ) GLOBAL_UNCERTAINTY_ASSIGNED_CONTEXT ( ( #98 ) ) GLOBAL_UNIT_ASSIGNED_CONTEXT ( ( #69, #13, #125 ) ) REPRESENTATION_CONTEXT ( 'NONE', 'WORKASPACE' ) );
#17 = CARTESIAN_POINT ( 'NONE',  ( 0.0000000000000000000, 0.0000000000000000000, 0.0000000000000000000 ) ) ;
#18 = DIMENSIONAL_EXPONENTS ( 1.000000000000000000, 0.0000000000000000000, 0.0000000000000000000, 0.0000000000000000000, 0.0000000000000000000, 0.0000000000000000000, 0.0000000000000000000 ) ;
#19 = VERTEX_POINT ( 'NONE', #92 ) ;
#20 = DIRECTION ( 'NONE',  ( -1.000000000000000000, 0.0000000000000000000, 0.0000000000000000000 ) ) ;
#21 = DIRECTION ( 'NONE',  ( 0.0000000000000000000, 0.0000000000000000000, -1.000000000000000000 ) ) ;
#22 = DIRECTION ( 'NONE',  ( -1.000000000000000000, 0.0000000000000000000, 0.0000000000000000000 ) ) ;
#23 = CARTESIAN_POINT ( 'NONE',  ( 0.003999999999999994879, 0.0000000000000000000, 0.0000000000000000000 ) ) ;
#24 = AXIS2_PLACEMENT_3D ( 'NONE', #46, #4, #67 ) ;
#25 = PRODUCT_DEFINITION_FORMATION_WITH_SPECIFIED_SOURCE ( 'ANY', '', #110, .NOT_KNOWN. ) ;
#26 =( NAMED_UNIT ( * ) SI_UNIT ( $, .STERADIAN. ) SOLID_ANGLE_UNIT ( ) );
#27 = FACE_OUTER_BOUND ( 'NONE', #102, .T. ) ;
#28 = EDGE_CURVE ( 'NONE', #222, #200, #129, .T. ) ;
#29 = DIRECTION ( 'NONE',  ( -1.000000000000000000, 0.0000000000000000000, 0.0000000000000000000 ) ) ;
#30 = STYLED_ITEM ( 'NONE', ( #101 ), #53 ) ;
#31 = DIRECTION ( 'NONE',  ( 0.0000000000000000000, 0.0000000000000000000, 1.000000000000000000 ) ) ;
#32 =( NAMED_UNIT ( * ) SI_UNIT ( $, .STERADIAN. ) SOLID_ANGLE_UNIT ( ) );
#33 = ORIENTED_EDGE ( 'NONE', *, *, #158, .T. ) ;
#34 = AXIS2_PLACEMENT_3D ( 'NONE', #241, #105, #166 ) ;
#35 = ORIENTED_EDGE ( 'NONE', *, *, #81, .T. ) ;
#36 =( LENGTH_UNIT ( ) NAMED_UNIT ( * ) SI_UNIT ( $, .METRE. ) );
#37 = DIRECTION ( 'NONE',  ( 1.000000000000000000, 0.0000000000000000000, 0.0000000000000000000 ) ) ;
#38 = AXIS2_PLACEMENT_3D ( 'NONE', #117, #5, #66 ) ;
#39 = DIRECTION ( 'NONE',  ( 1.000000000000000000, 0.0000000000000000000, 0.0000000000000000000 ) ) ;
#40 = DIRECTION ( 'NONE',  ( -1.000000000000000000, 0.0000000000000000000, 0.0000000000000000000 ) ) ;
#41 = DIRECTION ( 'NONE',  ( 1.000000000000000000, 0.0000000000000000000, -0.0000000000000000000 ) ) ;
#42 = ORIENTED_EDGE ( 'NONE', *, *, #243, .T. ) ;
#43 = PRESENTATION_LAYER_ASSIGNMENT (  '', '', ( #9 ) ) ;
#44 = EDGE_LOOP ( 'NONE', ( #58, #57, #201, #128 ) ) ;
#45 = EDGE_CURVE ( 'NONE', #209, #59, #239, .T. ) ;
#46 = CARTESIAN_POINT ( 'NONE',  ( 0.0000000000000000000, 0.0000000000000000000, 4.000000000000000000 ) ) ;
#47 = LINE ( 'NONE', #23, #175 ) ;
#48 = CIRCLE ( 'NONE', #115, 0.1100000000000001948 ) ;
#49 = EDGE_CURVE ( 'NONE', #103, #188, #104, .T. ) ;
#50 = LINE ( 'NONE', #82, #146 ) ;
#51 = DIRECTION ( 'NONE',  ( -0.0000000000000000000, -0.0000000000000000000, -1.000000000000000000 ) ) ;
#52 = AXIS2_PLACEMENT_3D ( 'NONE', #153, #148, #227 ) ;
#53 = ADVANCED_BREP_SHAPE_REPRESENTATION ( 'Micro_RNC-250-14', ( #149, #134 ), #163 ) ;
#54 = FILL_AREA_STYLE ('',( #11 ) ) ;
#55 = ORIENTED_EDGE ( 'NONE', *, *, #213, .T. ) ;
#56 = SHAPE_DEFINITION_REPRESENTATION ( #249, #53 ) ;
#57 = ORIENTED_EDGE ( 'NONE', *, *, #174, .F. ) ;
#58 = ORIENTED_EDGE ( 'NONE', *, *, #224, .F. ) ;
#59 = VERTEX_POINT ( 'NONE', #169 ) ;
#60 = EDGE_LOOP ( 'NONE', ( #244, #33 ) ) ;
#61 = CARTESIAN_POINT ( 'NONE',  ( 0.0000000000000000000, 0.0000000000000000000, 0.0000000000000000000 ) ) ;
#62 = ORIENTED_EDGE ( 'NONE', *, *, #109, .F. ) ;
#63 = AXIS2_PLACEMENT_3D ( 'NONE', #108, #190, #20 ) ;
#64 = ADVANCED_FACE ( 'NONE', ( #76 ), #229, .T. ) ;
#65 = DIRECTION ( 'NONE',  ( 1.000000000000000000, 0.0000000000000000000, 0.0000000000000000000 ) ) ;
#66 = DIRECTION ( 'NONE',  ( -1.000000000000000000, 0.0000000000000000000, 0.0000000000000000000 ) ) ;
#67 = DIRECTION ( 'NONE',  ( -1.000000000000000000, 0.0000000000000000000, 0.0000000000000000000 ) ) ;
#68 = FACE_OUTER_BOUND ( 'NONE', #245, .T. ) ;
#69 =( CONVERSION_BASED_UNIT ( 'INCH', #161 ) LENGTH_UNIT ( ) NAMED_UNIT ( #18 ) );
#70 = VECTOR ( 'NONE', #232, 39.37007874015748143 ) ;
#71 = ORIENTED_EDGE ( 'NONE', *, *, #158, .F. ) ;
#72 = UNCERTAINTY_MEASURE_WITH_UNIT (LENGTH_MEASURE( 1.000000000000000082E-05 ), #121, 'distance_accuracy_value', 'NONE');
#73 = VECTOR ( 'NONE', #172, 39.37007874015748143 ) ;
#74 = EDGE_LOOP ( 'NONE', ( #185, #216, #10, #127 ) ) ;
#75 = FILL_AREA_STYLE ('',( #90 ) ) ;
#76 = FACE_OUTER_BOUND ( 'NONE', #206, .T. ) ;
#77 = DIRECTION ( 'NONE',  ( -0.0000000000000000000, -0.0000000000000000000, -1.000000000000000000 ) ) ;
#78 = DIRECTION ( 'NONE',  ( 0.0000000000000000000, 0.0000000000000000000, -1.000000000000000000 ) ) ;
#79 = CIRCLE ( 'NONE', #230, 0.1250000000000000000 ) ;
#80 = CARTESIAN_POINT ( 'NONE',  ( -0.003999999999999994879, 4.898587196589406797E-19, 0.0000000000000000000 ) ) ;
#81 = EDGE_CURVE ( 'NONE', #200, #222, #93, .T. ) ;
#82 = CARTESIAN_POINT ( 'NONE',  ( -0.1250000000000000000, 0.0000000000000000000, 4.000000000000000000 ) ) ;
#83 = DIRECTION ( 'NONE',  ( 0.0000000000000000000, 0.0000000000000000000, 1.000000000000000000 ) ) ;
#84 = CARTESIAN_POINT ( 'NONE',  ( 0.1100000000000001948, 1.347111479062090784E-17, 4.000000000000000000 ) ) ;
#85 = FACE_OUTER_BOUND ( 'NONE', #143, .T. ) ;
#86 = CONICAL_SURFACE ( 'NONE', #183, 0.003999999999999994879, 0.7853981633974508325 ) ;
#87 = CARTESIAN_POINT ( 'NONE',  ( 0.0000000000000000000, 0.0000000000000000000, 0.0000000000000000000 ) ) ;
#88 =( LENGTH_UNIT ( ) NAMED_UNIT ( * ) SI_UNIT ( $, .METRE. ) );
#89 = UNCERTAINTY_MEASURE_WITH_UNIT (LENGTH_MEASURE( 1.000000000000000082E-05 ), #154, 'distance_accuracy_value', 'NONE');
#90 = FILL_AREA_STYLE_COLOUR ( '', #111 ) ;
#91 = DIMENSIONAL_EXPONENTS ( 1.000000000000000000, 0.0000000000000000000, 0.0000000000000000000, 0.0000000000000000000, 0.0000000000000000000, 0.0000000000000000000, 0.0000000000000000000 ) ;
#92 = CARTESIAN_POINT ( 'NONE',  ( -0.1100000000000001948, 0.0000000000000000000, 4.000000000000000000 ) ) ;
#93 = CIRCLE ( 'NONE', #162, 0.003999999999999994879 ) ;
#94 = CARTESIAN_POINT ( 'NONE',  ( 0.0000000000000000000, 0.0000000000000000000, 3.985000000000000320 ) ) ;
#95 = CARTESIAN_POINT ( 'NONE',  ( 0.1250000000000000000, 1.530808498934191509E-17, 3.985000000000000320 ) ) ;
#96 = CARTESIAN_POINT ( 'NONE',  ( -0.1100000000000001948, 0.0000000000000000000, 4.000000000000000000 ) ) ;
#97 = LINE ( 'NONE', #84, #151 ) ;
#98 = UNCERTAINTY_MEASURE_WITH_UNIT (LENGTH_MEASURE( 1.000000000000000082E-05 ), #69, 'distance_accuracy_value', 'NONE');
#99 = APPLICATION_CONTEXT ( 'automotive_design' ) ;
#100 = DIRECTION ( 'NONE',  ( 0.0000000000000000000, 0.0000000000000000000, 1.000000000000000000 ) ) ;
#101 = PRESENTATION_STYLE_ASSIGNMENT (( #215 ) ) ;
#102 = EDGE_LOOP ( 'NONE', ( #168, #35 ) ) ;
#103 = VERTEX_POINT ( 'NONE', #95 ) ;
#104 = CIRCLE ( 'NONE', #170, 0.1250000000000000000 ) ;
#105 = DIRECTION ( 'NONE',  ( 0.0000000000000000000, 0.0000000000000000000, 1.000000000000000000 ) ) ;
#106 = EDGE_CURVE ( 'NONE', #19, #188, #131, .T. ) ;
#107 = PRESENTATION_STYLE_ASSIGNMENT (( #225 ) ) ;
#108 = CARTESIAN_POINT ( 'NONE',  ( 0.0000000000000000000, 0.0000000000000000000, 0.1209999999999993997 ) ) ;
#109 = EDGE_CURVE ( 'NONE', #103, #209, #1, .T. ) ;
#110 = PRODUCT ( 'Micro_RNC-250-14', 'Micro_RNC-250-14', '', ( #141 ) ) ;
#111 = COLOUR_RGB ( '',0.7921568627450980005, 0.8196078431372548767, 0.9333333333333333481 ) ;
#112 = ORIENTED_EDGE ( 'NONE', *, *, #109, .T. ) ;
#113 = ORIENTED_EDGE ( 'NONE', *, *, #213, .F. ) ;
#114 = CARTESIAN_POINT ( 'NONE',  ( 0.1250000000000000000, 1.530808498934191509E-17, 0.1209999999999993997 ) ) ;
#115 = AXIS2_PLACEMENT_3D ( 'NONE', #136, #116, #212 ) ;
#116 = DIRECTION ( 'NONE',  ( 0.0000000000000000000, 0.0000000000000000000, 1.000000000000000000 ) ) ;
#117 = CARTESIAN_POINT ( 'NONE',  ( 0.0000000000000000000, 0.0000000000000000000, 4.000000000000000000 ) ) ;
#118 = EDGE_CURVE ( 'NONE', #188, #103, #220, .T. ) ;
#119 = DIRECTION ( 'NONE',  ( -0.0000000000000000000, -0.0000000000000000000, -1.000000000000000000 ) ) ;
#120 = CONICAL_SURFACE ( 'NONE', #38, 0.1100000000000001948, 0.7853981633974517207 ) ;
#121 =( CONVERSION_BASED_UNIT ( 'INCH', #165 ) LENGTH_UNIT ( ) NAMED_UNIT ( #91 ) );
#122 = ORIENTED_EDGE ( 'NONE', *, *, #106, .F. ) ;
#123 = SURFACE_SIDE_STYLE ('',( #221 ) ) ;
#124 = PRODUCT_DEFINITION_CONTEXT ( 'detailed design', #126, 'design' ) ;
#125 =( NAMED_UNIT ( * ) SI_UNIT ( $, .STERADIAN. ) SOLID_ANGLE_UNIT ( ) );
#126 = APPLICATION_CONTEXT ( 'automotive_design' ) ;
#127 = ORIENTED_EDGE ( 'NONE', *, *, #45, .T. ) ;
#128 = ORIENTED_EDGE ( 'NONE', *, *, #49, .F. ) ;
#129 = CIRCLE ( 'NONE', #191, 0.003999999999999994879 ) ;
#130 = COLOUR_RGB ( '',0.7921568627450980005, 0.8196078431372548767, 0.9333333333333333481 ) ;
#131 = LINE ( 'NONE', #96, #73 ) ;
#132 = DIRECTION ( 'NONE',  ( 0.0000000000000000000, 0.0000000000000000000, 1.000000000000000000 ) ) ;
#133 = DIRECTION ( 'NONE',  ( -0.0000000000000000000, -0.0000000000000000000, -1.000000000000000000 ) ) ;
#134 = AXIS2_PLACEMENT_3D ( 'NONE', #87, #238, #37 ) ;
#135 = CARTESIAN_POINT ( 'NONE',  ( 0.1250000000000000000, 1.530808498934191509E-17, 4.000000000000000000 ) ) ;
#136 = CARTESIAN_POINT ( 'NONE',  ( 0.0000000000000000000, 0.0000000000000000000, 4.000000000000000000 ) ) ;
#137 = CARTESIAN_POINT ( 'NONE',  ( -0.1250000000000000000, 0.0000000000000000000, 3.985000000000000320 ) ) ;
#138 = CONICAL_SURFACE ( 'NONE', #34, 0.003999999999999994879, 0.7853981633974508325 ) ;
#139 = FACE_OUTER_BOUND ( 'NONE', #44, .T. ) ;
#140 = PRODUCT_RELATED_PRODUCT_CATEGORY ( 'part', '', ( #110 ) ) ;
#141 = PRODUCT_CONTEXT ( 'NONE', #99, 'mechanical' ) ;
#142 = AXIS2_PLACEMENT_3D ( 'NONE', #192, #132, #41 ) ;
#143 = EDGE_LOOP ( 'NONE', ( #62, #194, #55, #171 ) ) ;
#144 = ORIENTED_EDGE ( 'NONE', *, *, #118, .F. ) ;
#145 = SURFACE_STYLE_FILL_AREA ( #75 ) ;
#146 = VECTOR ( 'NONE', #119, 39.37007874015748143 ) ;
#147 = ORIENTED_EDGE ( 'NONE', *, *, #224, .T. ) ;
#148 = DIRECTION ( 'NONE',  ( -0.0000000000000000000, -0.0000000000000000000, -1.000000000000000000 ) ) ;
#149 = MANIFOLD_SOLID_BREP ( 'Cut-Revolve1', #157 ) ;
#150 = DIRECTION ( 'NONE',  ( 1.000000000000000000, 0.0000000000000000000, 0.0000000000000000000 ) ) ;
#151 = VECTOR ( 'NONE', #159, 39.37007874015748143 ) ;
#152 = AXIS2_PLACEMENT_3D ( 'NONE', #231, #31, #65 ) ;
#153 = CARTESIAN_POINT ( 'NONE',  ( 0.0000000000000000000, 0.0000000000000000000, 4.000000000000000000 ) ) ;
#154 =( CONVERSION_BASED_UNIT ( 'INCH', #233 ) LENGTH_UNIT ( ) NAMED_UNIT ( #189 ) );
#155 = CARTESIAN_POINT ( 'NONE',  ( 0.003999999999999994879, 0.0000000000000000000, 0.0000000000000000000 ) ) ;
#156 = FACE_OUTER_BOUND ( 'NONE', #223, .T. ) ;
#157 = CLOSED_SHELL ( 'NONE', ( #237, #219, #64, #167, #15, #193, #247, #182 ) ) ;
#158 = EDGE_CURVE ( 'NONE', #207, #19, #234, .T. ) ;
#159 = DIRECTION ( 'NONE',  ( 0.7071067811865499042, 8.659560562354961208E-17, -0.7071067811865451302 ) ) ;
#160 = CARTESIAN_POINT ( 'NONE',  ( -0.003999999999999994879, 7.898971854500427644E-18, 0.0000000000000000000 ) ) ;
#161 = LENGTH_MEASURE_WITH_UNIT ( LENGTH_MEASURE( 0.02539999999999999897 ), #88 );
#162 = AXIS2_PLACEMENT_3D ( 'NONE', #61, #133, #40 ) ;
#163 =( GEOMETRIC_REPRESENTATION_CONTEXT ( 3 ) GLOBAL_UNCERTAINTY_ASSIGNED_CONTEXT ( ( #72 ) ) GLOBAL_UNIT_ASSIGNED_CONTEXT ( ( #121, #181, #32 ) ) REPRESENTATION_CONTEXT ( 'NONE', 'WORKASPACE' ) );
#164 = APPLICATION_PROTOCOL_DEFINITION ( 'draft international standard', 'automotive_design', 1998, #99 ) ;
#165 = LENGTH_MEASURE_WITH_UNIT ( LENGTH_MEASURE( 0.02539999999999999897 ), #36 );
#166 = DIRECTION ( 'NONE',  ( 1.000000000000000000, 0.0000000000000000000, 0.0000000000000000000 ) ) ;
#167 = ADVANCED_FACE ( 'NONE', ( #85 ), #178, .T. ) ;
#168 = ORIENTED_EDGE ( 'NONE', *, *, #28, .T. ) ;
#169 = CARTESIAN_POINT ( 'NONE',  ( -0.1250000000000000000, 0.0000000000000000000, 0.1209999999999993997 ) ) ;
#170 = AXIS2_PLACEMENT_3D ( 'NONE', #94, #21, #150 ) ;
#171 = ORIENTED_EDGE ( 'NONE', *, *, #45, .F. ) ;
#172 = DIRECTION ( 'NONE',  ( -0.7071067811865499042, 0.0000000000000000000, -0.7071067811865451302 ) ) ;
#173 = DIRECTION ( 'NONE',  ( -0.0000000000000000000, -0.0000000000000000000, -1.000000000000000000 ) ) ;
#174 = EDGE_CURVE ( 'NONE', #19, #207, #48, .T. ) ;
#175 = VECTOR ( 'NONE', #235, 39.37007874015748143 ) ;
#176 =( NAMED_UNIT ( * ) PLANE_ANGLE_UNIT ( ) SI_UNIT ( $, .RADIAN. ) );
#177 =( LENGTH_UNIT ( ) NAMED_UNIT ( * ) SI_UNIT ( $, .METRE. ) );
#178 = CYLINDRICAL_SURFACE ( 'NONE', #24, 0.1250000000000000000 ) ;
#179 = DIRECTION ( 'NONE',  ( 1.000000000000000000, 0.0000000000000000000, -0.0000000000000000000 ) ) ;
#180 = DIRECTION ( 'NONE',  ( 1.000000000000000000, 0.0000000000000000000, 0.0000000000000000000 ) ) ;
#181 =( NAMED_UNIT ( * ) PLANE_ANGLE_UNIT ( ) SI_UNIT ( $, .RADIAN. ) );
#182 = ADVANCED_FACE ( 'NONE', ( #27 ), #236, .F. ) ;
#183 = AXIS2_PLACEMENT_3D ( 'NONE', #198, #100, #180 ) ;
#184 = ORIENTED_EDGE ( 'NONE', *, *, #202, .T. ) ;
#185 = ORIENTED_EDGE ( 'NONE', *, *, #243, .F. ) ;
#186 = APPLICATION_PROTOCOL_DEFINITION ( 'draft international standard', 'automotive_design', 1998, #126 ) ;
#187 = CONICAL_SURFACE ( 'NONE', #214, 0.1100000000000001948, 0.7853981633974517207 ) ;
#188 = VERTEX_POINT ( 'NONE', #137 ) ;
#189 = DIMENSIONAL_EXPONENTS ( 1.000000000000000000, 0.0000000000000000000, 0.0000000000000000000, 0.0000000000000000000, 0.0000000000000000000, 0.0000000000000000000, 0.0000000000000000000 ) ;
#190 = DIRECTION ( 'NONE',  ( -0.0000000000000000000, -0.0000000000000000000, -1.000000000000000000 ) ) ;
#191 = AXIS2_PLACEMENT_3D ( 'NONE', #17, #77, #22 ) ;
#192 = CARTESIAN_POINT ( 'NONE',  ( 0.0000000000000000000, 0.0000000000000000000, 4.000000000000000000 ) ) ;
#193 = ADVANCED_FACE ( 'NONE', ( #139 ), #120, .T. ) ;
#194 = ORIENTED_EDGE ( 'NONE', *, *, #49, .T. ) ;
#195 = CARTESIAN_POINT ( 'NONE',  ( 0.1100000000000001948, 1.438959988998141146E-17, 4.000000000000000000 ) ) ;
#196 = PRESENTATION_LAYER_ASSIGNMENT (  '', '', ( #30 ) ) ;
#197 = DIRECTION ( 'NONE',  ( 0.0000000000000000000, 0.0000000000000000000, -1.000000000000000000 ) ) ;
#198 = CARTESIAN_POINT ( 'NONE',  ( 0.0000000000000000000, 0.0000000000000000000, 0.0000000000000000000 ) ) ;
#199 =( GEOMETRIC_REPRESENTATION_CONTEXT ( 3 ) GLOBAL_UNCERTAINTY_ASSIGNED_CONTEXT ( ( #89 ) ) GLOBAL_UNIT_ASSIGNED_CONTEXT ( ( #154, #176, #26 ) ) REPRESENTATION_CONTEXT ( 'NONE', 'WORKASPACE' ) );
#200 = VERTEX_POINT ( 'NONE', #160 ) ;
#201 = ORIENTED_EDGE ( 'NONE', *, *, #106, .T. ) ;
#202 = EDGE_CURVE ( 'NONE', #59, #209, #79, .T. ) ;
#203 = ORIENTED_EDGE ( 'NONE', *, *, #202, .F. ) ;
#204 = ORIENTED_EDGE ( 'NONE', *, *, #118, .T. ) ;
#205 = SURFACE_SIDE_STYLE ('',( #145 ) ) ;
#206 = EDGE_LOOP ( 'NONE', ( #204, #112, #203, #113 ) ) ;
#207 = VERTEX_POINT ( 'NONE', #195 ) ;
#208 = EDGE_CURVE ( 'NONE', #222, #209, #47, .T. ) ;
#209 = VERTEX_POINT ( 'NONE', #114 ) ;
#210 = CARTESIAN_POINT ( 'NONE',  ( 0.0000000000000000000, 0.0000000000000000000, 4.000000000000000000 ) ) ;
#211 = DIRECTION ( 'NONE',  ( -1.000000000000000000, 0.0000000000000000000, 0.0000000000000000000 ) ) ;
#212 = DIRECTION ( 'NONE',  ( 1.000000000000000000, 0.0000000000000000000, 0.0000000000000000000 ) ) ;
#213 = EDGE_CURVE ( 'NONE', #188, #59, #50, .T. ) ;
#214 = AXIS2_PLACEMENT_3D ( 'NONE', #210, #197, #29 ) ;
#215 = SURFACE_STYLE_USAGE ( .BOTH. , #123 ) ;
#216 = ORIENTED_EDGE ( 'NONE', *, *, #28, .F. ) ;
#217 = FACE_OUTER_BOUND ( 'NONE', #74, .T. ) ;
#218 = ORIENTED_EDGE ( 'NONE', *, *, #208, .F. ) ;
#219 = ADVANCED_FACE ( 'NONE', ( #156 ), #187, .T. ) ;
#220 = CIRCLE ( 'NONE', #14, 0.1250000000000000000 ) ;
#221 = SURFACE_STYLE_FILL_AREA ( #54 ) ;
#222 = VERTEX_POINT ( 'NONE', #155 ) ;
#223 = EDGE_LOOP ( 'NONE', ( #71, #147, #144, #122 ) ) ;
#224 = EDGE_CURVE ( 'NONE', #207, #103, #97, .T. ) ;
#225 = SURFACE_STYLE_USAGE ( .BOTH. , #205 ) ;
#226 = FACE_OUTER_BOUND ( 'NONE', #60, .T. ) ;
#227 = DIRECTION ( 'NONE',  ( -1.000000000000000000, 0.0000000000000000000, 0.0000000000000000000 ) ) ;
#228 = PRODUCT_DEFINITION ( 'UNKNOWN', '', #25, #124 ) ;
#229 = CYLINDRICAL_SURFACE ( 'NONE', #52, 0.1250000000000000000 ) ;
#230 = AXIS2_PLACEMENT_3D ( 'NONE', #7, #51, #211 ) ;
#231 = CARTESIAN_POINT ( 'NONE',  ( 0.0000000000000000000, 0.0000000000000000000, 4.000000000000000000 ) ) ;
#232 = DIRECTION ( 'NONE',  ( -0.7071067811865493491, 8.659560562354955045E-17, 0.7071067811865457964 ) ) ;
#233 = LENGTH_MEASURE_WITH_UNIT ( LENGTH_MEASURE( 0.02539999999999999897 ), #177 );
#234 = CIRCLE ( 'NONE', #152, 0.1100000000000001948 ) ;
#235 = DIRECTION ( 'NONE',  ( 0.7071067811865493491, 0.0000000000000000000, 0.7071067811865457964 ) ) ;
#236 = PLANE ( 'NONE',  #3 ) ;
#237 = ADVANCED_FACE ( 'NONE', ( #68 ), #86, .T. ) ;
#238 = DIRECTION ( 'NONE',  ( 0.0000000000000000000, 0.0000000000000000000, 1.000000000000000000 ) ) ;
#239 = CIRCLE ( 'NONE', #63, 0.1250000000000000000 ) ;
#240 = MECHANICAL_DESIGN_GEOMETRIC_PRESENTATION_REPRESENTATION (  '', ( #30 ), #16 ) ;
#241 = CARTESIAN_POINT ( 'NONE',  ( 0.0000000000000000000, 0.0000000000000000000, 0.0000000000000000000 ) ) ;
#242 = MECHANICAL_DESIGN_GEOMETRIC_PRESENTATION_REPRESENTATION (  '', ( #9 ), #199 ) ;
#243 = EDGE_CURVE ( 'NONE', #200, #59, #8, .T. ) ;
#244 = ORIENTED_EDGE ( 'NONE', *, *, #174, .T. ) ;
#245 = EDGE_LOOP ( 'NONE', ( #12, #42, #184, #218 ) ) ;
#246 = VECTOR ( 'NONE', #173, 39.37007874015748143 ) ;
#247 = ADVANCED_FACE ( 'NONE', ( #217 ), #138, .T. ) ;
#248 = PLANE ( 'NONE',  #142 ) ;
#249 = PRODUCT_DEFINITION_SHAPE ( 'NONE', 'NONE',  #228 ) ;
ENDSEC;
END-ISO-10303-21;
