ISO-10303-21;
HEADER;
FILE_DESCRIPTION (( 'STEP AP214' ),
    '1' );
FILE_NAME ('81562.STEP',
    '2023-06-23T02:00:36',
    ( '' ),
    ( '' ),
    'SwSTEP 2.0',
    'SolidWorks 2023',
    '' );
FILE_SCHEMA (( 'AUTOMOTIVE_DESIGN' ));
ENDSEC;

DATA;
#1 = CARTESIAN_POINT ( 'NONE',  ( 0.000000000000000000, 2.000000000000000000, 0.000000000000000000 ) ) ;
#2 = CIRCLE ( 'NONE', #43, 0.3750000000000000555 ) ;
#3 = CIRCLE ( 'NONE', #44, 0.3750000000000000555 ) ;
#4 = UNCERTAINTY_MEASURE_WITH_UNIT (LENGTH_MEASURE( 1.000000000000000082E-05 ), #213, 'distance_accuracy_value', 'NONE');
#5 = LENGTH_MEASURE_WITH_UNIT ( LENGTH_MEASURE( 0.02539999999999999897 ), #53 );
#6 = ORIENTED_EDGE ( 'NONE', *, *, #32, .F. ) ;
#7 = AXIS2_PLACEMENT_3D ( 'NONE', #269, #56, #250 ) ;
#8 = EDGE_CURVE ( 'NONE', #200, #247, #2, .T. ) ;
#9 =( NAMED_UNIT ( * ) SI_UNIT ( $, .STERADIAN. ) SOLID_ANGLE_UNIT ( ) );
#10 = SURFACE_SIDE_STYLE ('',( #142 ) ) ;
#11 =( GEOMETRIC_REPRESENTATION_CONTEXT ( 3 ) GLOBAL_UNCERTAINTY_ASSIGNED_CONTEXT ( ( #245 ) ) GLOBAL_UNIT_ASSIGNED_CONTEXT ( ( #308, #190, #74 ) ) REPRESENTATION_CONTEXT ( 'NONE', 'WORKASPACE' ) );
#12 = CARTESIAN_POINT ( 'NONE',  ( 0.000000000000000000, 0.000000000000000000, 0.000000000000000000 ) ) ;
#13 = PRESENTATION_STYLE_ASSIGNMENT (( #206 ) ) ;
#14 = PLANE ( 'NONE',  #205 ) ;
#15 =( CONVERSION_BASED_UNIT ( 'INCH', #154 ) LENGTH_UNIT ( ) NAMED_UNIT ( #199 ) );
#16 =( LENGTH_UNIT ( ) NAMED_UNIT ( * ) SI_UNIT ( $, .METRE. ) );
#17 =( NAMED_UNIT ( * ) PLANE_ANGLE_UNIT ( ) SI_UNIT ( $, .RADIAN. ) );
#18 = LENGTH_MEASURE_WITH_UNIT ( LENGTH_MEASURE( 0.02539999999999999897 ), #160 );
#19 = PRESENTATION_LAYER_ASSIGNMENT (  '', '', ( #95 ) ) ;
#20 = FILL_AREA_STYLE_COLOUR ( '', #253 ) ;
#21 = CARTESIAN_POINT ( 'NONE',  ( 0.000000000000000000, 2.000000000000000000, 0.000000000000000000 ) ) ;
#22 = DIRECTION ( 'NONE',  ( -0.000000000000000000, -1.000000000000000000, -0.000000000000000000 ) ) ;
#23 = APPLICATION_PROTOCOL_DEFINITION ( 'draft international standard', 'automotive_design', 1998, #216 ) ;
#24 = PRODUCT_RELATED_PRODUCT_CATEGORY ( 'part', '', ( #221 ) ) ;
#25 = ORIENTED_EDGE ( 'NONE', *, *, #148, .T. ) ;
#26 = UNCERTAINTY_MEASURE_WITH_UNIT (LENGTH_MEASURE( 1.000000000000000082E-05 ), #289, 'distance_accuracy_value', 'NONE');
#27 = DIRECTION ( 'NONE',  ( 0.000000000000000000, -1.000000000000000000, -0.000000000000000000 ) ) ;
#28 = ORIENTED_EDGE ( 'NONE', *, *, #72, .T. ) ;
#29 = STYLED_ITEM ( 'NONE', ( #98 ), #242 ) ;
#30 =( NAMED_UNIT ( * ) PLANE_ANGLE_UNIT ( ) SI_UNIT ( $, .RADIAN. ) );
#31 = SURFACE_SIDE_STYLE ('',( #62 ) ) ;
#32 = EDGE_CURVE ( 'NONE', #262, #202, #302, .T. ) ;
#33 = CARTESIAN_POINT ( 'NONE',  ( 0.000000000000000000, 0.000000000000000000, 0.000000000000000000 ) ) ;
#34 = DIRECTION ( 'NONE',  ( 0.000000000000000000, 0.000000000000000000, -1.000000000000000000 ) ) ;
#35 = CYLINDRICAL_SURFACE ( 'NONE', #66, 0.3750000000000000555 ) ;
#36 = AXIS2_PLACEMENT_3D ( 'NONE', #134, #91, #184 ) ;
#37 = CARTESIAN_POINT ( 'NONE',  ( 0.000000000000000000, 2.000000000000000000, 0.000000000000000000 ) ) ;
#38 = FILL_AREA_STYLE ('',( #110 ) ) ;
#39 = FILL_AREA_STYLE ('',( #124 ) ) ;
#40 = FACE_OUTER_BOUND ( 'NONE', #150, .T. ) ;
#41 = ORIENTED_EDGE ( 'NONE', *, *, #222, .F. ) ;
#42 = LINE ( 'NONE', #215, #229 ) ;
#43 = AXIS2_PLACEMENT_3D ( 'NONE', #12, #90, #259 ) ;
#44 = AXIS2_PLACEMENT_3D ( 'NONE', #106, #46, #283 ) ;
#45 =( GEOMETRIC_REPRESENTATION_CONTEXT ( 3 ) GLOBAL_UNCERTAINTY_ASSIGNED_CONTEXT ( ( #173 ) ) GLOBAL_UNIT_ASSIGNED_CONTEXT ( ( #143, #102, #76 ) ) REPRESENTATION_CONTEXT ( 'NONE', 'WORKASPACE' ) );
#46 = DIRECTION ( 'NONE',  ( -0.000000000000000000, -1.000000000000000000, -0.000000000000000000 ) ) ;
#47 = ADVANCED_BREP_SHAPE_REPRESENTATION ( '81562', ( #242, #243, #149 ), #45 ) ;
#48 = COLOUR_RGB ( '',1.000000000000000000, 0.000000000000000000, 0.000000000000000000 ) ;
#49 = DIMENSIONAL_EXPONENTS ( 1.000000000000000000, 0.000000000000000000, 0.000000000000000000, 0.000000000000000000, 0.000000000000000000, 0.000000000000000000, 0.000000000000000000 ) ;
#50 = DIRECTION ( 'NONE',  ( 0.000000000000000000, 0.000000000000000000, -1.000000000000000000 ) ) ;
#51 = ADVANCED_FACE ( 'NONE', ( #40 ), #181, .F. ) ;
#52 = DIMENSIONAL_EXPONENTS ( 1.000000000000000000, 0.000000000000000000, 0.000000000000000000, 0.000000000000000000, 0.000000000000000000, 0.000000000000000000, 0.000000000000000000 ) ;
#53 =( LENGTH_UNIT ( ) NAMED_UNIT ( * ) SI_UNIT ( $, .METRE. ) );
#54 = CIRCLE ( 'NONE', #60, 0.3750000000000002220 ) ;
#55 = UNCERTAINTY_MEASURE_WITH_UNIT (LENGTH_MEASURE( 1.000000000000000082E-05 ), #121, 'distance_accuracy_value', 'NONE');
#56 = DIRECTION ( 'NONE',  ( -9.184850993605148438E-17, 1.000000000000000000, -0.000000000000000000 ) ) ;
#57 = DIMENSIONAL_EXPONENTS ( 1.000000000000000000, 0.000000000000000000, 0.000000000000000000, 0.000000000000000000, 0.000000000000000000, 0.000000000000000000, 0.000000000000000000 ) ;
#58 = SURFACE_STYLE_USAGE ( .BOTH. , #270 ) ;
#59 = VERTEX_POINT ( 'NONE', #116 ) ;
#60 = AXIS2_PLACEMENT_3D ( 'NONE', #71, #77, #88 ) ;
#61 = LINE ( 'NONE', #275, #79 ) ;
#62 = SURFACE_STYLE_FILL_AREA ( #38 ) ;
#63 = SURFACE_STYLE_USAGE ( .BOTH. , #10 ) ;
#64 = CARTESIAN_POINT ( 'NONE',  ( 0.3749999999999998890, 4.000000000000000000, 4.592425496802576068E-17 ) ) ;
#65 = DIRECTION ( 'NONE',  ( -1.000000000000000000, 0.000000000000000000, 0.000000000000000000 ) ) ;
#66 = AXIS2_PLACEMENT_3D ( 'NONE', #236, #115, #117 ) ;
#67 = STYLED_ITEM ( 'NONE', ( #204 ), #156 ) ;
#68 = SURFACE_SIDE_STYLE ('',( #189 ) ) ;
#69 = EDGE_LOOP ( 'NONE', ( #135, #187, #294, #86 ) ) ;
#70 = DIRECTION ( 'NONE',  ( 0.000000000000000000, 0.000000000000000000, 1.000000000000000000 ) ) ;
#71 = CARTESIAN_POINT ( 'NONE',  ( -1.836970198721029688E-16, 4.000000000000000000, 0.000000000000000000 ) ) ;
#72 = EDGE_CURVE ( 'NONE', #159, #297, #217, .T. ) ;
#73 = ORIENTED_EDGE ( 'NONE', *, *, #279, .F. ) ;
#74 =( NAMED_UNIT ( * ) SI_UNIT ( $, .STERADIAN. ) SOLID_ANGLE_UNIT ( ) );
#75 = LINE ( 'NONE', #162, #126 ) ;
#76 =( NAMED_UNIT ( * ) SI_UNIT ( $, .STERADIAN. ) SOLID_ANGLE_UNIT ( ) );
#77 = DIRECTION ( 'NONE',  ( -9.184850993605148438E-17, 1.000000000000000000, -0.000000000000000000 ) ) ;
#78 = DIRECTION ( 'NONE',  ( -1.000000000000000000, 0.000000000000000000, 0.000000000000000000 ) ) ;
#79 = VECTOR ( 'NONE', #301, 39.37007874015748143 ) ;
#80 = PRESENTATION_LAYER_ASSIGNMENT (  '', '', ( #303 ) ) ;
#81 = CARTESIAN_POINT ( 'NONE',  ( -0.3750000000000004441, 4.000000000000000000, 0.000000000000000000 ) ) ;
#82 = CLOSED_SHELL ( 'NONE', ( #180, #104, #226, #51 ) ) ;
#83 = MECHANICAL_DESIGN_GEOMETRIC_PRESENTATION_REPRESENTATION (  '', ( #303 ), #152 ) ;
#84 = SURFACE_STYLE_FILL_AREA ( #295 ) ;
#85 = PLANE ( 'NONE',  #145 ) ;
#86 = ORIENTED_EDGE ( 'NONE', *, *, #8, .F. ) ;
#87 = MECHANICAL_DESIGN_GEOMETRIC_PRESENTATION_REPRESENTATION (  '', ( #95 ), #105 ) ;
#88 = DIRECTION ( 'NONE',  ( -1.000000000000000000, 0.000000000000000000, 0.000000000000000000 ) ) ;
#89 = DIRECTION ( 'NONE',  ( -1.000000000000000000, 0.000000000000000000, 0.000000000000000000 ) ) ;
#90 = DIRECTION ( 'NONE',  ( -0.000000000000000000, -1.000000000000000000, -0.000000000000000000 ) ) ;
#91 = DIRECTION ( 'NONE',  ( -0.000000000000000000, -1.000000000000000000, -0.000000000000000000 ) ) ;
#92 = CYLINDRICAL_SURFACE ( 'NONE', #291, 0.3750000000000001110 ) ;
#93 = DIRECTION ( 'NONE',  ( -0.000000000000000000, -1.000000000000000000, -0.000000000000000000 ) ) ;
#94 = EDGE_CURVE ( 'NONE', #202, #200, #61, .T. ) ;
#95 = STYLED_ITEM ( 'NONE', ( #238 ), #243 ) ;
#96 =( LENGTH_UNIT ( ) NAMED_UNIT ( * ) SI_UNIT ( $, .METRE. ) );
#97 = FILL_AREA_STYLE ('',( #20 ) ) ;
#98 = PRESENTATION_STYLE_ASSIGNMENT (( #100 ) ) ;
#99 = DIRECTION ( 'NONE',  ( 0.000000000000000000, 0.000000000000000000, -1.000000000000000000 ) ) ;
#100 = SURFACE_STYLE_USAGE ( .BOTH. , #68 ) ;
#101 = ADVANCED_FACE ( 'NONE', ( #261 ), #114, .T. ) ;
#102 =( NAMED_UNIT ( * ) PLANE_ANGLE_UNIT ( ) SI_UNIT ( $, .RADIAN. ) );
#103 = DIRECTION ( 'NONE',  ( 0.000000000000000000, 1.000000000000000000, 0.000000000000000000 ) ) ;
#104 = ADVANCED_FACE ( 'NONE', ( #137 ), #14, .F. ) ;
#105 =( GEOMETRIC_REPRESENTATION_CONTEXT ( 3 ) GLOBAL_UNCERTAINTY_ASSIGNED_CONTEXT ( ( #55 ) ) GLOBAL_UNIT_ASSIGNED_CONTEXT ( ( #121, #138, #233 ) ) REPRESENTATION_CONTEXT ( 'NONE', 'WORKASPACE' ) );
#106 = CARTESIAN_POINT ( 'NONE',  ( 0.000000000000000000, 0.000000000000000000, 0.000000000000000000 ) ) ;
#107 = PRODUCT_DEFINITION ( 'UNKNOWN', '', #196, #133 ) ;
#108 = CARTESIAN_POINT ( 'NONE',  ( 0.3750000000000000555, 2.000000000000000000, 4.592425496802576684E-17 ) ) ;
#109 = APPLICATION_CONTEXT ( 'automotive_design' ) ;
#110 = FILL_AREA_STYLE_COLOUR ( '', #171 ) ;
#111 = EDGE_CURVE ( 'NONE', #247, #200, #3, .T. ) ;
#112 = MECHANICAL_DESIGN_GEOMETRIC_PRESENTATION_REPRESENTATION (  '', ( #67 ), #146 ) ;
#113 =( NAMED_UNIT ( * ) PLANE_ANGLE_UNIT ( ) SI_UNIT ( $, .RADIAN. ) );
#114 = CYLINDRICAL_SURFACE ( 'NONE', #201, 0.3750000000000000555 ) ;
#115 = DIRECTION ( 'NONE',  ( -0.000000000000000000, -1.000000000000000000, -0.000000000000000000 ) ) ;
#116 = CARTESIAN_POINT ( 'NONE',  ( -0.3750000000000000555, 2.000000000000000000, 0.000000000000000000 ) ) ;
#117 = DIRECTION ( 'NONE',  ( 0.000000000000000000, 0.000000000000000000, -1.000000000000000000 ) ) ;
#118 = DIRECTION ( 'NONE',  ( 1.000000000000000000, 9.184850993605148438E-17, 0.000000000000000000 ) ) ;
#119 = STYLED_ITEM ( 'NONE', ( #191 ), #101 ) ;
#120 = MECHANICAL_DESIGN_GEOMETRIC_PRESENTATION_REPRESENTATION (  '', ( #268 ), #272 ) ;
#121 =( CONVERSION_BASED_UNIT ( 'INCH', #18 ) LENGTH_UNIT ( ) NAMED_UNIT ( #286 ) );
#122 = ORIENTED_EDGE ( 'NONE', *, *, #309, .T. ) ;
#123 = DIRECTION ( 'NONE',  ( 0.000000000000000000, -0.000000000000000000, 1.000000000000000000 ) ) ;
#124 = FILL_AREA_STYLE_COLOUR ( '', #235 ) ;
#125 = FACE_OUTER_BOUND ( 'NONE', #198, .T. ) ;
#126 = VECTOR ( 'NONE', #265, 39.37007874015748143 ) ;
#127 = UNCERTAINTY_MEASURE_WITH_UNIT (LENGTH_MEASURE( 1.000000000000000082E-05 ), #15, 'distance_accuracy_value', 'NONE');
#128 = COLOUR_RGB ( '',0.7921568627450980005, 0.8196078431372548767, 0.9333333333333333481 ) ;
#129 = ORIENTED_EDGE ( 'NONE', *, *, #8, .T. ) ;
#130 = DIMENSIONAL_EXPONENTS ( 1.000000000000000000, 0.000000000000000000, 0.000000000000000000, 0.000000000000000000, 0.000000000000000000, 0.000000000000000000, 0.000000000000000000 ) ;
#131 =( GEOMETRIC_REPRESENTATION_CONTEXT ( 3 ) GLOBAL_UNCERTAINTY_ASSIGNED_CONTEXT ( ( #4 ) ) GLOBAL_UNIT_ASSIGNED_CONTEXT ( ( #213, #30, #304 ) ) REPRESENTATION_CONTEXT ( 'NONE', 'WORKASPACE' ) );
#132 = ORIENTED_EDGE ( 'NONE', *, *, #94, .T. ) ;
#133 = PRODUCT_DEFINITION_CONTEXT ( 'detailed design', #216, 'design' ) ;
#134 = CARTESIAN_POINT ( 'NONE',  ( 0.000000000000000000, 2.000000000000000000, 0.000000000000000000 ) ) ;
#135 = ORIENTED_EDGE ( 'NONE', *, *, #94, .F. ) ;
#136 = SURFACE_STYLE_FILL_AREA ( #207 ) ;
#137 = FACE_OUTER_BOUND ( 'NONE', #227, .T. ) ;
#138 =( NAMED_UNIT ( * ) PLANE_ANGLE_UNIT ( ) SI_UNIT ( $, .RADIAN. ) );
#139 = DIRECTION ( 'NONE',  ( -9.184850993605148438E-17, 1.000000000000000000, -0.000000000000000000 ) ) ;
#140 =( LENGTH_UNIT ( ) NAMED_UNIT ( * ) SI_UNIT ( $, .METRE. ) );
#141 = SURFACE_STYLE_USAGE ( .BOTH. , #300 ) ;
#142 = SURFACE_STYLE_FILL_AREA ( #97 ) ;
#143 =( CONVERSION_BASED_UNIT ( 'INCH', #192 ) LENGTH_UNIT ( ) NAMED_UNIT ( #52 ) );
#144 = ORIENTED_EDGE ( 'NONE', *, *, #293, .F. ) ;
#145 = AXIS2_PLACEMENT_3D ( 'NONE', #21, #103, #123 ) ;
#146 =( GEOMETRIC_REPRESENTATION_CONTEXT ( 3 ) GLOBAL_UNCERTAINTY_ASSIGNED_CONTEXT ( ( #26 ) ) GLOBAL_UNIT_ASSIGNED_CONTEXT ( ( #289, #234, #9 ) ) REPRESENTATION_CONTEXT ( 'NONE', 'WORKASPACE' ) );
#147 = EDGE_LOOP ( 'NONE', ( #6, #73 ) ) ;
#148 = EDGE_CURVE ( 'NONE', #59, #161, #75, .T. ) ;
#149 = AXIS2_PLACEMENT_3D ( 'NONE', #285, #70, #267 ) ;
#150 = EDGE_LOOP ( 'NONE', ( #210, #252 ) ) ;
#151 = ORIENTED_EDGE ( 'NONE', *, *, #148, .F. ) ;
#152 =( GEOMETRIC_REPRESENTATION_CONTEXT ( 3 ) GLOBAL_UNCERTAINTY_ASSIGNED_CONTEXT ( ( #127 ) ) GLOBAL_UNIT_ASSIGNED_CONTEXT ( ( #15, #113, #231 ) ) REPRESENTATION_CONTEXT ( 'NONE', 'WORKASPACE' ) );
#153 = LENGTH_MEASURE_WITH_UNIT ( LENGTH_MEASURE( 0.02539999999999999897 ), #230 );
#154 = LENGTH_MEASURE_WITH_UNIT ( LENGTH_MEASURE( 0.02539999999999999897 ), #140 );
#155 = CARTESIAN_POINT ( 'NONE',  ( 0.000000000000000000, 0.000000000000000000, 0.000000000000000000 ) ) ;
#156 = ADVANCED_FACE ( 'NONE', ( #125 ), #220, .T. ) ;
#157 = FACE_OUTER_BOUND ( 'NONE', #147, .T. ) ;
#158 = LENGTH_MEASURE_WITH_UNIT ( LENGTH_MEASURE( 0.02539999999999999897 ), #96 );
#159 = VERTEX_POINT ( 'NONE', #108 ) ;
#160 =( LENGTH_UNIT ( ) NAMED_UNIT ( * ) SI_UNIT ( $, .METRE. ) );
#161 = VERTEX_POINT ( 'NONE', #81 ) ;
#162 = CARTESIAN_POINT ( 'NONE',  ( -0.3750000000000002776, 4.000000000000000000, 0.000000000000000000 ) ) ;
#163 = APPLICATION_PROTOCOL_DEFINITION ( 'draft international standard', 'automotive_design', 1998, #109 ) ;
#164 = AXIS2_PLACEMENT_3D ( 'NONE', #33, #27, #50 ) ;
#165 = FILL_AREA_STYLE_COLOUR ( '', #128 ) ;
#166 = PRODUCT_DEFINITION_SHAPE ( 'NONE', 'NONE',  #107 ) ;
#167 = DIMENSIONAL_EXPONENTS ( 1.000000000000000000, 0.000000000000000000, 0.000000000000000000, 0.000000000000000000, 0.000000000000000000, 0.000000000000000000, 0.000000000000000000 ) ;
#168 = FILL_AREA_STYLE_COLOUR ( '', #266 ) ;
#169 = AXIS2_PLACEMENT_3D ( 'NONE', #183, #260, #118 ) ;
#170 = PRESENTATION_LAYER_ASSIGNMENT (  '', '', ( #67 ) ) ;
#171 = COLOUR_RGB ( '',1.000000000000000000, 0.000000000000000000, 0.000000000000000000 ) ;
#172 = FACE_OUTER_BOUND ( 'NONE', #174, .T. ) ;
#173 = UNCERTAINTY_MEASURE_WITH_UNIT (LENGTH_MEASURE( 1.000000000000000082E-05 ), #143, 'distance_accuracy_value', 'NONE');
#174 = EDGE_LOOP ( 'NONE', ( #277, #28, #178, #151 ) ) ;
#175 = PRESENTATION_STYLE_ASSIGNMENT (( #58 ) ) ;
#176 = AXIS2_PLACEMENT_3D ( 'NONE', #37, #282, #99 ) ;
#177 = AXIS2_PLACEMENT_3D ( 'NONE', #232, #296, #89 ) ;
#178 = ORIENTED_EDGE ( 'NONE', *, *, #194, .F. ) ;
#179 = CARTESIAN_POINT ( 'NONE',  ( 4.592425496802575451E-17, 0.000000000000000000, 0.3750000000000000555 ) ) ;
#180 = ADVANCED_FACE ( 'NONE', ( #172 ), #276, .T. ) ;
#181 = PLANE ( 'NONE',  #169 ) ;
#182 = FACE_OUTER_BOUND ( 'NONE', #306, .T. ) ;
#183 = CARTESIAN_POINT ( 'NONE',  ( 0.3750000000000000555, 4.000000000000000000, 0.000000000000000000 ) ) ;
#184 = DIRECTION ( 'NONE',  ( 0.000000000000000000, 0.000000000000000000, -1.000000000000000000 ) ) ;
#185 = DIRECTION ( 'NONE',  ( -9.184850993605148438E-17, 1.000000000000000000, -0.000000000000000000 ) ) ;
#186 = CLOSED_SHELL ( 'NONE', ( #257, #298, #101, #156 ) ) ;
#187 = ORIENTED_EDGE ( 'NONE', *, *, #279, .T. ) ;
#188 = AXIS2_PLACEMENT_3D ( 'NONE', #278, #237, #65 ) ;
#189 = SURFACE_STYLE_FILL_AREA ( #280 ) ;
#190 =( NAMED_UNIT ( * ) PLANE_ANGLE_UNIT ( ) SI_UNIT ( $, .RADIAN. ) );
#191 = PRESENTATION_STYLE_ASSIGNMENT (( #63 ) ) ;
#192 = LENGTH_MEASURE_WITH_UNIT ( LENGTH_MEASURE( 0.02539999999999999897 ), #263 );
#193 = CARTESIAN_POINT ( 'NONE',  ( -1.836970198721029688E-16, 4.000000000000000000, 0.000000000000000000 ) ) ;
#194 = EDGE_CURVE ( 'NONE', #161, #297, #244, .T. ) ;
#195 = SHAPE_DEFINITION_REPRESENTATION ( #166, #47 ) ;
#196 = PRODUCT_DEFINITION_FORMATION_WITH_SPECIFIED_SOURCE ( 'ANY', '', #221, .NOT_KNOWN. ) ;
#197 = SURFACE_STYLE_USAGE ( .BOTH. , #225 ) ;
#198 = EDGE_LOOP ( 'NONE', ( #203, #129 ) ) ;
#199 = DIMENSIONAL_EXPONENTS ( 1.000000000000000000, 0.000000000000000000, 0.000000000000000000, 0.000000000000000000, 0.000000000000000000, 0.000000000000000000, 0.000000000000000000 ) ;
#200 = VERTEX_POINT ( 'NONE', #179 ) ;
#201 = AXIS2_PLACEMENT_3D ( 'NONE', #155, #93, #34 ) ;
#202 = VERTEX_POINT ( 'NONE', #274 ) ;
#203 = ORIENTED_EDGE ( 'NONE', *, *, #111, .T. ) ;
#204 = PRESENTATION_STYLE_ASSIGNMENT (( #197 ) ) ;
#205 = AXIS2_PLACEMENT_3D ( 'NONE', #208, #299, #246 ) ;
#206 = SURFACE_STYLE_USAGE ( .BOTH. , #31 ) ;
#207 = FILL_AREA_STYLE ('',( #168 ) ) ;
#208 = CARTESIAN_POINT ( 'NONE',  ( 1.581777895776178031E-33, 2.000000000000000000, 0.000000000000000000 ) ) ;
#209 = CARTESIAN_POINT ( 'NONE',  ( 0.000000000000000000, 2.000000000000000000, -0.3750000000000000555 ) ) ;
#210 = ORIENTED_EDGE ( 'NONE', *, *, #194, .T. ) ;
#211 = CARTESIAN_POINT ( 'NONE',  ( 0.3750000000000000555, 4.000000000000000000, 4.592425496802576684E-17 ) ) ;
#212 = VECTOR ( 'NONE', #139, 39.37007874015748143 ) ;
#213 =( CONVERSION_BASED_UNIT ( 'INCH', #256 ) LENGTH_UNIT ( ) NAMED_UNIT ( #49 ) );
#214 = CIRCLE ( 'NONE', #188, 0.3750000000000000555 ) ;
#215 = CARTESIAN_POINT ( 'NONE',  ( 0.000000000000000000, 0.000000000000000000, -0.3750000000000000555 ) ) ;
#216 = APPLICATION_CONTEXT ( 'automotive_design' ) ;
#217 = LINE ( 'NONE', #64, #212 ) ;
#218 =( NAMED_UNIT ( * ) SI_UNIT ( $, .STERADIAN. ) SOLID_ANGLE_UNIT ( ) );
#219 = SURFACE_STYLE_FILL_AREA ( #39 ) ;
#220 = PLANE ( 'NONE',  #164 ) ;
#221 = PRODUCT ( '81562', '81562', '', ( #305 ) ) ;
#222 = EDGE_CURVE ( 'NONE', #262, #247, #42, .T. ) ;
#223 = CIRCLE ( 'NONE', #240, 0.3750000000000000555 ) ;
#224 = PRESENTATION_LAYER_ASSIGNMENT (  '', '', ( #29 ) ) ;
#225 = SURFACE_SIDE_STYLE ('',( #136 ) ) ;
#226 = ADVANCED_FACE ( 'NONE', ( #241 ), #92, .T. ) ;
#227 = EDGE_LOOP ( 'NONE', ( #144, #271 ) ) ;
#228 = UNCERTAINTY_MEASURE_WITH_UNIT (LENGTH_MEASURE( 1.000000000000000082E-05 ), #255, 'distance_accuracy_value', 'NONE');
#229 = VECTOR ( 'NONE', #22, 39.37007874015748143 ) ;
#230 =( LENGTH_UNIT ( ) NAMED_UNIT ( * ) SI_UNIT ( $, .METRE. ) );
#231 =( NAMED_UNIT ( * ) SI_UNIT ( $, .STERADIAN. ) SOLID_ANGLE_UNIT ( ) );
#232 = CARTESIAN_POINT ( 'NONE',  ( -1.836970198721029688E-16, 4.000000000000000000, 0.000000000000000000 ) ) ;
#233 =( NAMED_UNIT ( * ) SI_UNIT ( $, .STERADIAN. ) SOLID_ANGLE_UNIT ( ) );
#234 =( NAMED_UNIT ( * ) PLANE_ANGLE_UNIT ( ) SI_UNIT ( $, .RADIAN. ) );
#235 = COLOUR_RGB ( '',0.7921568627450980005, 0.8196078431372548767, 0.9333333333333333481 ) ;
#236 = CARTESIAN_POINT ( 'NONE',  ( 0.000000000000000000, 0.000000000000000000, 0.000000000000000000 ) ) ;
#237 = DIRECTION ( 'NONE',  ( -9.184850993605148438E-17, 1.000000000000000000, -0.000000000000000000 ) ) ;
#238 = PRESENTATION_STYLE_ASSIGNMENT (( #141 ) ) ;
#239 = ORIENTED_EDGE ( 'NONE', *, *, #249, .F. ) ;
#240 = AXIS2_PLACEMENT_3D ( 'NONE', #1, #307, #78 ) ;
#241 = FACE_OUTER_BOUND ( 'NONE', #288, .T. ) ;
#242 = MANIFOLD_SOLID_BREP ( 'Revolve - Cutting Edge', #186 ) ;
#243 = MANIFOLD_SOLID_BREP ( 'Revolve - Tool Body (Straight Shanked)', #82 ) ;
#244 = CIRCLE ( 'NONE', #177, 0.3750000000000002220 ) ;
#245 = UNCERTAINTY_MEASURE_WITH_UNIT (LENGTH_MEASURE( 1.000000000000000082E-05 ), #308, 'distance_accuracy_value', 'NONE');
#246 = DIRECTION ( 'NONE',  ( -1.000000000000000000, -9.184850993605148438E-17, 0.000000000000000000 ) ) ;
#247 = VERTEX_POINT ( 'NONE', #258 ) ;
#248 = MECHANICAL_DESIGN_GEOMETRIC_PRESENTATION_REPRESENTATION (  '', ( #29 ), #11 ) ;
#249 = EDGE_CURVE ( 'NONE', #297, #161, #54, .T. ) ;
#250 = DIRECTION ( 'NONE',  ( -1.000000000000000000, 0.000000000000000000, 0.000000000000000000 ) ) ;
#251 = ORIENTED_EDGE ( 'NONE', *, *, #111, .F. ) ;
#252 = ORIENTED_EDGE ( 'NONE', *, *, #249, .T. ) ;
#253 = COLOUR_RGB ( '',1.000000000000000000, 0.000000000000000000, 0.000000000000000000 ) ;
#254 = PRESENTATION_LAYER_ASSIGNMENT (  '', '', ( #268 ) ) ;
#255 =( CONVERSION_BASED_UNIT ( 'INCH', #153 ) LENGTH_UNIT ( ) NAMED_UNIT ( #167 ) );
#256 = LENGTH_MEASURE_WITH_UNIT ( LENGTH_MEASURE( 0.02539999999999999897 ), #16 );
#257 = ADVANCED_FACE ( 'NONE', ( #182 ), #35, .T. ) ;
#258 = CARTESIAN_POINT ( 'NONE',  ( 0.000000000000000000, 0.000000000000000000, -0.3750000000000000555 ) ) ;
#259 = DIRECTION ( 'NONE',  ( 0.000000000000000000, 0.000000000000000000, -1.000000000000000000 ) ) ;
#260 = DIRECTION ( 'NONE',  ( 9.184850993605148438E-17, -1.000000000000000000, 0.000000000000000000 ) ) ;
#261 = FACE_OUTER_BOUND ( 'NONE', #69, .T. ) ;
#262 = VERTEX_POINT ( 'NONE', #209 ) ;
#263 =( LENGTH_UNIT ( ) NAMED_UNIT ( * ) SI_UNIT ( $, .METRE. ) );
#264 = MECHANICAL_DESIGN_GEOMETRIC_PRESENTATION_REPRESENTATION (  '', ( #119 ), #131 ) ;
#265 = DIRECTION ( 'NONE',  ( -9.184850993605148438E-17, 1.000000000000000000, -0.000000000000000000 ) ) ;
#266 = COLOUR_RGB ( '',1.000000000000000000, 0.000000000000000000, 0.000000000000000000 ) ;
#267 = DIRECTION ( 'NONE',  ( 1.000000000000000000, 0.000000000000000000, 0.000000000000000000 ) ) ;
#268 = STYLED_ITEM ( 'NONE', ( #175 ), #298 ) ;
#269 = CARTESIAN_POINT ( 'NONE',  ( -1.836970198721029688E-16, 4.000000000000000000, 0.000000000000000000 ) ) ;
#270 = SURFACE_SIDE_STYLE ('',( #84 ) ) ;
#271 = ORIENTED_EDGE ( 'NONE', *, *, #309, .F. ) ;
#272 =( GEOMETRIC_REPRESENTATION_CONTEXT ( 3 ) GLOBAL_UNCERTAINTY_ASSIGNED_CONTEXT ( ( #228 ) ) GLOBAL_UNIT_ASSIGNED_CONTEXT ( ( #255, #17, #218 ) ) REPRESENTATION_CONTEXT ( 'NONE', 'WORKASPACE' ) );
#273 = FILL_AREA_STYLE_COLOUR ( '', #48 ) ;
#274 = CARTESIAN_POINT ( 'NONE',  ( 4.592425496802575451E-17, 2.000000000000000000, 0.3750000000000000555 ) ) ;
#275 = CARTESIAN_POINT ( 'NONE',  ( 4.592425496802575451E-17, 0.000000000000000000, 0.3750000000000000555 ) ) ;
#276 = CYLINDRICAL_SURFACE ( 'NONE', #7, 0.3750000000000001110 ) ;
#277 = ORIENTED_EDGE ( 'NONE', *, *, #293, .T. ) ;
#278 = CARTESIAN_POINT ( 'NONE',  ( 0.000000000000000000, 2.000000000000000000, 0.000000000000000000 ) ) ;
#279 = EDGE_CURVE ( 'NONE', #202, #262, #281, .T. ) ;
#280 = FILL_AREA_STYLE ('',( #165 ) ) ;
#281 = CIRCLE ( 'NONE', #36, 0.3750000000000000555 ) ;
#282 = DIRECTION ( 'NONE',  ( -0.000000000000000000, -1.000000000000000000, -0.000000000000000000 ) ) ;
#283 = DIRECTION ( 'NONE',  ( 0.000000000000000000, 0.000000000000000000, -1.000000000000000000 ) ) ;
#284 = DIRECTION ( 'NONE',  ( -1.000000000000000000, 0.000000000000000000, 0.000000000000000000 ) ) ;
#285 = CARTESIAN_POINT ( 'NONE',  ( 0.000000000000000000, 0.000000000000000000, 0.000000000000000000 ) ) ;
#286 = DIMENSIONAL_EXPONENTS ( 1.000000000000000000, 0.000000000000000000, 0.000000000000000000, 0.000000000000000000, 0.000000000000000000, 0.000000000000000000, 0.000000000000000000 ) ;
#287 = PRESENTATION_LAYER_ASSIGNMENT (  '', '', ( #119 ) ) ;
#288 = EDGE_LOOP ( 'NONE', ( #290, #122, #25, #239 ) ) ;
#289 =( CONVERSION_BASED_UNIT ( 'INCH', #5 ) LENGTH_UNIT ( ) NAMED_UNIT ( #130 ) );
#290 = ORIENTED_EDGE ( 'NONE', *, *, #72, .F. ) ;
#291 = AXIS2_PLACEMENT_3D ( 'NONE', #193, #185, #284 ) ;
#292 = ORIENTED_EDGE ( 'NONE', *, *, #32, .T. ) ;
#293 = EDGE_CURVE ( 'NONE', #59, #159, #214, .T. ) ;
#294 = ORIENTED_EDGE ( 'NONE', *, *, #222, .T. ) ;
#295 = FILL_AREA_STYLE ('',( #273 ) ) ;
#296 = DIRECTION ( 'NONE',  ( -9.184850993605148438E-17, 1.000000000000000000, -0.000000000000000000 ) ) ;
#297 = VERTEX_POINT ( 'NONE', #211 ) ;
#298 = ADVANCED_FACE ( 'NONE', ( #157 ), #85, .T. ) ;
#299 = DIRECTION ( 'NONE',  ( -9.184850993605148438E-17, 1.000000000000000000, 0.000000000000000000 ) ) ;
#300 = SURFACE_SIDE_STYLE ('',( #219 ) ) ;
#301 = DIRECTION ( 'NONE',  ( -0.000000000000000000, -1.000000000000000000, -0.000000000000000000 ) ) ;
#302 = CIRCLE ( 'NONE', #176, 0.3750000000000000555 ) ;
#303 = STYLED_ITEM ( 'NONE', ( #13 ), #257 ) ;
#304 =( NAMED_UNIT ( * ) SI_UNIT ( $, .STERADIAN. ) SOLID_ANGLE_UNIT ( ) );
#305 = PRODUCT_CONTEXT ( 'NONE', #109, 'mechanical' ) ;
#306 = EDGE_LOOP ( 'NONE', ( #292, #132, #251, #41 ) ) ;
#307 = DIRECTION ( 'NONE',  ( -9.184850993605148438E-17, 1.000000000000000000, -0.000000000000000000 ) ) ;
#308 =( CONVERSION_BASED_UNIT ( 'INCH', #158 ) LENGTH_UNIT ( ) NAMED_UNIT ( #57 ) );
#309 = EDGE_CURVE ( 'NONE', #159, #59, #223, .T. ) ;
ENDSEC;
END-ISO-10303-21;
