ISO-10303-21;
HEADER;
FILE_DESCRIPTION (( 'STEP AP214' ),
    '1' );
FILE_NAME ('59708.STEP',
    '2023-07-24T15:54:02',
    ( '' ),
    ( '' ),
    'SwSTEP 2.0',
    'SolidWorks 2023',
    '' );
FILE_SCHEMA (( 'AUTOMOTIVE_DESIGN' ));
ENDSEC;

DATA;
#1 =( GEOMETRIC_REPRESENTATION_CONTEXT ( 3 ) GLOBAL_UNCERTAINTY_ASSIGNED_CONTEXT ( ( #122 ) ) GLOBAL_UNIT_ASSIGNED_CONTEXT ( ( #73, #57, #187 ) ) REPRESENTATION_CONTEXT ( 'NONE', 'WORKASPACE' ) );
#2 = FACE_OUTER_BOUND ( 'NONE', #78, .T. ) ;
#3 = ADVANCED_FACE ( 'NONE', ( #40 ), #147, .F. ) ;
#4 = DIRECTION ( 'NONE',  ( -2.578203787678638266E-17, 1.000000000000000000, -0.000000000000000000 ) ) ;
#5 = EDGE_CURVE ( 'NONE', #150, #61, #86, .T. ) ;
#6 = PRESENTATION_STYLE_ASSIGNMENT (( #74 ) ) ;
#7 = CARTESIAN_POINT ( 'NONE',  ( 5.999999999999999112, 75.00000000000000000, 7.347880794884120722E-16 ) ) ;
#8 = STYLED_ITEM ( 'NONE', ( #241 ), #22 ) ;
#9 = COLOUR_RGB ( '',1.000000000000000000, 0.000000000000000000, 0.000000000000000000 ) ;
#10 = FACE_OUTER_BOUND ( 'NONE', #215, .T. ) ;
#11 = CARTESIAN_POINT ( 'NONE',  ( 0.000000000000000000, 0.000000000000000000, 0.000000000000000000 ) ) ;
#12 = PRESENTATION_STYLE_ASSIGNMENT (( #278 ) ) ;
#13 = SURFACE_STYLE_FILL_AREA ( #115 ) ;
#14 = FILL_AREA_STYLE_COLOUR ( '', #44 ) ;
#15 = DIRECTION ( 'NONE',  ( 0.000000000000000000, 0.000000000000000000, -1.000000000000000000 ) ) ;
#16 = UNCERTAINTY_MEASURE_WITH_UNIT (LENGTH_MEASURE( 1.000000000000000082E-05 ), #231, 'distance_accuracy_value', 'NONE');
#17 = ORIENTED_EDGE ( 'NONE', *, *, #222, .T. ) ;
#18 = AXIS2_PLACEMENT_3D ( 'NONE', #154, #48, #230 ) ;
#19 = DIRECTION ( 'NONE',  ( -2.578203787678638266E-17, 1.000000000000000000, -0.000000000000000000 ) ) ;
#20 = CARTESIAN_POINT ( 'NONE',  ( 0.000000000000000000, 18.00000000000000355, 0.000000000000000000 ) ) ;
#21 = ORIENTED_EDGE ( 'NONE', *, *, #51, .F. ) ;
#22 = ADVANCED_FACE ( 'NONE', ( #283 ), #268, .T. ) ;
#23 = ORIENTED_EDGE ( 'NONE', *, *, #76, .F. ) ;
#24 = PRESENTATION_LAYER_ASSIGNMENT (  '', '', ( #8 ) ) ;
#25 = PRODUCT ( '59708', '59708', '', ( #257 ) ) ;
#26 = CIRCLE ( 'NONE', #246, 6.000000000000000000 ) ;
#27 = DIRECTION ( 'NONE',  ( 0.000000000000000000, 0.000000000000000000, -1.000000000000000000 ) ) ;
#28 = COLOUR_RGB ( '',1.000000000000000000, 0.000000000000000000, 0.000000000000000000 ) ;
#29 = DIRECTION ( 'NONE',  ( -0.000000000000000000, -1.000000000000000000, -0.000000000000000000 ) ) ;
#30 = DIRECTION ( 'NONE',  ( -1.000000000000000000, 0.000000000000000000, 0.000000000000000000 ) ) ;
#31 = EDGE_CURVE ( 'NONE', #61, #150, #198, .T. ) ;
#32 = DIRECTION ( 'NONE',  ( -2.578203787678638266E-17, 1.000000000000000000, -0.000000000000000000 ) ) ;
#33 = PRESENTATION_STYLE_ASSIGNMENT (( #270 ) ) ;
#34 = CARTESIAN_POINT ( 'NONE',  ( -1.469576158976823750E-15, 75.00000000000000000, 0.000000000000000000 ) ) ;
#35 = FILL_AREA_STYLE_COLOUR ( '', #190 ) ;
#36 = CYLINDRICAL_SURFACE ( 'NONE', #216, 6.000000000000000888 ) ;
#37 = STYLED_ITEM ( 'NONE', ( #33 ), #201 ) ;
#38 = DIRECTION ( 'NONE',  ( 0.000000000000000000, 0.000000000000000000, -1.000000000000000000 ) ) ;
#39 =( NAMED_UNIT ( * ) PLANE_ANGLE_UNIT ( ) SI_UNIT ( $, .RADIAN. ) );
#40 = FACE_OUTER_BOUND ( 'NONE', #196, .T. ) ;
#41 = PRODUCT_DEFINITION ( 'UNKNOWN', '', #250, #252 ) ;
#42 = DIRECTION ( 'NONE',  ( -0.000000000000000000, -1.000000000000000000, -0.000000000000000000 ) ) ;
#43 = DIRECTION ( 'NONE',  ( 2.578203787678638266E-17, -1.000000000000000000, 0.000000000000000000 ) ) ;
#44 = COLOUR_RGB ( '',1.000000000000000000, 0.000000000000000000, 0.000000000000000000 ) ;
#45 = ORIENTED_EDGE ( 'NONE', *, *, #5, .F. ) ;
#46 = EDGE_LOOP ( 'NONE', ( #281, #167, #106, #81 ) ) ;
#47 = AXIS2_PLACEMENT_3D ( 'NONE', #159, #280, #96 ) ;
#48 = DIRECTION ( 'NONE',  ( 0.000000000000000000, 1.000000000000000000, 0.000000000000000000 ) ) ;
#49 = CARTESIAN_POINT ( 'NONE',  ( 0.000000000000000000, 0.000000000000000000, -6.000000000000000000 ) ) ;
#50 = APPLICATION_CONTEXT ( 'automotive_design' ) ;
#51 = EDGE_CURVE ( 'NONE', #219, #98, #249, .T. ) ;
#52 = MANIFOLD_SOLID_BREP ( 'Revolve - Cutting Edge', #175 ) ;
#53 = FILL_AREA_STYLE_COLOUR ( '', #9 ) ;
#54 = ADVANCED_FACE ( 'NONE', ( #10 ), #258, .F. ) ;
#55 = AXIS2_PLACEMENT_3D ( 'NONE', #34, #4, #113 ) ;
#56 = FACE_OUTER_BOUND ( 'NONE', #46, .T. ) ;
#57 =( NAMED_UNIT ( * ) PLANE_ANGLE_UNIT ( ) SI_UNIT ( $, .RADIAN. ) );
#58 = APPLICATION_PROTOCOL_DEFINITION ( 'draft international standard', 'automotive_design', 1998, #277 ) ;
#59 = DIRECTION ( 'NONE',  ( 0.000000000000000000, 0.000000000000000000, -1.000000000000000000 ) ) ;
#60 =( GEOMETRIC_REPRESENTATION_CONTEXT ( 3 ) GLOBAL_UNCERTAINTY_ASSIGNED_CONTEXT ( ( #132 ) ) GLOBAL_UNIT_ASSIGNED_CONTEXT ( ( #279, #39, #164 ) ) REPRESENTATION_CONTEXT ( 'NONE', 'WORKASPACE' ) );
#61 = VERTEX_POINT ( 'NONE', #218 ) ;
#62 = ORIENTED_EDGE ( 'NONE', *, *, #173, .T. ) ;
#63 = CARTESIAN_POINT ( 'NONE',  ( 0.000000000000000000, 18.00000000000000355, 0.000000000000000000 ) ) ;
#64 = ORIENTED_EDGE ( 'NONE', *, *, #194, .T. ) ;
#65 = VERTEX_POINT ( 'NONE', #169 ) ;
#66 = ORIENTED_EDGE ( 'NONE', *, *, #69, .F. ) ;
#67 = VECTOR ( 'NONE', #19, 1000.000000000000000 ) ;
#68 = FILL_AREA_STYLE ('',( #203 ) ) ;
#69 = EDGE_CURVE ( 'NONE', #65, #84, #26, .T. ) ;
#70 = SURFACE_SIDE_STYLE ('',( #271 ) ) ;
#71 = UNCERTAINTY_MEASURE_WITH_UNIT (LENGTH_MEASURE( 1.000000000000000082E-05 ), #207, 'distance_accuracy_value', 'NONE');
#72 = MECHANICAL_DESIGN_GEOMETRIC_PRESENTATION_REPRESENTATION (  '', ( #79 ), #60 ) ;
#73 =( LENGTH_UNIT ( ) NAMED_UNIT ( * ) SI_UNIT ( .MILLI., .METRE. ) );
#74 = SURFACE_STYLE_USAGE ( .BOTH. , #144 ) ;
#75 = CYLINDRICAL_SURFACE ( 'NONE', #276, 6.000000000000000888 ) ;
#76 = EDGE_CURVE ( 'NONE', #84, #65, #185, .T. ) ;
#77 = DIRECTION ( 'NONE',  ( -1.000000000000000000, 0.000000000000000000, 0.000000000000000000 ) ) ;
#78 = EDGE_LOOP ( 'NONE', ( #269, #243, #64, #288 ) ) ;
#79 = STYLED_ITEM ( 'NONE', ( #6 ), #262 ) ;
#80 = SURFACE_SIDE_STYLE ('',( #125 ) ) ;
#81 = ORIENTED_EDGE ( 'NONE', *, *, #194, .F. ) ;
#82 = ADVANCED_FACE ( 'NONE', ( #2 ), #75, .T. ) ;
#83 = DIRECTION ( 'NONE',  ( -2.578203787678638266E-17, 1.000000000000000000, -0.000000000000000000 ) ) ;
#84 = VERTEX_POINT ( 'NONE', #165 ) ;
#85 = EDGE_LOOP ( 'NONE', ( #88, #123, #45, #105 ) ) ;
#86 = CIRCLE ( 'NONE', #272, 6.000000000000000000 ) ;
#87 = AXIS2_PLACEMENT_3D ( 'NONE', #158, #141, #259 ) ;
#88 = ORIENTED_EDGE ( 'NONE', *, *, #51, .T. ) ;
#89 =( GEOMETRIC_REPRESENTATION_CONTEXT ( 3 ) GLOBAL_UNCERTAINTY_ASSIGNED_CONTEXT ( ( #238 ) ) GLOBAL_UNIT_ASSIGNED_CONTEXT ( ( #188, #104, #92 ) ) REPRESENTATION_CONTEXT ( 'NONE', 'WORKASPACE' ) );
#90 = AXIS2_PLACEMENT_3D ( 'NONE', #192, #236, #15 ) ;
#91 =( GEOMETRIC_REPRESENTATION_CONTEXT ( 3 ) GLOBAL_UNCERTAINTY_ASSIGNED_CONTEXT ( ( #71 ) ) GLOBAL_UNIT_ASSIGNED_CONTEXT ( ( #207, #182, #275 ) ) REPRESENTATION_CONTEXT ( 'NONE', 'WORKASPACE' ) );
#92 =( NAMED_UNIT ( * ) SI_UNIT ( $, .STERADIAN. ) SOLID_ANGLE_UNIT ( ) );
#93 = SURFACE_STYLE_FILL_AREA ( #68 ) ;
#94 = PRESENTATION_LAYER_ASSIGNMENT (  '', '', ( #102 ) ) ;
#95 = CARTESIAN_POINT ( 'NONE',  ( 0.000000000000000000, 0.000000000000000000, 0.000000000000000000 ) ) ;
#96 = DIRECTION ( 'NONE',  ( -1.000000000000000000, 0.000000000000000000, 0.000000000000000000 ) ) ;
#97 = DIRECTION ( 'NONE',  ( 0.000000000000000000, 0.000000000000000000, -1.000000000000000000 ) ) ;
#98 = VERTEX_POINT ( 'NONE', #121 ) ;
#99 = CARTESIAN_POINT ( 'NONE',  ( 0.000000000000000000, 18.00000000000000000, 0.000000000000000000 ) ) ;
#100 = FILL_AREA_STYLE_COLOUR ( '', #151 ) ;
#101 = ORIENTED_EDGE ( 'NONE', *, *, #225, .T. ) ;
#102 = STYLED_ITEM ( 'NONE', ( #103 ), #143 ) ;
#103 = PRESENTATION_STYLE_ASSIGNMENT (( #263 ) ) ;
#104 =( NAMED_UNIT ( * ) PLANE_ANGLE_UNIT ( ) SI_UNIT ( $, .RADIAN. ) );
#105 = ORIENTED_EDGE ( 'NONE', *, *, #173, .F. ) ;
#106 = ORIENTED_EDGE ( 'NONE', *, *, #225, .F. ) ;
#107 = MECHANICAL_DESIGN_GEOMETRIC_PRESENTATION_REPRESENTATION (  '', ( #8 ), #89 ) ;
#108 = EDGE_CURVE ( 'NONE', #84, #152, #146, .T. ) ;
#109 = CARTESIAN_POINT ( 'NONE',  ( 0.000000000000000000, 18.00000000000000000, -6.000000000000000000 ) ) ;
#110 = LINE ( 'NONE', #112, #199 ) ;
#111 = CARTESIAN_POINT ( 'NONE',  ( 0.000000000000000000, 0.000000000000000000, 0.000000000000000000 ) ) ;
#112 = CARTESIAN_POINT ( 'NONE',  ( -6.000000000000002665, 75.00000000000000000, 0.000000000000000000 ) ) ;
#113 = DIRECTION ( 'NONE',  ( -1.000000000000000000, 0.000000000000000000, 0.000000000000000000 ) ) ;
#114 = VECTOR ( 'NONE', #29, 1000.000000000000000 ) ;
#115 = FILL_AREA_STYLE ('',( #35 ) ) ;
#116 = CARTESIAN_POINT ( 'NONE',  ( -1.469576158976823750E-15, 75.00000000000000000, 0.000000000000000000 ) ) ;
#117 = STYLED_ITEM ( 'NONE', ( #12 ), #52 ) ;
#118 = FILL_AREA_STYLE_COLOUR ( '', #256 ) ;
#119 = DIRECTION ( 'NONE',  ( -2.578203787678638266E-17, 1.000000000000000000, -0.000000000000000000 ) ) ;
#120 = CARTESIAN_POINT ( 'NONE',  ( 0.000000000000000000, 0.000000000000000000, 0.000000000000000000 ) ) ;
#121 = CARTESIAN_POINT ( 'NONE',  ( 7.347880794884119736E-16, 18.00000000000000000, 6.000000000000000000 ) ) ;
#122 = UNCERTAINTY_MEASURE_WITH_UNIT (LENGTH_MEASURE( 1.000000000000000082E-05 ), #73, 'distance_accuracy_value', 'NONE');
#123 = ORIENTED_EDGE ( 'NONE', *, *, #138, .T. ) ;
#124 = DIRECTION ( 'NONE',  ( -0.000000000000000000, -1.000000000000000000, -0.000000000000000000 ) ) ;
#125 = SURFACE_STYLE_FILL_AREA ( #161 ) ;
#126 = MECHANICAL_DESIGN_GEOMETRIC_PRESENTATION_REPRESENTATION (  '', ( #117 ), #1 ) ;
#127 =( GEOMETRIC_REPRESENTATION_CONTEXT ( 3 ) GLOBAL_UNCERTAINTY_ASSIGNED_CONTEXT ( ( #287 ) ) GLOBAL_UNIT_ASSIGNED_CONTEXT ( ( #142, #174, #177 ) ) REPRESENTATION_CONTEXT ( 'NONE', 'WORKASPACE' ) );
#128 = PRESENTATION_LAYER_ASSIGNMENT (  '', '', ( #79 ) ) ;
#129 = CARTESIAN_POINT ( 'NONE',  ( 1.994140431240143121E-33, 18.00000000000000000, 0.000000000000000000 ) ) ;
#130 = ORIENTED_EDGE ( 'NONE', *, *, #31, .T. ) ;
#131 = FILL_AREA_STYLE ('',( #14 ) ) ;
#132 = UNCERTAINTY_MEASURE_WITH_UNIT (LENGTH_MEASURE( 1.000000000000000082E-05 ), #279, 'distance_accuracy_value', 'NONE');
#133 = AXIS2_PLACEMENT_3D ( 'NONE', #99, #124, #38 ) ;
#134 = CIRCLE ( 'NONE', #166, 6.000000000000000000 ) ;
#135 = PLANE ( 'NONE',  #260 ) ;
#136 = CIRCLE ( 'NONE', #47, 6.000000000000001776 ) ;
#137 = SURFACE_STYLE_USAGE ( .BOTH. , #70 ) ;
#138 = EDGE_CURVE ( 'NONE', #98, #61, #237, .T. ) ;
#139 = FACE_OUTER_BOUND ( 'NONE', #148, .T. ) ;
#140 = APPLICATION_PROTOCOL_DEFINITION ( 'draft international standard', 'automotive_design', 1998, #50 ) ;
#141 = DIRECTION ( 'NONE',  ( 0.000000000000000000, 0.000000000000000000, 1.000000000000000000 ) ) ;
#142 =( LENGTH_UNIT ( ) NAMED_UNIT ( * ) SI_UNIT ( .MILLI., .METRE. ) );
#143 = MANIFOLD_SOLID_BREP ( 'Revolve - Tool Body (Straight Shanked)', #145 ) ;
#144 = SURFACE_SIDE_STYLE ('',( #13 ) ) ;
#145 = CLOSED_SHELL ( 'NONE', ( #245, #54, #82, #3 ) ) ;
#146 = LINE ( 'NONE', #7, #67 ) ;
#147 = PLANE ( 'NONE',  #226 ) ;
#148 = EDGE_LOOP ( 'NONE', ( #284, #130 ) ) ;
#149 = DIRECTION ( 'NONE',  ( -1.000000000000000000, -2.578203787678638266E-17, 0.000000000000000000 ) ) ;
#150 = VERTEX_POINT ( 'NONE', #229 ) ;
#151 = COLOUR_RGB ( '',0.7921568627450980005, 0.8196078431372548767, 0.9333333333333333481 ) ;
#152 = VERTEX_POINT ( 'NONE', #202 ) ;
#153 = ORIENTED_EDGE ( 'NONE', *, *, #138, .F. ) ;
#154 = CARTESIAN_POINT ( 'NONE',  ( 0.000000000000000000, 18.00000000000000000, 0.000000000000000000 ) ) ;
#155 =( NAMED_UNIT ( * ) SI_UNIT ( $, .STERADIAN. ) SOLID_ANGLE_UNIT ( ) );
#156 = SURFACE_SIDE_STYLE ('',( #93 ) ) ;
#157 = PRESENTATION_STYLE_ASSIGNMENT (( #137 ) ) ;
#158 = CARTESIAN_POINT ( 'NONE',  ( 0.000000000000000000, 0.000000000000000000, 0.000000000000000000 ) ) ;
#159 = CARTESIAN_POINT ( 'NONE',  ( -1.469576158976823750E-15, 75.00000000000000000, 0.000000000000000000 ) ) ;
#160 = PRESENTATION_LAYER_ASSIGNMENT (  '', '', ( #37 ) ) ;
#161 = FILL_AREA_STYLE ('',( #100 ) ) ;
#162 = DIRECTION ( 'NONE',  ( -0.000000000000000000, -1.000000000000000000, -0.000000000000000000 ) ) ;
#163 = DIRECTION ( 'NONE',  ( 0.000000000000000000, 0.000000000000000000, -1.000000000000000000 ) ) ;
#164 =( NAMED_UNIT ( * ) SI_UNIT ( $, .STERADIAN. ) SOLID_ANGLE_UNIT ( ) );
#165 = CARTESIAN_POINT ( 'NONE',  ( 6.000000000000000000, 18.00000000000000355, 7.347880794884120722E-16 ) ) ;
#166 = AXIS2_PLACEMENT_3D ( 'NONE', #200, #232, #59 ) ;
#167 = ORIENTED_EDGE ( 'NONE', *, *, #108, .T. ) ;
#168 = SURFACE_SIDE_STYLE ('',( #239 ) ) ;
#169 = CARTESIAN_POINT ( 'NONE',  ( -6.000000000000000000, 18.00000000000000355, 0.000000000000000000 ) ) ;
#170 = ORIENTED_EDGE ( 'NONE', *, *, #222, .F. ) ;
#171 = ADVANCED_FACE ( 'NONE', ( #214 ), #178, .T. ) ;
#172 = PRESENTATION_LAYER_ASSIGNMENT (  '', '', ( #221 ) ) ;
#173 = EDGE_CURVE ( 'NONE', #219, #150, #273, .T. ) ;
#174 =( NAMED_UNIT ( * ) PLANE_ANGLE_UNIT ( ) SI_UNIT ( $, .RADIAN. ) );
#175 = CLOSED_SHELL ( 'NONE', ( #262, #171, #22, #201 ) ) ;
#176 = MECHANICAL_DESIGN_GEOMETRIC_PRESENTATION_REPRESENTATION (  '', ( #221 ), #286 ) ;
#177 =( NAMED_UNIT ( * ) SI_UNIT ( $, .STERADIAN. ) SOLID_ANGLE_UNIT ( ) );
#178 = PLANE ( 'NONE',  #18 ) ;
#179 = AXIS2_PLACEMENT_3D ( 'NONE', #63, #242, #30 ) ;
#180 = UNCERTAINTY_MEASURE_WITH_UNIT (LENGTH_MEASURE( 1.000000000000000082E-05 ), #181, 'distance_accuracy_value', 'NONE');
#181 =( LENGTH_UNIT ( ) NAMED_UNIT ( * ) SI_UNIT ( .MILLI., .METRE. ) );
#182 =( NAMED_UNIT ( * ) PLANE_ANGLE_UNIT ( ) SI_UNIT ( $, .RADIAN. ) );
#183 = ADVANCED_BREP_SHAPE_REPRESENTATION ( '59708', ( #52, #143, #87 ), #91 ) ;
#184 = SURFACE_STYLE_FILL_AREA ( #189 ) ;
#185 = CIRCLE ( 'NONE', #179, 6.000000000000000000 ) ;
#186 = DIRECTION ( 'NONE',  ( -1.000000000000000000, 0.000000000000000000, 0.000000000000000000 ) ) ;
#187 =( NAMED_UNIT ( * ) SI_UNIT ( $, .STERADIAN. ) SOLID_ANGLE_UNIT ( ) );
#188 =( LENGTH_UNIT ( ) NAMED_UNIT ( * ) SI_UNIT ( .MILLI., .METRE. ) );
#189 = FILL_AREA_STYLE ('',( #118 ) ) ;
#190 = COLOUR_RGB ( '',1.000000000000000000, 0.000000000000000000, 0.000000000000000000 ) ;
#191 = DIRECTION ( 'NONE',  ( 1.000000000000000000, 2.578203787678638266E-17, 0.000000000000000000 ) ) ;
#192 = CARTESIAN_POINT ( 'NONE',  ( 0.000000000000000000, 0.000000000000000000, 0.000000000000000000 ) ) ;
#193 = ORIENTED_EDGE ( 'NONE', *, *, #31, .F. ) ;
#194 = EDGE_CURVE ( 'NONE', #65, #217, #110, .T. ) ;
#195 = DIRECTION ( 'NONE',  ( -2.578203787678638266E-17, 1.000000000000000000, 0.000000000000000000 ) ) ;
#196 = EDGE_LOOP ( 'NONE', ( #101, #244 ) ) ;
#197 = MECHANICAL_DESIGN_GEOMETRIC_PRESENTATION_REPRESENTATION (  '', ( #102 ), #127 ) ;
#198 = CIRCLE ( 'NONE', #90, 6.000000000000000000 ) ;
#199 = VECTOR ( 'NONE', #32, 1000.000000000000000 ) ;
#200 = CARTESIAN_POINT ( 'NONE',  ( 0.000000000000000000, 18.00000000000000000, 0.000000000000000000 ) ) ;
#201 = ADVANCED_FACE ( 'NONE', ( #139 ), #135, .T. ) ;
#202 = CARTESIAN_POINT ( 'NONE',  ( 6.000000000000000000, 75.00000000000000000, 7.347880794884120722E-16 ) ) ;
#203 = FILL_AREA_STYLE_COLOUR ( '', #28 ) ;
#204 =( NAMED_UNIT ( * ) SI_UNIT ( $, .STERADIAN. ) SOLID_ANGLE_UNIT ( ) );
#205 = AXIS2_PLACEMENT_3D ( 'NONE', #95, #162, #163 ) ;
#206 = CIRCLE ( 'NONE', #55, 6.000000000000001776 ) ;
#207 =( LENGTH_UNIT ( ) NAMED_UNIT ( * ) SI_UNIT ( .MILLI., .METRE. ) );
#208 = DIRECTION ( 'NONE',  ( -2.578203787678638266E-17, 1.000000000000000000, -0.000000000000000000 ) ) ;
#209 = DIRECTION ( 'NONE',  ( -0.000000000000000000, -1.000000000000000000, -0.000000000000000000 ) ) ;
#210 = MECHANICAL_DESIGN_GEOMETRIC_PRESENTATION_REPRESENTATION (  '', ( #37 ), #227 ) ;
#211 = PRODUCT_RELATED_PRODUCT_CATEGORY ( 'part', '', ( #25 ) ) ;
#212 = SURFACE_SIDE_STYLE ('',( #184 ) ) ;
#213 = DIRECTION ( 'NONE',  ( 0.000000000000000000, 0.000000000000000000, -1.000000000000000000 ) ) ;
#214 = FACE_OUTER_BOUND ( 'NONE', #266, .T. ) ;
#215 = EDGE_LOOP ( 'NONE', ( #66, #23 ) ) ;
#216 = AXIS2_PLACEMENT_3D ( 'NONE', #234, #119, #186 ) ;
#217 = VERTEX_POINT ( 'NONE', #248 ) ;
#218 = CARTESIAN_POINT ( 'NONE',  ( 7.347880794884119736E-16, 0.000000000000000000, 6.000000000000000000 ) ) ;
#219 = VERTEX_POINT ( 'NONE', #109 ) ;
#220 = SURFACE_STYLE_USAGE ( .BOTH. , #168 ) ;
#221 = STYLED_ITEM ( 'NONE', ( #157 ), #171 ) ;
#222 = EDGE_CURVE ( 'NONE', #98, #219, #134, .T. ) ;
#223 =( NAMED_UNIT ( * ) PLANE_ANGLE_UNIT ( ) SI_UNIT ( $, .RADIAN. ) );
#224 = DIRECTION ( 'NONE',  ( 0.000000000000000000, -1.000000000000000000, -0.000000000000000000 ) ) ;
#225 = EDGE_CURVE ( 'NONE', #217, #152, #136, .T. ) ;
#226 = AXIS2_PLACEMENT_3D ( 'NONE', #285, #43, #191 ) ;
#227 =( GEOMETRIC_REPRESENTATION_CONTEXT ( 3 ) GLOBAL_UNCERTAINTY_ASSIGNED_CONTEXT ( ( #180 ) ) GLOBAL_UNIT_ASSIGNED_CONTEXT ( ( #181, #247, #155 ) ) REPRESENTATION_CONTEXT ( 'NONE', 'WORKASPACE' ) );
#228 = PRODUCT_DEFINITION_SHAPE ( 'NONE', 'NONE',  #41 ) ;
#229 = CARTESIAN_POINT ( 'NONE',  ( 0.000000000000000000, 0.000000000000000000, -6.000000000000000000 ) ) ;
#230 = DIRECTION ( 'NONE',  ( 0.000000000000000000, -0.000000000000000000, 1.000000000000000000 ) ) ;
#231 =( LENGTH_UNIT ( ) NAMED_UNIT ( * ) SI_UNIT ( .MILLI., .METRE. ) );
#232 = DIRECTION ( 'NONE',  ( -0.000000000000000000, -1.000000000000000000, -0.000000000000000000 ) ) ;
#233 = AXIS2_PLACEMENT_3D ( 'NONE', #129, #195, #149 ) ;
#234 = CARTESIAN_POINT ( 'NONE',  ( -1.469576158976823750E-15, 75.00000000000000000, 0.000000000000000000 ) ) ;
#235 = EDGE_CURVE ( 'NONE', #152, #217, #206, .T. ) ;
#236 = DIRECTION ( 'NONE',  ( -0.000000000000000000, -1.000000000000000000, -0.000000000000000000 ) ) ;
#237 = LINE ( 'NONE', #240, #267 ) ;
#238 = UNCERTAINTY_MEASURE_WITH_UNIT (LENGTH_MEASURE( 1.000000000000000082E-05 ), #188, 'distance_accuracy_value', 'NONE');
#239 = SURFACE_STYLE_FILL_AREA ( #131 ) ;
#240 = CARTESIAN_POINT ( 'NONE',  ( 7.347880794884119736E-16, 0.000000000000000000, 6.000000000000000000 ) ) ;
#241 = PRESENTATION_STYLE_ASSIGNMENT (( #220 ) ) ;
#242 = DIRECTION ( 'NONE',  ( -2.578203787678638266E-17, 1.000000000000000000, -0.000000000000000000 ) ) ;
#243 = ORIENTED_EDGE ( 'NONE', *, *, #76, .T. ) ;
#244 = ORIENTED_EDGE ( 'NONE', *, *, #235, .T. ) ;
#245 = ADVANCED_FACE ( 'NONE', ( #56 ), #36, .T. ) ;
#246 = AXIS2_PLACEMENT_3D ( 'NONE', #20, #83, #265 ) ;
#247 =( NAMED_UNIT ( * ) PLANE_ANGLE_UNIT ( ) SI_UNIT ( $, .RADIAN. ) );
#248 = CARTESIAN_POINT ( 'NONE',  ( -6.000000000000003553, 75.00000000000000000, 0.000000000000000000 ) ) ;
#249 = CIRCLE ( 'NONE', #133, 6.000000000000000000 ) ;
#250 = PRODUCT_DEFINITION_FORMATION_WITH_SPECIFIED_SOURCE ( 'ANY', '', #25, .NOT_KNOWN. ) ;
#251 = FILL_AREA_STYLE ('',( #53 ) ) ;
#252 = PRODUCT_DEFINITION_CONTEXT ( 'detailed design', #277, 'design' ) ;
#253 = CYLINDRICAL_SURFACE ( 'NONE', #282, 6.000000000000000000 ) ;
#254 = SHAPE_DEFINITION_REPRESENTATION ( #228, #183 ) ;
#255 = PRESENTATION_LAYER_ASSIGNMENT (  '', '', ( #117 ) ) ;
#256 = COLOUR_RGB ( '',0.7921568627450980005, 0.8196078431372548767, 0.9333333333333333481 ) ;
#257 = PRODUCT_CONTEXT ( 'NONE', #50, 'mechanical' ) ;
#258 = PLANE ( 'NONE',  #233 ) ;
#259 = DIRECTION ( 'NONE',  ( 1.000000000000000000, 0.000000000000000000, 0.000000000000000000 ) ) ;
#260 = AXIS2_PLACEMENT_3D ( 'NONE', #111, #224, #27 ) ;
#261 = EDGE_LOOP ( 'NONE', ( #153, #17, #62, #193 ) ) ;
#262 = ADVANCED_FACE ( 'NONE', ( #274 ), #253, .T. ) ;
#263 = SURFACE_STYLE_USAGE ( .BOTH. , #80 ) ;
#264 = DIRECTION ( 'NONE',  ( -0.000000000000000000, -1.000000000000000000, -0.000000000000000000 ) ) ;
#265 = DIRECTION ( 'NONE',  ( -1.000000000000000000, 0.000000000000000000, 0.000000000000000000 ) ) ;
#266 = EDGE_LOOP ( 'NONE', ( #21, #170 ) ) ;
#267 = VECTOR ( 'NONE', #42, 1000.000000000000000 ) ;
#268 = CYLINDRICAL_SURFACE ( 'NONE', #205, 6.000000000000000000 ) ;
#269 = ORIENTED_EDGE ( 'NONE', *, *, #108, .F. ) ;
#270 = SURFACE_STYLE_USAGE ( .BOTH. , #156 ) ;
#271 = SURFACE_STYLE_FILL_AREA ( #251 ) ;
#272 = AXIS2_PLACEMENT_3D ( 'NONE', #120, #264, #213 ) ;
#273 = LINE ( 'NONE', #49, #114 ) ;
#274 = FACE_OUTER_BOUND ( 'NONE', #85, .T. ) ;
#275 =( NAMED_UNIT ( * ) SI_UNIT ( $, .STERADIAN. ) SOLID_ANGLE_UNIT ( ) );
#276 = AXIS2_PLACEMENT_3D ( 'NONE', #116, #208, #77 ) ;
#277 = APPLICATION_CONTEXT ( 'automotive_design' ) ;
#278 = SURFACE_STYLE_USAGE ( .BOTH. , #212 ) ;
#279 =( LENGTH_UNIT ( ) NAMED_UNIT ( * ) SI_UNIT ( .MILLI., .METRE. ) );
#280 = DIRECTION ( 'NONE',  ( -2.578203787678638266E-17, 1.000000000000000000, -0.000000000000000000 ) ) ;
#281 = ORIENTED_EDGE ( 'NONE', *, *, #69, .T. ) ;
#282 = AXIS2_PLACEMENT_3D ( 'NONE', #11, #209, #97 ) ;
#283 = FACE_OUTER_BOUND ( 'NONE', #261, .T. ) ;
#284 = ORIENTED_EDGE ( 'NONE', *, *, #5, .T. ) ;
#285 = CARTESIAN_POINT ( 'NONE',  ( 6.000000000000000000, 75.00000000000000000, 0.000000000000000000 ) ) ;
#286 =( GEOMETRIC_REPRESENTATION_CONTEXT ( 3 ) GLOBAL_UNCERTAINTY_ASSIGNED_CONTEXT ( ( #16 ) ) GLOBAL_UNIT_ASSIGNED_CONTEXT ( ( #231, #223, #204 ) ) REPRESENTATION_CONTEXT ( 'NONE', 'WORKASPACE' ) );
#287 = UNCERTAINTY_MEASURE_WITH_UNIT (LENGTH_MEASURE( 1.000000000000000082E-05 ), #142, 'distance_accuracy_value', 'NONE');
#288 = ORIENTED_EDGE ( 'NONE', *, *, #235, .F. ) ;
ENDSEC;
END-ISO-10303-21;
