ISO-10303-21;
HEADER;
FILE_DESCRIPTION (( 'STEP AP214' ),
    '1' );
FILE_NAME ('Micro_EMS-375-3.STEP',
    '2021-09-01T17:54:57',
    ( '' ),
    ( '' ),
    'SwSTEP 2.0',
    'SolidWorks 2020',
    '' );
FILE_SCHEMA (( 'AUTOMOTIVE_DESIGN' ));
ENDSEC;

DATA;
#1 = DIRECTION ( 'NONE',  ( 0.7071067811865385799, 8.659560562354823157E-17, -0.7071067811865563435 ) ) ;
#2 = EDGE_CURVE ( 'NONE', #71, #248, #271, .T. ) ;
#3 = SURFACE_STYLE_USAGE ( .BOTH. , #26 ) ;
#4 = PRODUCT_DEFINITION_FORMATION_WITH_SPECIFIED_SOURCE ( 'ANY', '', #46, .NOT_KNOWN. ) ;
#5 = PRESENTATION_STYLE_ASSIGNMENT (( #3 ) ) ;
#6 = APPLICATION_CONTEXT ( 'automotive_design' ) ;
#7 = LINE ( 'NONE', #103, #153 ) ;
#8 = AXIS2_PLACEMENT_3D ( 'NONE', #39, #62, #136 ) ;
#9 = DIRECTION ( 'NONE',  ( -1.224646799147353207E-16, -0.0000000000000000000, -1.000000000000000000 ) ) ;
#10 = LINE ( 'NONE', #260, #201 ) ;
#11 = AXIS2_PLACEMENT_3D ( 'NONE', #180, #34, #88 ) ;
#12 = ORIENTED_EDGE ( 'NONE', *, *, #13, .F. ) ;
#13 = EDGE_CURVE ( 'NONE', #253, #231, #147, .T. ) ;
#14 = ORIENTED_EDGE ( 'NONE', *, *, #124, .T. ) ;
#15 = ORIENTED_EDGE ( 'NONE', *, *, #202, .T. ) ;
#16 = CARTESIAN_POINT ( 'NONE',  ( 0.0000000000000000000, 0.0000000000000000000, 2.500000000000000000 ) ) ;
#17 = AXIS2_PLACEMENT_3D ( 'NONE', #151, #156, #106 ) ;
#18 = UNCERTAINTY_MEASURE_WITH_UNIT (LENGTH_MEASURE( 1.000000000000000082E-05 ), #241, 'distance_accuracy_value', 'NONE');
#19 = ORIENTED_EDGE ( 'NONE', *, *, #212, .F. ) ;
#20 = PRESENTATION_STYLE_ASSIGNMENT (( #296 ) ) ;
#21 = CARTESIAN_POINT ( 'NONE',  ( -0.1873124999999999929, 0.0000000000000000000, 4.587833071305771192E-17 ) ) ;
#22 = APPLICATION_PROTOCOL_DEFINITION ( 'draft international standard', 'automotive_design', 1998, #6 ) ;
#23 = VERTEX_POINT ( 'NONE', #257 ) ;
#24 = AXIS2_PLACEMENT_3D ( 'NONE', #195, #283, #57 ) ;
#25 = CARTESIAN_POINT ( 'NONE',  ( -0.1875000000000000278, 0.0000000000000000000, 2.484999999999999432 ) ) ;
#26 = SURFACE_SIDE_STYLE ('',( #234 ) ) ;
#27 = EDGE_LOOP ( 'NONE', ( #12, #209, #108, #102 ) ) ;
#28 = EDGE_CURVE ( 'NONE', #135, #248, #191, .T. ) ;
#29 = AXIS2_PLACEMENT_3D ( 'NONE', #220, #158, #175 ) ;
#30 = DIRECTION ( 'NONE',  ( -0.1736481776669311916, 2.126576849575783316E-17, 0.9848077530122080203 ) ) ;
#31 = FACE_OUTER_BOUND ( 'NONE', #173, .T. ) ;
#32 = DIMENSIONAL_EXPONENTS ( 1.000000000000000000, 0.0000000000000000000, 0.0000000000000000000, 0.0000000000000000000, 0.0000000000000000000, 0.0000000000000000000, 0.0000000000000000000 ) ;
#33 = PRESENTATION_LAYER_ASSIGNMENT (  '', '', ( #211 ) ) ;
#34 = DIRECTION ( 'NONE',  ( -1.224646799147353207E-16, -0.0000000000000000000, -1.000000000000000000 ) ) ;
#35 = DIRECTION ( 'NONE',  ( 1.000000000000000000, 0.0000000000000000000, 0.0000000000000000000 ) ) ;
#36 = EDGE_LOOP ( 'NONE', ( #14, #160 ) ) ;
#37 = AXIS2_PLACEMENT_3D ( 'NONE', #215, #75, #170 ) ;
#38 = CONICAL_SURFACE ( 'NONE', #193, 0.1724999999999995981, 0.7853981633974357335 ) ;
#39 = CARTESIAN_POINT ( 'NONE',  ( 0.0000000000000000000, 0.0000000000000000000, 0.0000000000000000000 ) ) ;
#40 = DIRECTION ( 'NONE',  ( -1.000000000000000000, 0.0000000000000000000, 1.224646799147352961E-16 ) ) ;
#41 = ORIENTED_EDGE ( 'NONE', *, *, #2, .T. ) ;
#42 = VERTEX_POINT ( 'NONE', #97 ) ;
#43 = DIRECTION ( 'NONE',  ( 1.000000000000000000, 0.0000000000000000000, 0.0000000000000000000 ) ) ;
#44 = LENGTH_MEASURE_WITH_UNIT ( LENGTH_MEASURE( 0.02539999999999999897 ), #281 );
#45 = DIRECTION ( 'NONE',  ( -0.0000000000000000000, -0.0000000000000000000, -1.000000000000000000 ) ) ;
#46 = PRODUCT ( 'Micro_EMS-375-3', 'Micro_EMS-375-3', '', ( #213 ) ) ;
#47 = DIRECTION ( 'NONE',  ( -0.7071067811865385799, 0.0000000000000000000, -0.7071067811865563435 ) ) ;
#48 = CIRCLE ( 'NONE', #29, 0.1875000000000000278 ) ;
#49 = CARTESIAN_POINT ( 'NONE',  ( 0.0000000000000000000, 0.0000000000000000000, 0.0000000000000000000 ) ) ;
#50 = CARTESIAN_POINT ( 'NONE',  ( 0.1873124999999999929, 2.293916535652885596E-17, -2.293916535652885596E-17 ) ) ;
#51 = EDGE_CURVE ( 'NONE', #86, #71, #70, .T. ) ;
#52 = ORIENTED_EDGE ( 'NONE', *, *, #28, .T. ) ;
#53 = DIRECTION ( 'NONE',  ( -0.0000000000000000000, -0.0000000000000000000, -1.000000000000000000 ) ) ;
#54 = AXIS2_PLACEMENT_3D ( 'NONE', #279, #45, #122 ) ;
#55 = MECHANICAL_DESIGN_GEOMETRIC_PRESENTATION_REPRESENTATION (  '', ( #254 ), #95 ) ;
#56 = CARTESIAN_POINT ( 'NONE',  ( 0.1873124999999999929, 2.293916535652885596E-17, 0.0000000000000000000 ) ) ;
#57 = DIRECTION ( 'NONE',  ( -1.000000000000000000, 0.0000000000000000000, 1.224646799147352961E-16 ) ) ;
#58 = DIMENSIONAL_EXPONENTS ( 1.000000000000000000, 0.0000000000000000000, 0.0000000000000000000, 0.0000000000000000000, 0.0000000000000000000, 0.0000000000000000000, 0.0000000000000000000 ) ;
#59 = DIRECTION ( 'NONE',  ( 0.0000000000000000000, 0.0000000000000000000, 1.000000000000000000 ) ) ;
#60 = DIRECTION ( 'NONE',  ( 0.0000000000000000000, 0.0000000000000000000, 1.000000000000000000 ) ) ;
#61 = CARTESIAN_POINT ( 'NONE',  ( 0.1873125000000001317, 0.0000000000000000000, 0.8750000000000000000 ) ) ;
#62 = DIRECTION ( 'NONE',  ( -1.224646799147353207E-16, -0.0000000000000000000, -1.000000000000000000 ) ) ;
#63 = AXIS2_PLACEMENT_3D ( 'NONE', #149, #59, #285 ) ;
#64 = DIRECTION ( 'NONE',  ( 0.0000000000000000000, 0.0000000000000000000, -1.000000000000000000 ) ) ;
#65 = ORIENTED_EDGE ( 'NONE', *, *, #194, .F. ) ;
#66 = ORIENTED_EDGE ( 'NONE', *, *, #164, .T. ) ;
#67 = MECHANICAL_DESIGN_GEOMETRIC_PRESENTATION_REPRESENTATION (  '', ( #211 ), #249 ) ;
#68 = EDGE_LOOP ( 'NONE', ( #167, #291, #137, #19 ) ) ;
#69 = DIRECTION ( 'NONE',  ( 1.000000000000000000, 0.0000000000000000000, 0.0000000000000000000 ) ) ;
#70 = LINE ( 'NONE', #256, #112 ) ;
#71 = VERTEX_POINT ( 'NONE', #25 ) ;
#72 = AXIS2_PLACEMENT_3D ( 'NONE', #125, #288, #104 ) ;
#73 = APPLICATION_CONTEXT ( 'automotive_design' ) ;
#74 = PRODUCT_DEFINITION ( 'UNKNOWN', '', #4, #93 ) ;
#75 = DIRECTION ( 'NONE',  ( -0.0000000000000000000, -0.0000000000000000000, -1.000000000000000000 ) ) ;
#76 = DIRECTION ( 'NONE',  ( 1.224646799147353207E-16, 0.0000000000000000000, 1.000000000000000000 ) ) ;
#77 = DIRECTION ( 'NONE',  ( 0.0000000000000000000, 0.0000000000000000000, -1.000000000000000000 ) ) ;
#78 = DIRECTION ( 'NONE',  ( -1.224646799147353207E-16, -0.0000000000000000000, -1.000000000000000000 ) ) ;
#79 = FACE_OUTER_BOUND ( 'NONE', #210, .T. ) ;
#80 = CIRCLE ( 'NONE', #11, 0.1873125000000000207 ) ;
#81 = CYLINDRICAL_SURFACE ( 'NONE', #218, 0.1873124999999999929 ) ;
#82 = CYLINDRICAL_SURFACE ( 'NONE', #8, 0.1873124999999999929 ) ;
#83 = VERTEX_POINT ( 'NONE', #21 ) ;
#84 = CLOSED_SHELL ( 'NONE', ( #282, #252, #217, #129, #87, #148, #295, #222, #255, #232 ) ) ;
#85 = FACE_OUTER_BOUND ( 'NONE', #99, .T. ) ;
#86 = VERTEX_POINT ( 'NONE', #235 ) ;
#87 = ADVANCED_FACE ( 'NONE', ( #192 ), #239, .T. ) ;
#88 = DIRECTION ( 'NONE',  ( -1.000000000000000000, 0.0000000000000000000, 0.0000000000000000000 ) ) ;
#89 = EDGE_LOOP ( 'NONE', ( #293, #15 ) ) ;
#90 = UNCERTAINTY_MEASURE_WITH_UNIT (LENGTH_MEASURE( 1.000000000000000082E-05 ), #144, 'distance_accuracy_value', 'NONE');
#91 = APPLICATION_PROTOCOL_DEFINITION ( 'draft international standard', 'automotive_design', 1998, #73 ) ;
#92 = ORIENTED_EDGE ( 'NONE', *, *, #141, .F. ) ;
#93 = PRODUCT_DEFINITION_CONTEXT ( 'detailed design', #73, 'design' ) ;
#94 = VECTOR ( 'NONE', #277, 39.37007874015748143 ) ;
#95 =( GEOMETRIC_REPRESENTATION_CONTEXT ( 3 ) GLOBAL_UNCERTAINTY_ASSIGNED_CONTEXT ( ( #90 ) ) GLOBAL_UNIT_ASSIGNED_CONTEXT ( ( #144, #208, #139 ) ) REPRESENTATION_CONTEXT ( 'NONE', 'WORKASPACE' ) );
#96 = DIRECTION ( 'NONE',  ( 0.0000000000000000000, 0.0000000000000000000, 1.000000000000000000 ) ) ;
#97 = CARTESIAN_POINT ( 'NONE',  ( -0.1873124999999999096, 2.295064642027087123E-17, 0.8750000000000000000 ) ) ;
#98 =( LENGTH_UNIT ( ) NAMED_UNIT ( * ) SI_UNIT ( $, .METRE. ) );
#99 = EDGE_LOOP ( 'NONE', ( #142, #294, #190, #251 ) ) ;
#100 = DIRECTION ( 'NONE',  ( 0.0000000000000000000, 0.0000000000000000000, -1.000000000000000000 ) ) ;
#101 = CIRCLE ( 'NONE', #168, 0.1875000000000000278 ) ;
#102 = ORIENTED_EDGE ( 'NONE', *, *, #202, .F. ) ;
#103 = CARTESIAN_POINT ( 'NONE',  ( 0.1875000000000000278, 2.296212748401287726E-17, 2.500000000000000000 ) ) ;
#104 = DIRECTION ( 'NONE',  ( 1.000000000000000000, 0.0000000000000000000, -0.0000000000000000000 ) ) ;
#105 = DIRECTION ( 'NONE',  ( -1.000000000000000000, 0.0000000000000000000, 0.0000000000000000000 ) ) ;
#106 = DIRECTION ( 'NONE',  ( 1.000000000000000000, 0.0000000000000000000, 0.0000000000000000000 ) ) ;
#107 = DIRECTION ( 'NONE',  ( 1.224646799147353207E-16, 0.0000000000000000000, 1.000000000000000000 ) ) ;
#108 = ORIENTED_EDGE ( 'NONE', *, *, #198, .T. ) ;
#109 = FACE_OUTER_BOUND ( 'NONE', #169, .T. ) ;
#110 = EDGE_CURVE ( 'NONE', #83, #231, #189, .T. ) ;
#111 = ORIENTED_EDGE ( 'NONE', *, *, #13, .T. ) ;
#112 = VECTOR ( 'NONE', #47, 39.37007874015748854 ) ;
#113 = VECTOR ( 'NONE', #53, 39.37007874015748143 ) ;
#114 = LENGTH_MEASURE_WITH_UNIT ( LENGTH_MEASURE( 0.02539999999999999897 ), #98 );
#115 = ORIENTED_EDGE ( 'NONE', *, *, #28, .F. ) ;
#116 = CARTESIAN_POINT ( 'NONE',  ( 2.809237542898491532E-33, 0.0000000000000000000, 2.293916535652885596E-17 ) ) ;
#117 = SURFACE_SIDE_STYLE ('',( #130 ) ) ;
#118 = CIRCLE ( 'NONE', #17, 0.1875000000000000278 ) ;
#119 = CARTESIAN_POINT ( 'NONE',  ( 0.0000000000000000000, 0.0000000000000000000, 2.484999999999999432 ) ) ;
#120 = FACE_OUTER_BOUND ( 'NONE', #140, .T. ) ;
#121 = ORIENTED_EDGE ( 'NONE', *, *, #287, .T. ) ;
#122 = DIRECTION ( 'NONE',  ( -1.000000000000000000, 0.0000000000000000000, 0.0000000000000000000 ) ) ;
#123 = DIRECTION ( 'NONE',  ( 1.000000000000000000, 0.0000000000000000000, -0.0000000000000000000 ) ) ;
#124 = EDGE_CURVE ( 'NONE', #86, #135, #261, .T. ) ;
#125 = CARTESIAN_POINT ( 'NONE',  ( 0.0000000000000000000, 0.0000000000000000000, 0.0000000000000000000 ) ) ;
#126 = CARTESIAN_POINT ( 'NONE',  ( 0.0000000000000000000, 0.0000000000000000000, 2.500000000000000000 ) ) ;
#127 = AXIS2_PLACEMENT_3D ( 'NONE', #263, #76, #177 ) ;
#128 = CARTESIAN_POINT ( 'NONE',  ( -0.1873124999999999929, 0.0000000000000000000, 2.293916535652885596E-17 ) ) ;
#129 = ADVANCED_FACE ( 'NONE', ( #120 ), #280, .T. ) ;
#130 = SURFACE_STYLE_FILL_AREA ( #146 ) ;
#131 = DIRECTION ( 'NONE',  ( 0.0000000000000000000, 0.0000000000000000000, -1.000000000000000000 ) ) ;
#132 = MANIFOLD_SOLID_BREP ( 'Cut-Revolve1', #84 ) ;
#133 = AXIS2_PLACEMENT_3D ( 'NONE', #216, #96, #69 ) ;
#134 = DIRECTION ( 'NONE',  ( 0.1736481776669313859, 0.0000000000000000000, 0.9848077530122077983 ) ) ;
#135 = VERTEX_POINT ( 'NONE', #221 ) ;
#136 = DIRECTION ( 'NONE',  ( -1.000000000000000000, 0.0000000000000000000, 1.224646799147352961E-16 ) ) ;
#137 = ORIENTED_EDGE ( 'NONE', *, *, #194, .T. ) ;
#138 = CONICAL_SURFACE ( 'NONE', #127, 0.1873125000000000207, 0.1745329251994338915 ) ;
#139 =( NAMED_UNIT ( * ) SI_UNIT ( $, .STERADIAN. ) SOLID_ANGLE_UNIT ( ) );
#140 = EDGE_LOOP ( 'NONE', ( #41, #66, #274, #65 ) ) ;
#141 = EDGE_CURVE ( 'NONE', #135, #86, #299, .T. ) ;
#142 = ORIENTED_EDGE ( 'NONE', *, *, #246, .F. ) ;
#143 = PRESENTATION_LAYER_ASSIGNMENT (  '', '', ( #254 ) ) ;
#144 =( CONVERSION_BASED_UNIT ( 'INCH', #114 ) LENGTH_UNIT ( ) NAMED_UNIT ( #181 ) );
#145 = AXIS2_PLACEMENT_3D ( 'NONE', #290, #107, #203 ) ;
#146 = FILL_AREA_STYLE ('',( #233 ) ) ;
#147 = LINE ( 'NONE', #50, #94 ) ;
#148 = ADVANCED_FACE ( 'NONE', ( #243 ), #197, .T. ) ;
#149 = CARTESIAN_POINT ( 'NONE',  ( 0.0000000000000000000, 0.0000000000000000000, 2.500000000000000000 ) ) ;
#150 = CARTESIAN_POINT ( 'NONE',  ( 0.1724999999999995981, 2.112515728529179297E-17, 2.500000000000000000 ) ) ;
#151 = CARTESIAN_POINT ( 'NONE',  ( 1.072868196215332272E-16, 0.0000000000000000000, 0.8760633653411783461 ) ) ;
#152 = LENGTH_MEASURE_WITH_UNIT ( LENGTH_MEASURE( 0.02539999999999999897 ), #207 );
#153 = VECTOR ( 'NONE', #266, 39.37007874015748143 ) ;
#154 = EDGE_CURVE ( 'NONE', #23, #226, #48, .T. ) ;
#155 = PLANE ( 'NONE',  #72 ) ;
#156 = DIRECTION ( 'NONE',  ( -1.224646799147353207E-16, -0.0000000000000000000, -1.000000000000000000 ) ) ;
#157 = LINE ( 'NONE', #179, #113 ) ;
#158 = DIRECTION ( 'NONE',  ( -1.224646799147353207E-16, -0.0000000000000000000, -1.000000000000000000 ) ) ;
#159 = CARTESIAN_POINT ( 'NONE',  ( 0.1873125000000001317, 0.0000000000000000000, 0.8750000000000000000 ) ) ;
#160 = ORIENTED_EDGE ( 'NONE', *, *, #141, .T. ) ;
#161 = EDGE_CURVE ( 'NONE', #42, #23, #10, .T. ) ;
#162 =( GEOMETRIC_REPRESENTATION_CONTEXT ( 3 ) GLOBAL_UNCERTAINTY_ASSIGNED_CONTEXT ( ( #206 ) ) GLOBAL_UNIT_ASSIGNED_CONTEXT ( ( #264, #244, #240 ) ) REPRESENTATION_CONTEXT ( 'NONE', 'WORKASPACE' ) );
#163 = DIRECTION ( 'NONE',  ( -1.000000000000000000, 0.0000000000000000000, 0.0000000000000000000 ) ) ;
#164 = EDGE_CURVE ( 'NONE', #248, #226, #7, .T. ) ;
#165 = LINE ( 'NONE', #159, #284 ) ;
#166 = DIRECTION ( 'NONE',  ( 0.0000000000000000000, 0.0000000000000000000, 1.000000000000000000 ) ) ;
#167 = ORIENTED_EDGE ( 'NONE', *, *, #164, .F. ) ;
#168 = AXIS2_PLACEMENT_3D ( 'NONE', #199, #77, #35 ) ;
#169 = EDGE_LOOP ( 'NONE', ( #115, #204, #259, #187 ) ) ;
#170 = DIRECTION ( 'NONE',  ( -1.000000000000000000, 0.0000000000000000000, 0.0000000000000000000 ) ) ;
#171 = EDGE_LOOP ( 'NONE', ( #270, #111, #205, #185 ) ) ;
#172 = CIRCLE ( 'NONE', #273, 0.1873125000000000207 ) ;
#173 = EDGE_LOOP ( 'NONE', ( #92, #52, #276, #230 ) ) ;
#174 = ORIENTED_EDGE ( 'NONE', *, *, #236, .F. ) ;
#175 = DIRECTION ( 'NONE',  ( 1.000000000000000000, 0.0000000000000000000, 0.0000000000000000000 ) ) ;
#176 = COLOUR_RGB ( '',0.7921568627450980005, 0.8196078431372548767, 0.9333333333333333481 ) ;
#177 = DIRECTION ( 'NONE',  ( 1.000000000000000000, 0.0000000000000000000, 0.0000000000000000000 ) ) ;
#178 = CONICAL_SURFACE ( 'NONE', #145, 0.1873125000000000207, 0.1745329251994338915 ) ;
#179 = CARTESIAN_POINT ( 'NONE',  ( -0.1875000000000000278, 0.0000000000000000000, 2.500000000000000000 ) ) ;
#180 = CARTESIAN_POINT ( 'NONE',  ( 1.071565949253934025E-16, 0.0000000000000000000, 0.8750000000000000000 ) ) ;
#181 = DIMENSIONAL_EXPONENTS ( 1.000000000000000000, 0.0000000000000000000, 0.0000000000000000000, 0.0000000000000000000, 0.0000000000000000000, 0.0000000000000000000, 0.0000000000000000000 ) ;
#182 = EDGE_CURVE ( 'NONE', #248, #71, #101, .T. ) ;
#183 = DIRECTION ( 'NONE',  ( -1.000000000000000000, 0.0000000000000000000, 0.0000000000000000000 ) ) ;
#184 = CONICAL_SURFACE ( 'NONE', #262, 0.1724999999999995981, 0.7853981633974357335 ) ;
#185 = ORIENTED_EDGE ( 'NONE', *, *, #198, .F. ) ;
#186 = FACE_OUTER_BOUND ( 'NONE', #27, .T. ) ;
#187 = ORIENTED_EDGE ( 'NONE', *, *, #182, .F. ) ;
#188 = ORIENTED_EDGE ( 'NONE', *, *, #161, .F. ) ;
#189 = CIRCLE ( 'NONE', #225, 0.1873124999999999929 ) ;
#190 = ORIENTED_EDGE ( 'NONE', *, *, #154, .T. ) ;
#191 = LINE ( 'NONE', #150, #242 ) ;
#192 = FACE_OUTER_BOUND ( 'NONE', #68, .T. ) ;
#193 = AXIS2_PLACEMENT_3D ( 'NONE', #126, #131, #183 ) ;
#194 = EDGE_CURVE ( 'NONE', #71, #23, #157, .T. ) ;
#195 = CARTESIAN_POINT ( 'NONE',  ( 2.809237542898491532E-33, 0.0000000000000000000, 2.293916535652885596E-17 ) ) ;
#196 = COLOUR_RGB ( '',0.7921568627450980005, 0.8196078431372548767, 0.9333333333333333481 ) ;
#197 = PLANE ( 'NONE',  #227 ) ;
#198 = EDGE_CURVE ( 'NONE', #42, #83, #265, .T. ) ;
#199 = CARTESIAN_POINT ( 'NONE',  ( 0.0000000000000000000, 0.0000000000000000000, 2.484999999999999432 ) ) ;
#200 =( NAMED_UNIT ( * ) SI_UNIT ( $, .STERADIAN. ) SOLID_ANGLE_UNIT ( ) );
#201 = VECTOR ( 'NONE', #30, 39.37007874015747433 ) ;
#202 = EDGE_CURVE ( 'NONE', #231, #83, #268, .T. ) ;
#203 = DIRECTION ( 'NONE',  ( 1.000000000000000000, 0.0000000000000000000, 0.0000000000000000000 ) ) ;
#204 = ORIENTED_EDGE ( 'NONE', *, *, #124, .F. ) ;
#205 = ORIENTED_EDGE ( 'NONE', *, *, #110, .F. ) ;
#206 = UNCERTAINTY_MEASURE_WITH_UNIT (LENGTH_MEASURE( 1.000000000000000082E-05 ), #264, 'distance_accuracy_value', 'NONE');
#207 =( LENGTH_UNIT ( ) NAMED_UNIT ( * ) SI_UNIT ( $, .METRE. ) );
#208 =( NAMED_UNIT ( * ) PLANE_ANGLE_UNIT ( ) SI_UNIT ( $, .RADIAN. ) );
#209 = ORIENTED_EDGE ( 'NONE', *, *, #236, .T. ) ;
#210 = EDGE_LOOP ( 'NONE', ( #188, #174, #121, #297 ) ) ;
#211 = STYLED_ITEM ( 'NONE', ( #5 ), #132 ) ;
#212 = EDGE_CURVE ( 'NONE', #226, #23, #118, .T. ) ;
#213 = PRODUCT_CONTEXT ( 'NONE', #6, 'mechanical' ) ;
#214 = DIRECTION ( 'NONE',  ( 1.000000000000000000, 0.0000000000000000000, 0.0000000000000000000 ) ) ;
#215 = CARTESIAN_POINT ( 'NONE',  ( 0.0000000000000000000, 0.0000000000000000000, 2.500000000000000000 ) ) ;
#216 = CARTESIAN_POINT ( 'NONE',  ( 0.0000000000000000000, 0.0000000000000000000, 2.500000000000000000 ) ) ;
#217 = ADVANCED_FACE ( 'NONE', ( #31 ), #38, .T. ) ;
#218 = AXIS2_PLACEMENT_3D ( 'NONE', #272, #250, #40 ) ;
#219 = FILL_AREA_STYLE_COLOUR ( '', #176 ) ;
#220 = CARTESIAN_POINT ( 'NONE',  ( 1.072868196215332272E-16, 0.0000000000000000000, 0.8760633653411783461 ) ) ;
#221 = CARTESIAN_POINT ( 'NONE',  ( 0.1724999999999995981, 2.204364238465233357E-17, 2.500000000000000000 ) ) ;
#222 = ADVANCED_FACE ( 'NONE', ( #79 ), #138, .T. ) ;
#223 = CARTESIAN_POINT ( 'NONE',  ( 0.1875000000000000833, 2.296212748401288650E-17, 0.8760633653411783461 ) ) ;
#224 = CARTESIAN_POINT ( 'NONE',  ( 0.0000000000000000000, 0.0000000000000000000, 2.500000000000000000 ) ) ;
#225 = AXIS2_PLACEMENT_3D ( 'NONE', #116, #298, #278 ) ;
#226 = VERTEX_POINT ( 'NONE', #223 ) ;
#227 = AXIS2_PLACEMENT_3D ( 'NONE', #224, #60, #123 ) ;
#228 = CARTESIAN_POINT ( 'NONE',  ( 0.1875000000000000278, 2.296212748401287726E-17, 2.484999999999999432 ) ) ;
#229 = SHAPE_DEFINITION_REPRESENTATION ( #237, #258 ) ;
#230 = ORIENTED_EDGE ( 'NONE', *, *, #51, .F. ) ;
#231 = VERTEX_POINT ( 'NONE', #56 ) ;
#232 = ADVANCED_FACE ( 'NONE', ( #269 ), #155, .F. ) ;
#233 = FILL_AREA_STYLE_COLOUR ( '', #196 ) ;
#234 = SURFACE_STYLE_FILL_AREA ( #238 ) ;
#235 = CARTESIAN_POINT ( 'NONE',  ( -0.1724999999999995981, 0.0000000000000000000, 2.500000000000000000 ) ) ;
#236 = EDGE_CURVE ( 'NONE', #253, #42, #172, .T. ) ;
#237 = PRODUCT_DEFINITION_SHAPE ( 'NONE', 'NONE',  #74 ) ;
#238 = FILL_AREA_STYLE ('',( #219 ) ) ;
#239 = CYLINDRICAL_SURFACE ( 'NONE', #54, 0.1875000000000000278 ) ;
#240 =( NAMED_UNIT ( * ) SI_UNIT ( $, .STERADIAN. ) SOLID_ANGLE_UNIT ( ) );
#241 =( CONVERSION_BASED_UNIT ( 'INCH', #44 ) LENGTH_UNIT ( ) NAMED_UNIT ( #58 ) );
#242 = VECTOR ( 'NONE', #1, 39.37007874015748854 ) ;
#243 = FACE_OUTER_BOUND ( 'NONE', #36, .T. ) ;
#244 =( NAMED_UNIT ( * ) PLANE_ANGLE_UNIT ( ) SI_UNIT ( $, .RADIAN. ) );
#245 = CARTESIAN_POINT ( 'NONE',  ( 1.071565949253934025E-16, 0.0000000000000000000, 0.8750000000000000000 ) ) ;
#246 = EDGE_CURVE ( 'NONE', #42, #253, #80, .T. ) ;
#247 = FACE_OUTER_BOUND ( 'NONE', #171, .T. ) ;
#248 = VERTEX_POINT ( 'NONE', #228 ) ;
#249 =( GEOMETRIC_REPRESENTATION_CONTEXT ( 3 ) GLOBAL_UNCERTAINTY_ASSIGNED_CONTEXT ( ( #18 ) ) GLOBAL_UNIT_ASSIGNED_CONTEXT ( ( #241, #286, #200 ) ) REPRESENTATION_CONTEXT ( 'NONE', 'WORKASPACE' ) );
#250 = DIRECTION ( 'NONE',  ( -1.224646799147353207E-16, -0.0000000000000000000, -1.000000000000000000 ) ) ;
#251 = ORIENTED_EDGE ( 'NONE', *, *, #287, .F. ) ;
#252 = ADVANCED_FACE ( 'NONE', ( #85 ), #178, .T. ) ;
#253 = VERTEX_POINT ( 'NONE', #61 ) ;
#254 = STYLED_ITEM ( 'NONE', ( #20 ), #258 ) ;
#255 = ADVANCED_FACE ( 'NONE', ( #186 ), #81, .T. ) ;
#256 = CARTESIAN_POINT ( 'NONE',  ( -0.1724999999999995981, 0.0000000000000000000, 2.500000000000000000 ) ) ;
#257 = CARTESIAN_POINT ( 'NONE',  ( -0.1874999999999999167, 0.0000000000000000000, 0.8760633653411783461 ) ) ;
#258 = ADVANCED_BREP_SHAPE_REPRESENTATION ( 'Micro_EMS-375-3', ( #132, #289 ), #162 ) ;
#259 = ORIENTED_EDGE ( 'NONE', *, *, #51, .T. ) ;
#260 = CARTESIAN_POINT ( 'NONE',  ( -0.1873124999999999096, 2.293916535652885904E-17, 0.8750000000000000000 ) ) ;
#261 = CIRCLE ( 'NONE', #133, 0.1724999999999995981 ) ;
#262 = AXIS2_PLACEMENT_3D ( 'NONE', #16, #64, #163 ) ;
#263 = CARTESIAN_POINT ( 'NONE',  ( 1.071565949253934025E-16, 0.0000000000000000000, 0.8750000000000000000 ) ) ;
#264 =( CONVERSION_BASED_UNIT ( 'INCH', #152 ) LENGTH_UNIT ( ) NAMED_UNIT ( #32 ) );
#265 = LINE ( 'NONE', #128, #292 ) ;
#266 = DIRECTION ( 'NONE',  ( -0.0000000000000000000, -0.0000000000000000000, -1.000000000000000000 ) ) ;
#267 = PRODUCT_RELATED_PRODUCT_CATEGORY ( 'part', '', ( #46 ) ) ;
#268 = CIRCLE ( 'NONE', #24, 0.1873124999999999929 ) ;
#269 = FACE_OUTER_BOUND ( 'NONE', #89, .T. ) ;
#270 = ORIENTED_EDGE ( 'NONE', *, *, #246, .T. ) ;
#271 = CIRCLE ( 'NONE', #275, 0.1875000000000000278 ) ;
#272 = CARTESIAN_POINT ( 'NONE',  ( 0.0000000000000000000, 0.0000000000000000000, 0.0000000000000000000 ) ) ;
#273 = AXIS2_PLACEMENT_3D ( 'NONE', #245, #9, #105 ) ;
#274 = ORIENTED_EDGE ( 'NONE', *, *, #154, .F. ) ;
#275 = AXIS2_PLACEMENT_3D ( 'NONE', #119, #100, #214 ) ;
#276 = ORIENTED_EDGE ( 'NONE', *, *, #2, .F. ) ;
#277 = DIRECTION ( 'NONE',  ( -1.224646799147353207E-16, -0.0000000000000000000, -1.000000000000000000 ) ) ;
#278 = DIRECTION ( 'NONE',  ( -1.000000000000000000, 0.0000000000000000000, 1.224646799147352961E-16 ) ) ;
#279 = CARTESIAN_POINT ( 'NONE',  ( 0.0000000000000000000, 0.0000000000000000000, 2.500000000000000000 ) ) ;
#280 = CYLINDRICAL_SURFACE ( 'NONE', #37, 0.1875000000000000278 ) ;
#281 =( LENGTH_UNIT ( ) NAMED_UNIT ( * ) SI_UNIT ( $, .METRE. ) );
#282 = ADVANCED_FACE ( 'NONE', ( #247 ), #82, .T. ) ;
#283 = DIRECTION ( 'NONE',  ( -1.224646799147353207E-16, -0.0000000000000000000, -1.000000000000000000 ) ) ;
#284 = VECTOR ( 'NONE', #134, 39.37007874015748143 ) ;
#285 = DIRECTION ( 'NONE',  ( 1.000000000000000000, 0.0000000000000000000, 0.0000000000000000000 ) ) ;
#286 =( NAMED_UNIT ( * ) PLANE_ANGLE_UNIT ( ) SI_UNIT ( $, .RADIAN. ) );
#287 = EDGE_CURVE ( 'NONE', #253, #226, #165, .T. ) ;
#288 = DIRECTION ( 'NONE',  ( 0.0000000000000000000, 0.0000000000000000000, 1.000000000000000000 ) ) ;
#289 = AXIS2_PLACEMENT_3D ( 'NONE', #49, #166, #43 ) ;
#290 = CARTESIAN_POINT ( 'NONE',  ( 1.071565949253934025E-16, 0.0000000000000000000, 0.8750000000000000000 ) ) ;
#291 = ORIENTED_EDGE ( 'NONE', *, *, #182, .T. ) ;
#292 = VECTOR ( 'NONE', #78, 39.37007874015748143 ) ;
#293 = ORIENTED_EDGE ( 'NONE', *, *, #110, .T. ) ;
#294 = ORIENTED_EDGE ( 'NONE', *, *, #161, .T. ) ;
#295 = ADVANCED_FACE ( 'NONE', ( #109 ), #184, .T. ) ;
#296 = SURFACE_STYLE_USAGE ( .BOTH. , #117 ) ;
#297 = ORIENTED_EDGE ( 'NONE', *, *, #212, .T. ) ;
#298 = DIRECTION ( 'NONE',  ( -1.224646799147353207E-16, -0.0000000000000000000, -1.000000000000000000 ) ) ;
#299 = CIRCLE ( 'NONE', #63, 0.1724999999999995981 ) ;
ENDSEC;
END-ISO-10303-21;
