ISO-10303-21;
HEADER;
FILE_DESCRIPTION (( 'STEP AP214' ),
    '1' );
FILE_NAME ('Micro_BMR-033-2.STEP',
    '2021-09-03T14:06:49',
    ( '' ),
    ( '' ),
    'SwSTEP 2.0',
    'SolidWorks 2020',
    '' );
FILE_SCHEMA (( 'AUTOMOTIVE_DESIGN' ));
ENDSEC;

DATA;
#1 = ORIENTED_EDGE ( 'NONE', *, *, #120, .F. ) ;
#2 = EDGE_LOOP ( 'NONE', ( #51, #213, #279, #75 ) ) ;
#3 = ORIENTED_EDGE ( 'NONE', *, *, #152, .T. ) ;
#4 =( LENGTH_UNIT ( ) NAMED_UNIT ( * ) SI_UNIT ( $, .METRE. ) );
#5 = VECTOR ( 'NONE', #181, 39.37007874015748143 ) ;
#6 = ORIENTED_EDGE ( 'NONE', *, *, #139, .F. ) ;
#7 = PLANE ( 'NONE',  #206 ) ;
#8 = FILL_AREA_STYLE_COLOUR ( '', #208 ) ;
#9 = AXIS2_PLACEMENT_3D ( 'NONE', #291, #83, #86 ) ;
#10 = DIRECTION ( 'NONE',  ( -1.224646799147353454E-16, -0.0000000000000000000, -1.000000000000000000 ) ) ;
#11 = FACE_OUTER_BOUND ( 'NONE', #25, .T. ) ;
#12 = ORIENTED_EDGE ( 'NONE', *, *, #177, .T. ) ;
#13 = CARTESIAN_POINT ( 'NONE',  ( 4.408392187112302211E-17, 0.0000000000000000000, 0.3599725398524371567 ) ) ;
#14 = CONICAL_SURFACE ( 'NONE', #9, 0.01648350000000000162, 0.1745329251994338360 ) ;
#15 = DIRECTION ( 'NONE',  ( 1.224646799147353454E-16, 0.0000000000000000000, 1.000000000000000000 ) ) ;
#16 = EDGE_CURVE ( 'NONE', #171, #176, #46, .T. ) ;
#17 = ORIENTED_EDGE ( 'NONE', *, *, #172, .F. ) ;
#18 = CARTESIAN_POINT ( 'NONE',  ( -0.06250000000000002776, 0.0000000000000000000, 1.500000000000000222 ) ) ;
#19 = LINE ( 'NONE', #68, #142 ) ;
#20 = DIRECTION ( 'NONE',  ( -1.000000000000000000, 0.0000000000000000000, 0.0000000000000000000 ) ) ;
#21 =( GEOMETRIC_REPRESENTATION_CONTEXT ( 3 ) GLOBAL_UNCERTAINTY_ASSIGNED_CONTEXT ( ( #237 ) ) GLOBAL_UNIT_ASSIGNED_CONTEXT ( ( #85, #59, #56 ) ) REPRESENTATION_CONTEXT ( 'NONE', 'WORKASPACE' ) );
#22 = DIRECTION ( 'NONE',  ( 1.000000000000000000, 0.0000000000000000000, 0.0000000000000000000 ) ) ;
#23 = DIRECTION ( 'NONE',  ( -1.224646799147353454E-16, -0.0000000000000000000, -1.000000000000000000 ) ) ;
#24 = ORIENTED_EDGE ( 'NONE', *, *, #258, .F. ) ;
#25 = EDGE_LOOP ( 'NONE', ( #17, #299, #205, #307 ) ) ;
#26 = CIRCLE ( 'NONE', #155, 0.06250000000000002776 ) ;
#27 = AXIS2_PLACEMENT_3D ( 'NONE', #225, #73, #49 ) ;
#28 = VERTEX_POINT ( 'NONE', #314 ) ;
#29 = EDGE_CURVE ( 'NONE', #257, #77, #55, .T. ) ;
#30 =( NAMED_UNIT ( * ) SI_UNIT ( $, .STERADIAN. ) SOLID_ANGLE_UNIT ( ) );
#31 = ORIENTED_EDGE ( 'NONE', *, *, #282, .T. ) ;
#32 = ORIENTED_EDGE ( 'NONE', *, *, #195, .F. ) ;
#33 = VECTOR ( 'NONE', #160, 39.37007874015747433 ) ;
#34 = ORIENTED_EDGE ( 'NONE', *, *, #113, .T. ) ;
#35 = DIRECTION ( 'NONE',  ( -1.000000000000000000, 0.0000000000000000000, 0.0000000000000000000 ) ) ;
#36 =( NAMED_UNIT ( * ) SI_UNIT ( $, .STERADIAN. ) SOLID_ANGLE_UNIT ( ) );
#37 = DIRECTION ( 'NONE',  ( -0.0000000000000000000, -0.0000000000000000000, -1.000000000000000000 ) ) ;
#38 = DIRECTION ( 'NONE',  ( -1.224646799147353454E-16, -0.0000000000000000000, -1.000000000000000000 ) ) ;
#39 =( LENGTH_UNIT ( ) NAMED_UNIT ( * ) SI_UNIT ( $, .METRE. ) );
#40 = CARTESIAN_POINT ( 'NONE',  ( 0.0000000000000000000, 0.0000000000000000000, 0.0000000000000000000 ) ) ;
#41 = MANIFOLD_SOLID_BREP ( 'Fillet1', #325 ) ;
#42 = CIRCLE ( 'NONE', #82, 0.01648350000000000162 ) ;
#43 = CARTESIAN_POINT ( 'NONE',  ( 1.212400331155879918E-17, 0.0000000000000000000, 0.09900000000000000466 ) ) ;
#44 = CARTESIAN_POINT ( 'NONE',  ( 0.06250000000000006939, 7.654042494670963708E-18, 0.3599725398524371567 ) ) ;
#45 = CARTESIAN_POINT ( 'NONE',  ( 0.0000000000000000000, 0.0000000000000000000, 1.500000000000000222 ) ) ;
#46 = CIRCLE ( 'NONE', #192, 0.06250000000000002776 ) ;
#47 = UNCERTAINTY_MEASURE_WITH_UNIT (LENGTH_MEASURE( 1.000000000000000082E-05 ), #198, 'distance_accuracy_value', 'NONE');
#48 = DIRECTION ( 'NONE',  ( -1.000000000000000000, 0.0000000000000000000, 0.0000000000000000000 ) ) ;
#49 = DIRECTION ( 'NONE',  ( 1.000000000000000000, 0.0000000000000000000, 0.0000000000000000000 ) ) ;
#50 = EDGE_CURVE ( 'NONE', #229, #248, #235, .T. ) ;
#51 = ORIENTED_EDGE ( 'NONE', *, *, #294, .F. ) ;
#52 = APPLICATION_CONTEXT ( 'automotive_design' ) ;
#53 = MECHANICAL_DESIGN_GEOMETRIC_PRESENTATION_REPRESENTATION (  '', ( #317 ), #128 ) ;
#54 = ORIENTED_EDGE ( 'NONE', *, *, #113, .F. ) ;
#55 = CIRCLE ( 'NONE', #255, 0.06250000000000002776 ) ;
#56 =( NAMED_UNIT ( * ) SI_UNIT ( $, .STERADIAN. ) SOLID_ANGLE_UNIT ( ) );
#57 = CARTESIAN_POINT ( 'NONE',  ( 0.0000000000000000000, 0.0000000000000000000, 1.485000000000000764 ) ) ;
#58 = ADVANCED_FACE ( 'NONE', ( #62 ), #7, .T. ) ;
#59 =( NAMED_UNIT ( * ) PLANE_ANGLE_UNIT ( ) SI_UNIT ( $, .RADIAN. ) );
#60 = AXIS2_PLACEMENT_3D ( 'NONE', #43, #219, #48 ) ;
#61 = LINE ( 'NONE', #135, #33 ) ;
#62 = FACE_OUTER_BOUND ( 'NONE', #250, .T. ) ;
#63 = DIRECTION ( 'NONE',  ( -1.000000000000000000, 0.0000000000000000000, 0.0000000000000000000 ) ) ;
#64 = DIRECTION ( 'NONE',  ( -1.000000000000000000, 1.224646799147353454E-16, 0.0000000000000000000 ) ) ;
#65 = VECTOR ( 'NONE', #167, 39.37007874015748143 ) ;
#66 = FACE_OUTER_BOUND ( 'NONE', #129, .T. ) ;
#67 = SPHERICAL_SURFACE ( 'NONE', #244, 0.01648350000000000162 ) ;
#68 = CARTESIAN_POINT ( 'NONE',  ( 0.01648349999999999815, 2.018646551374539697E-18, -2.018646551374540083E-18 ) ) ;
#69 = FACE_OUTER_BOUND ( 'NONE', #99, .T. ) ;
#70 = CARTESIAN_POINT ( 'NONE',  ( -0.04750000000000064587, 0.0000000000000000000, 1.500000000000000222 ) ) ;
#71 =( GEOMETRIC_REPRESENTATION_CONTEXT ( 3 ) GLOBAL_UNCERTAINTY_ASSIGNED_CONTEXT ( ( #111 ) ) GLOBAL_UNIT_ASSIGNED_CONTEXT ( ( #296, #164, #30 ) ) REPRESENTATION_CONTEXT ( 'NONE', 'WORKASPACE' ) );
#72 = PRODUCT_DEFINITION_SHAPE ( 'NONE', 'NONE',  #134 ) ;
#73 = DIRECTION ( 'NONE',  ( 1.224646799147353454E-16, 0.0000000000000000000, 1.000000000000000000 ) ) ;
#74 = ADVANCED_FACE ( 'NONE', ( #11 ), #14, .T. ) ;
#75 = ORIENTED_EDGE ( 'NONE', *, *, #223, .F. ) ;
#76 = ORIENTED_EDGE ( 'NONE', *, *, #294, .T. ) ;
#77 = VERTEX_POINT ( 'NONE', #285 ) ;
#78 = ORIENTED_EDGE ( 'NONE', *, *, #258, .T. ) ;
#79 = PRODUCT_RELATED_PRODUCT_CATEGORY ( 'part', '', ( #87 ) ) ;
#80 = DIRECTION ( 'NONE',  ( 1.000000000000000000, 0.0000000000000000000, 0.0000000000000000000 ) ) ;
#81 = SURFACE_STYLE_FILL_AREA ( #157 ) ;
#82 = AXIS2_PLACEMENT_3D ( 'NONE', #292, #246, #92 ) ;
#83 = DIRECTION ( 'NONE',  ( 1.224646799147353454E-16, 0.0000000000000000000, 1.000000000000000000 ) ) ;
#84 = EDGE_CURVE ( 'NONE', #77, #176, #289, .T. ) ;
#85 =( CONVERSION_BASED_UNIT ( 'INCH', #137 ) LENGTH_UNIT ( ) NAMED_UNIT ( #138 ) );
#86 = DIRECTION ( 'NONE',  ( 1.000000000000000000, 0.0000000000000000000, 0.0000000000000000000 ) ) ;
#87 = PRODUCT ( 'Micro_BMR-033-2', 'Micro_BMR-033-2', '', ( #234 ) ) ;
#88 = AXIS2_PLACEMENT_3D ( 'NONE', #169, #15, #121 ) ;
#89 = ORIENTED_EDGE ( 'NONE', *, *, #145, .F. ) ;
#90 =( LENGTH_UNIT ( ) NAMED_UNIT ( * ) SI_UNIT ( $, .METRE. ) );
#91 = CYLINDRICAL_SURFACE ( 'NONE', #102, 0.06250000000000002776 ) ;
#92 = DIRECTION ( 'NONE',  ( 0.0000000000000000000, 0.0000000000000000000, -1.000000000000000000 ) ) ;
#93 = FACE_OUTER_BOUND ( 'NONE', #2, .T. ) ;
#94 = VECTOR ( 'NONE', #95, 39.37007874015748854 ) ;
#95 = DIRECTION ( 'NONE',  ( 0.7071067811865462405, 8.659560562354916834E-17, -0.7071067811865486830 ) ) ;
#96 = CARTESIAN_POINT ( 'NONE',  ( 2.018646551374540468E-18, 0.0000000000000000000, 0.01648350000000000162 ) ) ;
#97 = PRESENTATION_LAYER_ASSIGNMENT (  '', '', ( #240 ) ) ;
#98 = ORIENTED_EDGE ( 'NONE', *, *, #29, .T. ) ;
#99 = EDGE_LOOP ( 'NONE', ( #89, #12, #32 ) ) ;
#100 = ADVANCED_BREP_SHAPE_REPRESENTATION ( 'Micro_BMR-033-2', ( #41, #215 ), #71 ) ;
#101 = SURFACE_SIDE_STYLE ('',( #81 ) ) ;
#102 = AXIS2_PLACEMENT_3D ( 'NONE', #188, #221, #63 ) ;
#103 = EDGE_CURVE ( 'NONE', #77, #257, #26, .T. ) ;
#104 = ORIENTED_EDGE ( 'NONE', *, *, #124, .F. ) ;
#105 = EDGE_LOOP ( 'NONE', ( #98, #324, #173, #118 ) ) ;
#106 = DIRECTION ( 'NONE',  ( 0.0000000000000000000, 0.0000000000000000000, 1.000000000000000000 ) ) ;
#107 = EDGE_CURVE ( 'NONE', #229, #171, #61, .T. ) ;
#108 = CIRCLE ( 'NONE', #136, 0.01648350000000000162 ) ;
#109 = FACE_OUTER_BOUND ( 'NONE', #130, .T. ) ;
#110 = DIRECTION ( 'NONE',  ( 0.0000000000000000000, 0.0000000000000000000, -1.000000000000000000 ) ) ;
#111 = UNCERTAINTY_MEASURE_WITH_UNIT (LENGTH_MEASURE( 1.000000000000000082E-05 ), #296, 'distance_accuracy_value', 'NONE');
#112 = DIRECTION ( 'NONE',  ( 0.0000000000000000000, 0.0000000000000000000, -1.000000000000000000 ) ) ;
#113 = EDGE_CURVE ( 'NONE', #176, #171, #141, .T. ) ;
#114 = SURFACE_STYLE_FILL_AREA ( #284 ) ;
#115 = MECHANICAL_DESIGN_GEOMETRIC_PRESENTATION_REPRESENTATION (  '', ( #240 ), #21 ) ;
#116 = DIRECTION ( 'NONE',  ( -0.7071067811865462405, 0.0000000000000000000, -0.7071067811865486830 ) ) ;
#117 = FACE_OUTER_BOUND ( 'NONE', #105, .T. ) ;
#118 = ORIENTED_EDGE ( 'NONE', *, *, #152, .F. ) ;
#119 = CARTESIAN_POINT ( 'NONE',  ( 0.04750000000000064587, 6.735557395310483192E-18, 1.500000000000000222 ) ) ;
#120 = EDGE_CURVE ( 'NONE', #209, #77, #264, .T. ) ;
#121 = DIRECTION ( 'NONE',  ( -1.000000000000000000, 0.0000000000000000000, 1.294783416780541583E-16 ) ) ;
#122 = AXIS2_PLACEMENT_3D ( 'NONE', #45, #319, #318 ) ;
#123 = DIRECTION ( 'NONE',  ( -1.000000000000000000, 0.0000000000000000000, 1.224646799147353700E-16 ) ) ;
#124 = EDGE_CURVE ( 'NONE', #248, #28, #178, .T. ) ;
#125 = DIRECTION ( 'NONE',  ( 1.000000000000000000, 0.0000000000000000000, 0.0000000000000000000 ) ) ;
#126 = EDGE_LOOP ( 'NONE', ( #1, #24, #153, #281 ) ) ;
#127 = CIRCLE ( 'NONE', #197, 0.01648350000000000162 ) ;
#128 =( GEOMETRIC_REPRESENTATION_CONTEXT ( 3 ) GLOBAL_UNCERTAINTY_ASSIGNED_CONTEXT ( ( #47 ) ) GLOBAL_UNIT_ASSIGNED_CONTEXT ( ( #198, #306, #36 ) ) REPRESENTATION_CONTEXT ( 'NONE', 'WORKASPACE' ) );
#129 = EDGE_LOOP ( 'NONE', ( #305, #6, #182, #34 ) ) ;
#130 = EDGE_LOOP ( 'NONE', ( #300, #200, #104 ) ) ;
#131 = CONICAL_SURFACE ( 'NONE', #174, 0.04750000000000064587, 0.7853981633974466137 ) ;
#132 = CIRCLE ( 'NONE', #270, 0.04750000000000064587 ) ;
#133 = ORIENTED_EDGE ( 'NONE', *, *, #282, .F. ) ;
#134 = PRODUCT_DEFINITION ( 'UNKNOWN', '', #263, #218 ) ;
#135 = CARTESIAN_POINT ( 'NONE',  ( -0.01648349999999998775, 2.018646551374540083E-18, 0.09900000000000000466 ) ) ;
#136 = AXIS2_PLACEMENT_3D ( 'NONE', #96, #321, #64 ) ;
#137 = LENGTH_MEASURE_WITH_UNIT ( LENGTH_MEASURE( 0.02539999999999999897 ), #39 );
#138 = DIMENSIONAL_EXPONENTS ( 1.000000000000000000, 0.0000000000000000000, 0.0000000000000000000, 0.0000000000000000000, 0.0000000000000000000, 0.0000000000000000000, 0.0000000000000000000 ) ;
#139 = EDGE_CURVE ( 'NONE', #196, #229, #127, .T. ) ;
#140 = PRESENTATION_STYLE_ASSIGNMENT (( #313 ) ) ;
#141 = CIRCLE ( 'NONE', #187, 0.06250000000000002776 ) ;
#142 = VECTOR ( 'NONE', #146, 39.37007874015748143 ) ;
#143 = DIRECTION ( 'NONE',  ( -0.0000000000000000000, -0.0000000000000000000, -1.000000000000000000 ) ) ;
#144 = FACE_OUTER_BOUND ( 'NONE', #126, .T. ) ;
#145 = EDGE_CURVE ( 'NONE', #230, #28, #42, .T. ) ;
#146 = DIRECTION ( 'NONE',  ( -1.224646799147353454E-16, -0.0000000000000000000, -1.000000000000000000 ) ) ;
#147 = CYLINDRICAL_SURFACE ( 'NONE', #303, 0.06250000000000002776 ) ;
#148 = CYLINDRICAL_SURFACE ( 'NONE', #232, 0.01648349999999999815 ) ;
#149 = DIRECTION ( 'NONE',  ( -1.000000000000000000, 0.0000000000000000000, 0.0000000000000000000 ) ) ;
#150 = VERTEX_POINT ( 'NONE', #70 ) ;
#151 = COLOUR_RGB ( '',0.7921568627450980005, 0.8196078431372548767, 0.9333333333333333481 ) ;
#152 = EDGE_CURVE ( 'NONE', #257, #171, #323, .T. ) ;
#153 = ORIENTED_EDGE ( 'NONE', *, *, #223, .T. ) ;
#154 = CARTESIAN_POINT ( 'NONE',  ( -0.06250000000000002776, 0.0000000000000000000, 1.485000000000000764 ) ) ;
#155 = AXIS2_PLACEMENT_3D ( 'NONE', #57, #112, #156 ) ;
#156 = DIRECTION ( 'NONE',  ( 1.000000000000000000, 0.0000000000000000000, 0.0000000000000000000 ) ) ;
#157 = FILL_AREA_STYLE ('',( #8 ) ) ;
#158 = CARTESIAN_POINT ( 'NONE',  ( 0.0000000000000000000, 0.0000000000000000000, 1.485000000000000764 ) ) ;
#159 = CIRCLE ( 'NONE', #290, 0.04750000000000064587 ) ;
#160 = DIRECTION ( 'NONE',  ( -0.1736481776669311639, 2.126576849575782392E-17, 0.9848077530122080203 ) ) ;
#161 = ADVANCED_FACE ( 'NONE', ( #69 ), #67, .T. ) ;
#162 = CARTESIAN_POINT ( 'NONE',  ( 0.06250000000000002776, 7.654042494670959086E-18, 1.500000000000000222 ) ) ;
#163 = CYLINDRICAL_SURFACE ( 'NONE', #276, 0.01648349999999999815 ) ;
#164 =( NAMED_UNIT ( * ) PLANE_ANGLE_UNIT ( ) SI_UNIT ( $, .RADIAN. ) );
#165 = FACE_OUTER_BOUND ( 'NONE', #301, .T. ) ;
#166 = DIRECTION ( 'NONE',  ( -1.224646799147353454E-16, -0.0000000000000000000, -1.000000000000000000 ) ) ;
#167 = DIRECTION ( 'NONE',  ( 0.1736481776669313304, 0.0000000000000000000, 0.9848077530122077983 ) ) ;
#168 = EDGE_CURVE ( 'NONE', #196, #176, #277, .T. ) ;
#169 = CARTESIAN_POINT ( 'NONE',  ( 2.018646551374540468E-18, 0.0000000000000000000, 0.01648350000000000162 ) ) ;
#170 = PRESENTATION_LAYER_ASSIGNMENT (  '', '', ( #317 ) ) ;
#171 = VERTEX_POINT ( 'NONE', #241 ) ;
#172 = EDGE_CURVE ( 'NONE', #229, #196, #316, .T. ) ;
#173 = ORIENTED_EDGE ( 'NONE', *, *, #16, .F. ) ;
#174 = AXIS2_PLACEMENT_3D ( 'NONE', #243, #190, #20 ) ;
#175 = EDGE_LOOP ( 'NONE', ( #133, #227, #228, #233 ) ) ;
#176 = VERTEX_POINT ( 'NONE', #44 ) ;
#177 = EDGE_CURVE ( 'NONE', #230, #248, #108, .T. ) ;
#178 = CIRCLE ( 'NONE', #231, 0.01648349999999999815 ) ;
#179 = SHAPE_DEFINITION_REPRESENTATION ( #72, #100 ) ;
#180 = FILL_AREA_STYLE_COLOUR ( '', #151 ) ;
#181 = DIRECTION ( 'NONE',  ( -1.224646799147353454E-16, -0.0000000000000000000, -1.000000000000000000 ) ) ;
#182 = ORIENTED_EDGE ( 'NONE', *, *, #168, .T. ) ;
#183 = SURFACE_SIDE_STYLE ('',( #114 ) ) ;
#184 = LINE ( 'NONE', #320, #214 ) ;
#185 = ADVANCED_FACE ( 'NONE', ( #144 ), #131, .T. ) ;
#186 = CARTESIAN_POINT ( 'NONE',  ( 1.212400331155879918E-17, 0.0000000000000000000, 0.09900000000000000466 ) ) ;
#187 = AXIS2_PLACEMENT_3D ( 'NONE', #236, #10, #288 ) ;
#188 = CARTESIAN_POINT ( 'NONE',  ( 0.0000000000000000000, 0.0000000000000000000, 1.500000000000000222 ) ) ;
#189 = CARTESIAN_POINT ( 'NONE',  ( -0.01648349999999998775, 4.836344523022749969E-18, 0.09900000000000000466 ) ) ;
#190 = DIRECTION ( 'NONE',  ( 0.0000000000000000000, 0.0000000000000000000, -1.000000000000000000 ) ) ;
#191 = FACE_OUTER_BOUND ( 'NONE', #175, .T. ) ;
#192 = AXIS2_PLACEMENT_3D ( 'NONE', #13, #38, #261 ) ;
#193 = EDGE_LOOP ( 'NONE', ( #253, #31, #252, #211 ) ) ;
#194 = ORIENTED_EDGE ( 'NONE', *, *, #84, .F. ) ;
#195 = EDGE_CURVE ( 'NONE', #28, #248, #220, .T. ) ;
#196 = VERTEX_POINT ( 'NONE', #298 ) ;
#197 = AXIS2_PLACEMENT_3D ( 'NONE', #186, #166, #149 ) ;
#198 =( CONVERSION_BASED_UNIT ( 'INCH', #201 ) LENGTH_UNIT ( ) NAMED_UNIT ( #266 ) );
#199 = ADVANCED_FACE ( 'NONE', ( #295 ), #163, .T. ) ;
#200 = ORIENTED_EDGE ( 'NONE', *, *, #145, .T. ) ;
#201 = LENGTH_MEASURE_WITH_UNIT ( LENGTH_MEASURE( 0.02539999999999999897 ), #4 );
#202 = CARTESIAN_POINT ( 'NONE',  ( 0.0000000000000000000, 0.0000000000000000000, 1.500000000000000222 ) ) ;
#203 = DIRECTION ( 'NONE',  ( 0.0000000000000000000, 0.0000000000000000000, 1.000000000000000000 ) ) ;
#204 = DIRECTION ( 'NONE',  ( 1.000000000000000000, 0.0000000000000000000, 0.0000000000000000000 ) ) ;
#205 = ORIENTED_EDGE ( 'NONE', *, *, #16, .T. ) ;
#206 = AXIS2_PLACEMENT_3D ( 'NONE', #259, #106, #311 ) ;
#207 = APPLICATION_PROTOCOL_DEFINITION ( 'draft international standard', 'automotive_design', 1998, #212 ) ;
#208 = COLOUR_RGB ( '',0.7921568627450980005, 0.8196078431372548767, 0.9333333333333333481 ) ;
#209 = VERTEX_POINT ( 'NONE', #119 ) ;
#210 = ADVANCED_FACE ( 'NONE', ( #117 ), #91, .T. ) ;
#211 = ORIENTED_EDGE ( 'NONE', *, *, #50, .F. ) ;
#212 = APPLICATION_CONTEXT ( 'automotive_design' ) ;
#213 = ORIENTED_EDGE ( 'NONE', *, *, #120, .T. ) ;
#214 = VECTOR ( 'NONE', #116, 39.37007874015748854 ) ;
#215 = AXIS2_PLACEMENT_3D ( 'NONE', #302, #203, #256 ) ;
#216 = CARTESIAN_POINT ( 'NONE',  ( 2.018646551374540468E-18, 0.0000000000000000000, 0.01648350000000000162 ) ) ;
#217 = CARTESIAN_POINT ( 'NONE',  ( -0.01648349999999999815, 0.0000000000000000000, 0.01648350000000000509 ) ) ;
#218 = PRODUCT_DEFINITION_CONTEXT ( 'detailed design', #212, 'design' ) ;
#219 = DIRECTION ( 'NONE',  ( -1.224646799147353454E-16, -0.0000000000000000000, -1.000000000000000000 ) ) ;
#220 = CIRCLE ( 'NONE', #88, 0.01648349999999999815 ) ;
#221 = DIRECTION ( 'NONE',  ( -0.0000000000000000000, -0.0000000000000000000, -1.000000000000000000 ) ) ;
#222 = CARTESIAN_POINT ( 'NONE',  ( 0.0000000000000000000, 0.0000000000000000000, 1.500000000000000222 ) ) ;
#223 = EDGE_CURVE ( 'NONE', #150, #257, #184, .T. ) ;
#224 = CARTESIAN_POINT ( 'NONE',  ( 3.027969827061810124E-18, 0.0000000000000000000, 0.0000000000000000000 ) ) ;
#225 = CARTESIAN_POINT ( 'NONE',  ( 1.212400331155879918E-17, 0.0000000000000000000, 0.09900000000000000466 ) ) ;
#226 = DIRECTION ( 'NONE',  ( -1.000000000000000000, 0.0000000000000000000, 1.224646799147353700E-16 ) ) ;
#227 = ORIENTED_EDGE ( 'NONE', *, *, #139, .T. ) ;
#228 = ORIENTED_EDGE ( 'NONE', *, *, #50, .T. ) ;
#229 = VERTEX_POINT ( 'NONE', #189 ) ;
#230 = VERTEX_POINT ( 'NONE', #224 ) ;
#231 = AXIS2_PLACEMENT_3D ( 'NONE', #297, #242, #268 ) ;
#232 = AXIS2_PLACEMENT_3D ( 'NONE', #247, #23, #226 ) ;
#233 = ORIENTED_EDGE ( 'NONE', *, *, #124, .T. ) ;
#234 = PRODUCT_CONTEXT ( 'NONE', #52, 'mechanical' ) ;
#235 = LINE ( 'NONE', #238, #5 ) ;
#236 = CARTESIAN_POINT ( 'NONE',  ( 4.408392187112302211E-17, 0.0000000000000000000, 0.3599725398524371567 ) ) ;
#237 = UNCERTAINTY_MEASURE_WITH_UNIT (LENGTH_MEASURE( 1.000000000000000082E-05 ), #85, 'distance_accuracy_value', 'NONE');
#238 = CARTESIAN_POINT ( 'NONE',  ( -0.01648349999999999815, 0.0000000000000000000, 2.018646551374540083E-18 ) ) ;
#239 = CARTESIAN_POINT ( 'NONE',  ( 0.04750000000000064587, 5.817072295950006528E-18, 1.500000000000000222 ) ) ;
#240 = STYLED_ITEM ( 'NONE', ( #140 ), #41 ) ;
#241 = CARTESIAN_POINT ( 'NONE',  ( -0.06249999999999997918, 0.0000000000000000000, 0.3599725398524371567 ) ) ;
#242 = DIRECTION ( 'NONE',  ( 1.224646799147353454E-16, 0.0000000000000000000, 1.000000000000000000 ) ) ;
#243 = CARTESIAN_POINT ( 'NONE',  ( 0.0000000000000000000, 0.0000000000000000000, 1.500000000000000222 ) ) ;
#244 = AXIS2_PLACEMENT_3D ( 'NONE', #216, #293, #22 ) ;
#245 = DIRECTION ( 'NONE',  ( -0.0000000000000000000, -0.0000000000000000000, -1.000000000000000000 ) ) ;
#246 = DIRECTION ( 'NONE',  ( 0.0000000000000000000, -1.000000000000000000, 0.0000000000000000000 ) ) ;
#247 = CARTESIAN_POINT ( 'NONE',  ( 0.0000000000000000000, 0.0000000000000000000, 0.0000000000000000000 ) ) ;
#248 = VERTEX_POINT ( 'NONE', #217 ) ;
#249 = ADVANCED_FACE ( 'NONE', ( #93 ), #262, .T. ) ;
#250 = EDGE_LOOP ( 'NONE', ( #78, #76 ) ) ;
#251 = CONICAL_SURFACE ( 'NONE', #27, 0.01648350000000000162, 0.1745329251994338360 ) ;
#252 = ORIENTED_EDGE ( 'NONE', *, *, #195, .T. ) ;
#253 = ORIENTED_EDGE ( 'NONE', *, *, #172, .T. ) ;
#254 = ADVANCED_FACE ( 'NONE', ( #165 ), #147, .T. ) ;
#255 = AXIS2_PLACEMENT_3D ( 'NONE', #158, #110, #80 ) ;
#256 = DIRECTION ( 'NONE',  ( 1.000000000000000000, 0.0000000000000000000, 0.0000000000000000000 ) ) ;
#257 = VERTEX_POINT ( 'NONE', #154 ) ;
#258 = EDGE_CURVE ( 'NONE', #150, #209, #159, .T. ) ;
#259 = CARTESIAN_POINT ( 'NONE',  ( 0.0000000000000000000, 0.0000000000000000000, 1.500000000000000222 ) ) ;
#260 = APPLICATION_PROTOCOL_DEFINITION ( 'draft international standard', 'automotive_design', 1998, #52 ) ;
#261 = DIRECTION ( 'NONE',  ( 1.000000000000000000, 0.0000000000000000000, 0.0000000000000000000 ) ) ;
#262 = CONICAL_SURFACE ( 'NONE', #122, 0.04750000000000064587, 0.7853981633974466137 ) ;
#263 = PRODUCT_DEFINITION_FORMATION_WITH_SPECIFIED_SOURCE ( 'ANY', '', #87, .NOT_KNOWN. ) ;
#264 = LINE ( 'NONE', #239, #94 ) ;
#265 = CARTESIAN_POINT ( 'NONE',  ( 2.018646551374540468E-18, 0.0000000000000000000, 0.01648350000000000162 ) ) ;
#266 = DIMENSIONAL_EXPONENTS ( 1.000000000000000000, 0.0000000000000000000, 0.0000000000000000000, 0.0000000000000000000, 0.0000000000000000000, 0.0000000000000000000, 0.0000000000000000000 ) ;
#267 = LENGTH_MEASURE_WITH_UNIT ( LENGTH_MEASURE( 0.02539999999999999897 ), #90 );
#268 = DIRECTION ( 'NONE',  ( -1.000000000000000000, 0.0000000000000000000, 1.294783416780541583E-16 ) ) ;
#269 = VECTOR ( 'NONE', #143, 39.37007874015748143 ) ;
#270 = AXIS2_PLACEMENT_3D ( 'NONE', #222, #322, #275 ) ;
#271 = CARTESIAN_POINT ( 'NONE',  ( 0.0000000000000000000, 0.0000000000000000000, 1.500000000000000222 ) ) ;
#272 = CARTESIAN_POINT ( 'NONE',  ( 0.01648350000000001550, 0.0000000000000000000, 0.09900000000000000466 ) ) ;
#273 = ADVANCED_FACE ( 'NONE', ( #66 ), #251, .T. ) ;
#274 = DIRECTION ( 'NONE',  ( -1.224646799147353454E-16, -0.0000000000000000000, -1.000000000000000000 ) ) ;
#275 = DIRECTION ( 'NONE',  ( 1.000000000000000000, 0.0000000000000000000, 0.0000000000000000000 ) ) ;
#276 = AXIS2_PLACEMENT_3D ( 'NONE', #40, #274, #123 ) ;
#277 = LINE ( 'NONE', #272, #65 ) ;
#278 = DIRECTION ( 'NONE',  ( 0.0000000000000000000, 0.0000000000000000000, 1.000000000000000000 ) ) ;
#279 = ORIENTED_EDGE ( 'NONE', *, *, #29, .F. ) ;
#280 = ORIENTED_EDGE ( 'NONE', *, *, #103, .T. ) ;
#281 = ORIENTED_EDGE ( 'NONE', *, *, #103, .F. ) ;
#282 = EDGE_CURVE ( 'NONE', #196, #28, #19, .T. ) ;
#283 = VECTOR ( 'NONE', #37, 39.37007874015748143 ) ;
#284 = FILL_AREA_STYLE ('',( #180 ) ) ;
#285 = CARTESIAN_POINT ( 'NONE',  ( 0.06250000000000002776, 7.654042494670959086E-18, 1.485000000000000764 ) ) ;
#286 = DIMENSIONAL_EXPONENTS ( 1.000000000000000000, 0.0000000000000000000, 0.0000000000000000000, 0.0000000000000000000, 0.0000000000000000000, 0.0000000000000000000, 0.0000000000000000000 ) ;
#287 = DIRECTION ( 'NONE',  ( 0.0000000000000000000, 1.000000000000000000, 0.0000000000000000000 ) ) ;
#288 = DIRECTION ( 'NONE',  ( 1.000000000000000000, 0.0000000000000000000, 0.0000000000000000000 ) ) ;
#289 = LINE ( 'NONE', #162, #283 ) ;
#290 = AXIS2_PLACEMENT_3D ( 'NONE', #202, #278, #125 ) ;
#291 = CARTESIAN_POINT ( 'NONE',  ( 1.212400331155879918E-17, 0.0000000000000000000, 0.09900000000000000466 ) ) ;
#292 = CARTESIAN_POINT ( 'NONE',  ( 2.018646551374540468E-18, 0.0000000000000000000, 0.01648350000000000162 ) ) ;
#293 = DIRECTION ( 'NONE',  ( 0.0000000000000000000, 1.000000000000000000, 0.0000000000000000000 ) ) ;
#294 = EDGE_CURVE ( 'NONE', #209, #150, #132, .T. ) ;
#295 = FACE_OUTER_BOUND ( 'NONE', #193, .T. ) ;
#296 =( CONVERSION_BASED_UNIT ( 'INCH', #267 ) LENGTH_UNIT ( ) NAMED_UNIT ( #286 ) );
#297 = CARTESIAN_POINT ( 'NONE',  ( 2.018646551374540468E-18, 0.0000000000000000000, 0.01648350000000000162 ) ) ;
#298 = CARTESIAN_POINT ( 'NONE',  ( 0.01648350000000001550, 0.0000000000000000000, 0.09900000000000000466 ) ) ;
#299 = ORIENTED_EDGE ( 'NONE', *, *, #107, .T. ) ;
#300 = ORIENTED_EDGE ( 'NONE', *, *, #177, .F. ) ;
#301 = EDGE_LOOP ( 'NONE', ( #194, #280, #3, #54 ) ) ;
#302 = CARTESIAN_POINT ( 'NONE',  ( 0.0000000000000000000, 0.0000000000000000000, 0.0000000000000000000 ) ) ;
#303 = AXIS2_PLACEMENT_3D ( 'NONE', #271, #245, #35 ) ;
#304 = AXIS2_PLACEMENT_3D ( 'NONE', #265, #287, #204 ) ;
#305 = ORIENTED_EDGE ( 'NONE', *, *, #107, .F. ) ;
#306 =( NAMED_UNIT ( * ) PLANE_ANGLE_UNIT ( ) SI_UNIT ( $, .RADIAN. ) );
#307 = ORIENTED_EDGE ( 'NONE', *, *, #168, .F. ) ;
#308 = SURFACE_STYLE_USAGE ( .BOTH. , #101 ) ;
#309 = ADVANCED_FACE ( 'NONE', ( #191 ), #148, .T. ) ;
#310 = PRESENTATION_STYLE_ASSIGNMENT (( #308 ) ) ;
#311 = DIRECTION ( 'NONE',  ( 1.000000000000000000, 0.0000000000000000000, -0.0000000000000000000 ) ) ;
#312 = SPHERICAL_SURFACE ( 'NONE', #304, 0.01648350000000000162 ) ;
#313 = SURFACE_STYLE_USAGE ( .BOTH. , #183 ) ;
#314 = CARTESIAN_POINT ( 'NONE',  ( 0.01648350000000000162, 2.018646551374539697E-18, 0.01648349999999999815 ) ) ;
#315 = ADVANCED_FACE ( 'NONE', ( #109 ), #312, .T. ) ;
#316 = CIRCLE ( 'NONE', #60, 0.01648350000000000162 ) ;
#317 = STYLED_ITEM ( 'NONE', ( #310 ), #100 ) ;
#318 = DIRECTION ( 'NONE',  ( -1.000000000000000000, 0.0000000000000000000, 0.0000000000000000000 ) ) ;
#319 = DIRECTION ( 'NONE',  ( 0.0000000000000000000, 0.0000000000000000000, -1.000000000000000000 ) ) ;
#320 = CARTESIAN_POINT ( 'NONE',  ( -0.04750000000000064587, 0.0000000000000000000, 1.500000000000000222 ) ) ;
#321 = DIRECTION ( 'NONE',  ( 1.224646799147353207E-16, 1.000000000000000000, -0.0000000000000000000 ) ) ;
#322 = DIRECTION ( 'NONE',  ( 0.0000000000000000000, 0.0000000000000000000, 1.000000000000000000 ) ) ;
#323 = LINE ( 'NONE', #18, #269 ) ;
#324 = ORIENTED_EDGE ( 'NONE', *, *, #84, .T. ) ;
#325 = CLOSED_SHELL ( 'NONE', ( #161, #199, #74, #249, #210, #254, #58, #185, #273, #309, #315 ) ) ;
ENDSEC;
END-ISO-10303-21;
