ISO-10303-21;
HEADER;
FILE_DESCRIPTION (( 'STEP AP214' ),
    '1' );
FILE_NAME ('Micro_BMRM-016-2X.STEP',
    '2021-09-03T14:32:07',
    ( '' ),
    ( '' ),
    'SwSTEP 2.0',
    'SolidWorks 2020',
    '' );
FILE_SCHEMA (( 'AUTOMOTIVE_DESIGN' ));
ENDSEC;

DATA;
#1 = FACE_OUTER_BOUND ( 'NONE', #97, .T. ) ;
#2 = ORIENTED_EDGE ( 'NONE', *, *, #263, .F. ) ;
#3 = DIRECTION ( 'NONE',  ( 0.0000000000000000000, 0.0000000000000000000, 1.000000000000000000 ) ) ;
#4 = CIRCLE ( 'NONE', #163, 0.06374000000000018540 ) ;
#5 = AXIS2_PLACEMENT_3D ( 'NONE', #103, #127, #277 ) ;
#6 = ORIENTED_EDGE ( 'NONE', *, *, #99, .T. ) ;
#7 = CARTESIAN_POINT ( 'NONE',  ( -0.03146450399999999037, 0.0000000000000000000, 0.03146450399999999731 ) ) ;
#8 = ORIENTED_EDGE ( 'NONE', *, *, #298, .T. ) ;
#9 = AXIS2_PLACEMENT_3D ( 'NONE', #125, #148, #229 ) ;
#10 = EDGE_LOOP ( 'NONE', ( #82, #106, #50, #54 ) ) ;
#11 =( GEOMETRIC_REPRESENTATION_CONTEXT ( 3 ) GLOBAL_UNCERTAINTY_ASSIGNED_CONTEXT ( ( #180 ) ) GLOBAL_UNIT_ASSIGNED_CONTEXT ( ( #44, #146, #247 ) ) REPRESENTATION_CONTEXT ( 'NONE', 'WORKASPACE' ) );
#12 = AXIS2_PLACEMENT_3D ( 'NONE', #77, #174, #28 ) ;
#13 = FILL_AREA_STYLE_COLOUR ( '', #66 ) ;
#14 = PRODUCT_CONTEXT ( 'NONE', #80, 'mechanical' ) ;
#15 = LINE ( 'NONE', #322, #266 ) ;
#16 = PRODUCT_DEFINITION_SHAPE ( 'NONE', 'NONE',  #320 ) ;
#17 = DIRECTION ( 'NONE',  ( 0.0000000000000000000, 0.0000000000000000000, 1.000000000000000000 ) ) ;
#18 = CIRCLE ( 'NONE', #110, 0.07874000000000000443 ) ;
#19 = EDGE_CURVE ( 'NONE', #151, #208, #248, .T. ) ;
#20 = CONICAL_SURFACE ( 'NONE', #41, 0.03146450399999999731, 0.1745329251994338637 ) ;
#21 = DIRECTION ( 'NONE',  ( 0.0000000000000000000, -1.000000000000000000, 0.0000000000000000000 ) ) ;
#22 = DIRECTION ( 'NONE',  ( -1.000000000000000000, 0.0000000000000000000, 1.356612038155888783E-16 ) ) ;
#23 = DIRECTION ( 'NONE',  ( -1.000000000000000000, 0.0000000000000000000, 1.224646799147353207E-16 ) ) ;
#24 = EDGE_CURVE ( 'NONE', #235, #307, #72, .T. ) ;
#25 = AXIS2_PLACEMENT_3D ( 'NONE', #297, #21, #70 ) ;
#26 = DIRECTION ( 'NONE',  ( -1.224646799147353207E-16, -0.0000000000000000000, -1.000000000000000000 ) ) ;
#27 = EDGE_LOOP ( 'NONE', ( #2, #206, #221, #209 ) ) ;
#28 = DIRECTION ( 'NONE',  ( -1.000000000000000000, 0.0000000000000000000, 0.0000000000000000000 ) ) ;
#29 = ORIENTED_EDGE ( 'NONE', *, *, #48, .T. ) ;
#30 = CYLINDRICAL_SURFACE ( 'NONE', #138, 0.07874000000000000443 ) ;
#31 = ORIENTED_EDGE ( 'NONE', *, *, #19, .T. ) ;
#32 = DIRECTION ( 'NONE',  ( 1.224646799147353207E-16, 0.0000000000000000000, 1.000000000000000000 ) ) ;
#33 = CARTESIAN_POINT ( 'NONE',  ( -0.03146450399999997649, 3.853290411035908808E-18, 0.1889760000000000051 ) ) ;
#34 = VECTOR ( 'NONE', #203, 39.37007874015748143 ) ;
#35 = PRESENTATION_STYLE_ASSIGNMENT (( #234 ) ) ;
#36 = ORIENTED_EDGE ( 'NONE', *, *, #24, .F. ) ;
#37 =( CONVERSION_BASED_UNIT ( 'INCH', #69 ) LENGTH_UNIT ( ) NAMED_UNIT ( #170 ) );
#38 = EDGE_CURVE ( 'NONE', #208, #144, #304, .T. ) ;
#39 = CARTESIAN_POINT ( 'NONE',  ( 0.07874000000000000443, 9.642868896486258509E-18, 1.968503999999999809 ) ) ;
#40 = CIRCLE ( 'NONE', #25, 0.03146450399999999731 ) ;
#41 = AXIS2_PLACEMENT_3D ( 'NONE', #264, #32, #268 ) ;
#42 = CARTESIAN_POINT ( 'NONE',  ( 0.0000000000000000000, 0.0000000000000000000, 1.968503999999999809 ) ) ;
#43 = ORIENTED_EDGE ( 'NONE', *, *, #48, .F. ) ;
#44 =( CONVERSION_BASED_UNIT ( 'INCH', #276 ) LENGTH_UNIT ( ) NAMED_UNIT ( #122 ) );
#45 = AXIS2_PLACEMENT_3D ( 'NONE', #176, #26, #289 ) ;
#46 = EDGE_LOOP ( 'NONE', ( #129, #181, #43, #139 ) ) ;
#47 = SPHERICAL_SURFACE ( 'NONE', #9, 0.03146450399999999731 ) ;
#48 = EDGE_CURVE ( 'NONE', #56, #151, #205, .T. ) ;
#49 = DIRECTION ( 'NONE',  ( -1.000000000000000000, 1.224646799147353207E-16, 0.0000000000000000000 ) ) ;
#50 = ORIENTED_EDGE ( 'NONE', *, *, #265, .T. ) ;
#51 = DIRECTION ( 'NONE',  ( -1.224646799147353207E-16, -0.0000000000000000000, -1.000000000000000000 ) ) ;
#52 = VERTEX_POINT ( 'NONE', #171 ) ;
#53 = LINE ( 'NONE', #278, #311 ) ;
#54 = ORIENTED_EDGE ( 'NONE', *, *, #149, .F. ) ;
#55 = DIRECTION ( 'NONE',  ( 0.0000000000000000000, 1.000000000000000000, 0.0000000000000000000 ) ) ;
#56 = VERTEX_POINT ( 'NONE', #64 ) ;
#57 = FACE_OUTER_BOUND ( 'NONE', #231, .T. ) ;
#58 = ORIENTED_EDGE ( 'NONE', *, *, #149, .T. ) ;
#59 = DIRECTION ( 'NONE',  ( -0.0000000000000000000, -0.0000000000000000000, -1.000000000000000000 ) ) ;
#60 = CARTESIAN_POINT ( 'NONE',  ( 0.0000000000000000000, 0.0000000000000000000, 1.968503999999999809 ) ) ;
#61 = ADVANCED_BREP_SHAPE_REPRESENTATION ( 'Micro_BMRM-016-2X', ( #136, #321 ), #220 ) ;
#62 = FACE_OUTER_BOUND ( 'NONE', #282, .T. ) ;
#63 = CARTESIAN_POINT ( 'NONE',  ( 0.0000000000000000000, 0.0000000000000000000, 0.0000000000000000000 ) ) ;
#64 = CARTESIAN_POINT ( 'NONE',  ( -0.07874000000000000443, 0.0000000000000000000, 1.953504000000000129 ) ) ;
#65 = DIRECTION ( 'NONE',  ( -1.000000000000000000, 0.0000000000000000000, 0.0000000000000000000 ) ) ;
#66 = COLOUR_RGB ( '',0.7921568627450980005, 0.8196078431372548767, 0.9333333333333333481 ) ;
#67 = AXIS2_PLACEMENT_3D ( 'NONE', #262, #238, #310 ) ;
#68 = CARTESIAN_POINT ( 'NONE',  ( 0.03146450400000001812, 0.0000000000000000000, 0.1889760000000000051 ) ) ;
#69 = LENGTH_MEASURE_WITH_UNIT ( LENGTH_MEASURE( 0.02539999999999999897 ), #236 );
#70 = DIRECTION ( 'NONE',  ( 0.0000000000000000000, 0.0000000000000000000, -1.000000000000000000 ) ) ;
#71 = LINE ( 'NONE', #281, #123 ) ;
#72 = CIRCLE ( 'NONE', #73, 0.03146450399999999731 ) ;
#73 = AXIS2_PLACEMENT_3D ( 'NONE', #272, #93, #22 ) ;
#74 = CIRCLE ( 'NONE', #67, 0.03146450399999999731 ) ;
#75 = DIRECTION ( 'NONE',  ( -1.000000000000000000, 0.0000000000000000000, 0.0000000000000000000 ) ) ;
#76 = EDGE_CURVE ( 'NONE', #134, #208, #120, .T. ) ;
#77 = CARTESIAN_POINT ( 'NONE',  ( 0.0000000000000000000, 0.0000000000000000000, 1.968503999999999809 ) ) ;
#78 = EDGE_CURVE ( 'NONE', #144, #208, #130, .T. ) ;
#79 = ORIENTED_EDGE ( 'NONE', *, *, #38, .F. ) ;
#80 = APPLICATION_CONTEXT ( 'automotive_design' ) ;
#81 = DIRECTION ( 'NONE',  ( -1.224646799147353207E-16, -0.0000000000000000000, -1.000000000000000000 ) ) ;
#82 = ORIENTED_EDGE ( 'NONE', *, *, #228, .T. ) ;
#83 = DIRECTION ( 'NONE',  ( -0.1736481776669311639, 2.126576849575783008E-17, 0.9848077530122080203 ) ) ;
#84 = ORIENTED_EDGE ( 'NONE', *, *, #204, .F. ) ;
#85 = EDGE_CURVE ( 'NONE', #52, #56, #15, .T. ) ;
#86 = CARTESIAN_POINT ( 'NONE',  ( 0.03146450399999999731, 3.853290411035908808E-18, 0.03146450399999999037 ) ) ;
#87 = EDGE_LOOP ( 'NONE', ( #261, #308, #132 ) ) ;
#88 = SURFACE_STYLE_FILL_AREA ( #290 ) ;
#89 = UNCERTAINTY_MEASURE_WITH_UNIT (LENGTH_MEASURE( 1.000000000000000082E-05 ), #37, 'distance_accuracy_value', 'NONE');
#90 =( LENGTH_UNIT ( ) NAMED_UNIT ( * ) SI_UNIT ( $, .METRE. ) );
#91 = EDGE_CURVE ( 'NONE', #254, #307, #40, .T. ) ;
#92 = DIRECTION ( 'NONE',  ( 0.0000000000000000000, 0.0000000000000000000, -1.000000000000000000 ) ) ;
#93 = DIRECTION ( 'NONE',  ( 1.224646799147353207E-16, 0.0000000000000000000, 1.000000000000000000 ) ) ;
#94 =( NAMED_UNIT ( * ) PLANE_ANGLE_UNIT ( ) SI_UNIT ( $, .RADIAN. ) );
#95 = VECTOR ( 'NONE', #167, 39.37007874015748143 ) ;
#96 = ORIENTED_EDGE ( 'NONE', *, *, #76, .F. ) ;
#97 = EDGE_LOOP ( 'NONE', ( #211, #256, #177, #79 ) ) ;
#98 = DIRECTION ( 'NONE',  ( 1.224646799147353207E-16, 1.000000000000000000, -0.0000000000000000000 ) ) ;
#99 = EDGE_CURVE ( 'NONE', #52, #240, #4, .T. ) ;
#100 = PRESENTATION_LAYER_ASSIGNMENT (  '', '', ( #218 ) ) ;
#101 = LINE ( 'NONE', #128, #34 ) ;
#102 = CARTESIAN_POINT ( 'NONE',  ( 2.314288535156702350E-17, 0.0000000000000000000, 0.1889760000000000051 ) ) ;
#103 = CARTESIAN_POINT ( 'NONE',  ( 0.0000000000000000000, 0.0000000000000000000, 1.968503999999999809 ) ) ;
#104 = EDGE_LOOP ( 'NONE', ( #29, #31, #280, #84 ) ) ;
#105 = DIRECTION ( 'NONE',  ( 1.224646799147353207E-16, 0.0000000000000000000, 1.000000000000000000 ) ) ;
#106 = ORIENTED_EDGE ( 'NONE', *, *, #182, .T. ) ;
#107 = FACE_OUTER_BOUND ( 'NONE', #104, .T. ) ;
#108 = ORIENTED_EDGE ( 'NONE', *, *, #85, .T. ) ;
#109 =( NAMED_UNIT ( * ) PLANE_ANGLE_UNIT ( ) SI_UNIT ( $, .RADIAN. ) );
#110 = AXIS2_PLACEMENT_3D ( 'NONE', #244, #92, #323 ) ;
#111 = CIRCLE ( 'NONE', #184, 0.06374000000000018540 ) ;
#112 =( CONVERSION_BASED_UNIT ( 'INCH', #164 ) LENGTH_UNIT ( ) NAMED_UNIT ( #225 ) );
#113 = CARTESIAN_POINT ( 'NONE',  ( 0.0000000000000000000, 0.0000000000000000000, 1.968503999999999809 ) ) ;
#114 = EDGE_LOOP ( 'NONE', ( #6, #8 ) ) ;
#115 = APPLICATION_PROTOCOL_DEFINITION ( 'draft international standard', 'automotive_design', 1998, #124 ) ;
#116 = SURFACE_SIDE_STYLE ('',( #189 ) ) ;
#117 = DIRECTION ( 'NONE',  ( -0.7071067811865502373, 0.0000000000000000000, -0.7071067811865446862 ) ) ;
#118 = DIRECTION ( 'NONE',  ( 0.0000000000000000000, 0.0000000000000000000, -1.000000000000000000 ) ) ;
#119 = CARTESIAN_POINT ( 'NONE',  ( 0.03146450400000001812, 0.0000000000000000000, 0.1889760000000000051 ) ) ;
#120 = LINE ( 'NONE', #68, #95 ) ;
#121 = ADVANCED_FACE ( 'NONE', ( #269 ), #212, .T. ) ;
#122 = DIMENSIONAL_EXPONENTS ( 1.000000000000000000, 0.0000000000000000000, 0.0000000000000000000, 0.0000000000000000000, 0.0000000000000000000, 0.0000000000000000000, 0.0000000000000000000 ) ;
#123 = VECTOR ( 'NONE', #150, 39.37007874015748143 ) ;
#124 = APPLICATION_CONTEXT ( 'automotive_design' ) ;
#125 = CARTESIAN_POINT ( 'NONE',  ( 3.853290411035908808E-18, 0.0000000000000000000, 0.03146450399999999731 ) ) ;
#126 = EDGE_CURVE ( 'NONE', #151, #56, #18, .T. ) ;
#127 = DIRECTION ( 'NONE',  ( 0.0000000000000000000, 0.0000000000000000000, -1.000000000000000000 ) ) ;
#128 = CARTESIAN_POINT ( 'NONE',  ( -0.07874000000000000443, 0.0000000000000000000, 1.968503999999999809 ) ) ;
#129 = ORIENTED_EDGE ( 'NONE', *, *, #298, .F. ) ;
#130 = CIRCLE ( 'NONE', #193, 0.07874000000000000443 ) ;
#131 = AXIS2_PLACEMENT_3D ( 'NONE', #158, #55, #239 ) ;
#132 = ORIENTED_EDGE ( 'NONE', *, *, #265, .F. ) ;
#133 = CARTESIAN_POINT ( 'NONE',  ( 0.06374000000000018540, 7.805898697765251255E-18, 1.968503999999999809 ) ) ;
#134 = VERTEX_POINT ( 'NONE', #119 ) ;
#135 = CARTESIAN_POINT ( 'NONE',  ( -0.03146450399999997649, 6.748079653761082503E-18, 0.1889760000000000051 ) ) ;
#136 = MANIFOLD_SOLID_BREP ( 'Fillet1', #169 ) ;
#137 = DIRECTION ( 'NONE',  ( 0.7071067811865502373, 8.659560562354966138E-17, -0.7071067811865446862 ) ) ;
#138 = AXIS2_PLACEMENT_3D ( 'NONE', #60, #59, #166 ) ;
#139 = ORIENTED_EDGE ( 'NONE', *, *, #85, .F. ) ;
#140 = DIRECTION ( 'NONE',  ( 1.000000000000000000, 0.0000000000000000000, 0.0000000000000000000 ) ) ;
#141 = DIRECTION ( 'NONE',  ( -0.0000000000000000000, -0.0000000000000000000, -1.000000000000000000 ) ) ;
#142 = ORIENTED_EDGE ( 'NONE', *, *, #263, .T. ) ;
#143 = PRODUCT_RELATED_PRODUCT_CATEGORY ( 'part', '', ( #202 ) ) ;
#144 = VERTEX_POINT ( 'NONE', #178 ) ;
#145 = SHAPE_DEFINITION_REPRESENTATION ( #16, #61 ) ;
#146 =( NAMED_UNIT ( * ) PLANE_ANGLE_UNIT ( ) SI_UNIT ( $, .RADIAN. ) );
#147 = CONICAL_SURFACE ( 'NONE', #267, 0.03146450399999999731, 0.1745329251994338637 ) ;
#148 = DIRECTION ( 'NONE',  ( 0.0000000000000000000, 1.000000000000000000, 0.0000000000000000000 ) ) ;
#149 = EDGE_CURVE ( 'NONE', #305, #235, #71, .T. ) ;
#150 = DIRECTION ( 'NONE',  ( -1.224646799147353207E-16, -0.0000000000000000000, -1.000000000000000000 ) ) ;
#151 = VERTEX_POINT ( 'NONE', #207 ) ;
#152 = CARTESIAN_POINT ( 'NONE',  ( 0.0000000000000000000, 0.0000000000000000000, 0.0000000000000000000 ) ) ;
#153 = ORIENTED_EDGE ( 'NONE', *, *, #162, .T. ) ;
#154 = EDGE_CURVE ( 'NONE', #254, #235, #198, .T. ) ;
#155 = FACE_OUTER_BOUND ( 'NONE', #87, .T. ) ;
#156 = EDGE_LOOP ( 'NONE', ( #185, #259, #108, #233 ) ) ;
#157 = MECHANICAL_DESIGN_GEOMETRIC_PRESENTATION_REPRESENTATION (  '', ( #317 ), #242 ) ;
#158 = CARTESIAN_POINT ( 'NONE',  ( 3.853290411035908808E-18, 0.0000000000000000000, 0.03146450399999999731 ) ) ;
#159 = CARTESIAN_POINT ( 'NONE',  ( 0.06374000000000018540, 8.724383797125754882E-18, 1.968503999999999809 ) ) ;
#160 = ORIENTED_EDGE ( 'NONE', *, *, #154, .F. ) ;
#161 = LINE ( 'NONE', #133, #313 ) ;
#162 = EDGE_CURVE ( 'NONE', #134, #305, #183, .T. ) ;
#163 = AXIS2_PLACEMENT_3D ( 'NONE', #172, #17, #274 ) ;
#164 = LENGTH_MEASURE_WITH_UNIT ( LENGTH_MEASURE( 0.02539999999999999897 ), #90 );
#165 = AXIS2_PLACEMENT_3D ( 'NONE', #152, #249, #23 ) ;
#166 = DIRECTION ( 'NONE',  ( -1.000000000000000000, 0.0000000000000000000, 0.0000000000000000000 ) ) ;
#167 = DIRECTION ( 'NONE',  ( 0.1736481776669313581, 0.0000000000000000000, 0.9848077530122077983 ) ) ;
#168 = ADVANCED_FACE ( 'NONE', ( #250 ), #306, .T. ) ;
#169 = CLOSED_SHELL ( 'NONE', ( #190, #168, #296, #121, #271, #195, #213, #192, #217, #200, #255 ) ) ;
#170 = DIMENSIONAL_EXPONENTS ( 1.000000000000000000, 0.0000000000000000000, 0.0000000000000000000, 0.0000000000000000000, 0.0000000000000000000, 0.0000000000000000000, 0.0000000000000000000 ) ;
#171 = CARTESIAN_POINT ( 'NONE',  ( -0.06374000000000018540, 0.0000000000000000000, 1.968503999999999809 ) ) ;
#172 = CARTESIAN_POINT ( 'NONE',  ( 0.0000000000000000000, 0.0000000000000000000, 1.968503999999999809 ) ) ;
#173 = SURFACE_STYLE_USAGE ( .BOTH. , #116 ) ;
#174 = DIRECTION ( 'NONE',  ( -0.0000000000000000000, -0.0000000000000000000, -1.000000000000000000 ) ) ;
#175 = CARTESIAN_POINT ( 'NONE',  ( 3.853290411035908808E-18, 0.0000000000000000000, 0.03146450399999999731 ) ) ;
#176 = CARTESIAN_POINT ( 'NONE',  ( 2.314288535156702350E-17, 0.0000000000000000000, 0.1889760000000000051 ) ) ;
#177 = ORIENTED_EDGE ( 'NONE', *, *, #204, .T. ) ;
#178 = CARTESIAN_POINT ( 'NONE',  ( -0.07873999999999994892, 0.0000000000000000000, 0.4570886609782083276 ) ) ;
#179 = ORIENTED_EDGE ( 'NONE', *, *, #182, .F. ) ;
#180 = UNCERTAINTY_MEASURE_WITH_UNIT (LENGTH_MEASURE( 1.000000000000000082E-05 ), #44, 'distance_accuracy_value', 'NONE');
#181 = ORIENTED_EDGE ( 'NONE', *, *, #309, .T. ) ;
#182 = EDGE_CURVE ( 'NONE', #134, #307, #53, .T. ) ;
#183 = CIRCLE ( 'NONE', #279, 0.03146450399999999731 ) ;
#184 = AXIS2_PLACEMENT_3D ( 'NONE', #113, #186, #216 ) ;
#185 = ORIENTED_EDGE ( 'NONE', *, *, #309, .F. ) ;
#186 = DIRECTION ( 'NONE',  ( 0.0000000000000000000, 0.0000000000000000000, 1.000000000000000000 ) ) ;
#187 = APPLICATION_PROTOCOL_DEFINITION ( 'draft international standard', 'automotive_design', 1998, #80 ) ;
#188 = CONICAL_SURFACE ( 'NONE', #5, 0.06374000000000018540, 0.7853981633974522758 ) ;
#189 = SURFACE_STYLE_FILL_AREA ( #270 ) ;
#190 = ADVANCED_FACE ( 'NONE', ( #155 ), #47, .T. ) ;
#191 = CARTESIAN_POINT ( 'NONE',  ( 5.597721655935125696E-17, 0.0000000000000000000, 0.4570886609782083276 ) ) ;
#192 = ADVANCED_FACE ( 'NONE', ( #324 ), #188, .T. ) ;
#193 = AXIS2_PLACEMENT_3D ( 'NONE', #292, #243, #226 ) ;
#194 = ORIENTED_EDGE ( 'NONE', *, *, #228, .F. ) ;
#195 = ADVANCED_FACE ( 'NONE', ( #1 ), #230, .T. ) ;
#196 = CARTESIAN_POINT ( 'NONE',  ( 0.0000000000000000000, 0.0000000000000000000, 1.953504000000000129 ) ) ;
#197 = CYLINDRICAL_SURFACE ( 'NONE', #165, 0.03146450399999999731 ) ;
#198 = CIRCLE ( 'NONE', #286, 0.03146450399999999731 ) ;
#199 = CARTESIAN_POINT ( 'NONE',  ( 0.0000000000000000000, 0.0000000000000000000, 1.968503999999999809 ) ) ;
#200 = ADVANCED_FACE ( 'NONE', ( #325 ), #197, .T. ) ;
#201 = DIRECTION ( 'NONE',  ( 1.000000000000000000, 0.0000000000000000000, 0.0000000000000000000 ) ) ;
#202 = PRODUCT ( 'Micro_BMRM-016-2X', 'Micro_BMRM-016-2X', '', ( #14 ) ) ;
#203 = DIRECTION ( 'NONE',  ( -0.0000000000000000000, -0.0000000000000000000, -1.000000000000000000 ) ) ;
#204 = EDGE_CURVE ( 'NONE', #56, #144, #101, .T. ) ;
#205 = CIRCLE ( 'NONE', #219, 0.07874000000000000443 ) ;
#206 = ORIENTED_EDGE ( 'NONE', *, *, #162, .F. ) ;
#207 = CARTESIAN_POINT ( 'NONE',  ( 0.07874000000000000443, 9.642868896486258509E-18, 1.953504000000000129 ) ) ;
#208 = VERTEX_POINT ( 'NONE', #232 ) ;
#209 = ORIENTED_EDGE ( 'NONE', *, *, #38, .T. ) ;
#210 = SURFACE_SIDE_STYLE ('',( #88 ) ) ;
#211 = ORIENTED_EDGE ( 'NONE', *, *, #19, .F. ) ;
#212 = CONICAL_SURFACE ( 'NONE', #251, 0.06374000000000018540, 0.7853981633974522758 ) ;
#213 = ADVANCED_FACE ( 'NONE', ( #303 ), #302, .T. ) ;
#214 = CIRCLE ( 'NONE', #45, 0.03146450399999999731 ) ;
#215 = SPHERICAL_SURFACE ( 'NONE', #131, 0.03146450399999999731 ) ;
#216 = DIRECTION ( 'NONE',  ( 1.000000000000000000, 0.0000000000000000000, 0.0000000000000000000 ) ) ;
#217 = ADVANCED_FACE ( 'NONE', ( #253 ), #147, .T. ) ;
#218 = STYLED_ITEM ( 'NONE', ( #222 ), #136 ) ;
#219 = AXIS2_PLACEMENT_3D ( 'NONE', #196, #224, #295 ) ;
#220 =( GEOMETRIC_REPRESENTATION_CONTEXT ( 3 ) GLOBAL_UNCERTAINTY_ASSIGNED_CONTEXT ( ( #312 ) ) GLOBAL_UNIT_ASSIGNED_CONTEXT ( ( #112, #109, #285 ) ) REPRESENTATION_CONTEXT ( 'NONE', 'WORKASPACE' ) );
#221 = ORIENTED_EDGE ( 'NONE', *, *, #76, .T. ) ;
#222 = PRESENTATION_STYLE_ASSIGNMENT (( #173 ) ) ;
#223 =( LENGTH_UNIT ( ) NAMED_UNIT ( * ) SI_UNIT ( $, .METRE. ) );
#224 = DIRECTION ( 'NONE',  ( 0.0000000000000000000, 0.0000000000000000000, -1.000000000000000000 ) ) ;
#225 = DIMENSIONAL_EXPONENTS ( 1.000000000000000000, 0.0000000000000000000, 0.0000000000000000000, 0.0000000000000000000, 0.0000000000000000000, 0.0000000000000000000, 0.0000000000000000000 ) ;
#226 = DIRECTION ( 'NONE',  ( 1.000000000000000000, 0.0000000000000000000, 0.0000000000000000000 ) ) ;
#227 = DIRECTION ( 'NONE',  ( -1.000000000000000000, 0.0000000000000000000, 1.224646799147353207E-16 ) ) ;
#228 = EDGE_CURVE ( 'NONE', #305, #134, #214, .T. ) ;
#229 = DIRECTION ( 'NONE',  ( 1.000000000000000000, 0.0000000000000000000, 0.0000000000000000000 ) ) ;
#230 = CYLINDRICAL_SURFACE ( 'NONE', #12, 0.07874000000000000443 ) ;
#231 = EDGE_LOOP ( 'NONE', ( #194, #142, #314, #96 ) ) ;
#232 = CARTESIAN_POINT ( 'NONE',  ( 0.07874000000000004607, 9.642868896486264672E-18, 0.4570886609782083276 ) ) ;
#233 = ORIENTED_EDGE ( 'NONE', *, *, #126, .F. ) ;
#234 = SURFACE_STYLE_USAGE ( .BOTH. , #210 ) ;
#235 = VERTEX_POINT ( 'NONE', #7 ) ;
#236 =( LENGTH_UNIT ( ) NAMED_UNIT ( * ) SI_UNIT ( $, .METRE. ) );
#237 = VECTOR ( 'NONE', #83, 39.37007874015747433 ) ;
#238 = DIRECTION ( 'NONE',  ( 1.224646799147353207E-16, 0.0000000000000000000, 1.000000000000000000 ) ) ;
#239 = DIRECTION ( 'NONE',  ( 1.000000000000000000, 0.0000000000000000000, 0.0000000000000000000 ) ) ;
#240 = VERTEX_POINT ( 'NONE', #159 ) ;
#241 = VECTOR ( 'NONE', #141, 39.37007874015748143 ) ;
#242 =( GEOMETRIC_REPRESENTATION_CONTEXT ( 3 ) GLOBAL_UNCERTAINTY_ASSIGNED_CONTEXT ( ( #89 ) ) GLOBAL_UNIT_ASSIGNED_CONTEXT ( ( #37, #94, #273 ) ) REPRESENTATION_CONTEXT ( 'NONE', 'WORKASPACE' ) );
#243 = DIRECTION ( 'NONE',  ( -1.224646799147353207E-16, -0.0000000000000000000, -1.000000000000000000 ) ) ;
#244 = CARTESIAN_POINT ( 'NONE',  ( 0.0000000000000000000, 0.0000000000000000000, 1.953504000000000129 ) ) ;
#245 = DIRECTION ( 'NONE',  ( 1.000000000000000000, 0.0000000000000000000, 0.0000000000000000000 ) ) ;
#246 = DIRECTION ( 'NONE',  ( 0.0000000000000000000, 0.0000000000000000000, 1.000000000000000000 ) ) ;
#247 =( NAMED_UNIT ( * ) SI_UNIT ( $, .STERADIAN. ) SOLID_ANGLE_UNIT ( ) );
#248 = LINE ( 'NONE', #39, #241 ) ;
#249 = DIRECTION ( 'NONE',  ( -1.224646799147353207E-16, -0.0000000000000000000, -1.000000000000000000 ) ) ;
#250 = FACE_OUTER_BOUND ( 'NONE', #10, .T. ) ;
#251 = AXIS2_PLACEMENT_3D ( 'NONE', #42, #118, #65 ) ;
#252 = COLOUR_RGB ( '',0.7921568627450980005, 0.8196078431372548767, 0.9333333333333333481 ) ;
#253 = FACE_OUTER_BOUND ( 'NONE', #27, .T. ) ;
#254 = VERTEX_POINT ( 'NONE', #315 ) ;
#255 = ADVANCED_FACE ( 'NONE', ( #62 ), #215, .T. ) ;
#256 = ORIENTED_EDGE ( 'NONE', *, *, #126, .T. ) ;
#257 = DIRECTION ( 'NONE',  ( -1.224646799147353207E-16, -0.0000000000000000000, -1.000000000000000000 ) ) ;
#258 = MECHANICAL_DESIGN_GEOMETRIC_PRESENTATION_REPRESENTATION (  '', ( #218 ), #11 ) ;
#259 = ORIENTED_EDGE ( 'NONE', *, *, #99, .F. ) ;
#260 = PRESENTATION_LAYER_ASSIGNMENT (  '', '', ( #317 ) ) ;
#261 = ORIENTED_EDGE ( 'NONE', *, *, #91, .F. ) ;
#262 = CARTESIAN_POINT ( 'NONE',  ( 3.853290411035908808E-18, 0.0000000000000000000, 0.03146450399999999731 ) ) ;
#263 = EDGE_CURVE ( 'NONE', #305, #144, #316, .T. ) ;
#264 = CARTESIAN_POINT ( 'NONE',  ( 2.314288535156702350E-17, 0.0000000000000000000, 0.1889760000000000051 ) ) ;
#265 = EDGE_CURVE ( 'NONE', #307, #235, #74, .T. ) ;
#266 = VECTOR ( 'NONE', #117, 39.37007874015748854 ) ;
#267 = AXIS2_PLACEMENT_3D ( 'NONE', #102, #105, #201 ) ;
#268 = DIRECTION ( 'NONE',  ( 1.000000000000000000, 0.0000000000000000000, 0.0000000000000000000 ) ) ;
#269 = FACE_OUTER_BOUND ( 'NONE', #46, .T. ) ;
#270 = FILL_AREA_STYLE ('',( #13 ) ) ;
#271 = ADVANCED_FACE ( 'NONE', ( #107 ), #30, .T. ) ;
#272 = CARTESIAN_POINT ( 'NONE',  ( 3.853290411035908808E-18, 0.0000000000000000000, 0.03146450399999999731 ) ) ;
#273 =( NAMED_UNIT ( * ) SI_UNIT ( $, .STERADIAN. ) SOLID_ANGLE_UNIT ( ) );
#274 = DIRECTION ( 'NONE',  ( 1.000000000000000000, 0.0000000000000000000, 0.0000000000000000000 ) ) ;
#275 = AXIS2_PLACEMENT_3D ( 'NONE', #191, #291, #245 ) ;
#276 = LENGTH_MEASURE_WITH_UNIT ( LENGTH_MEASURE( 0.02539999999999999897 ), #223 );
#277 = DIRECTION ( 'NONE',  ( -1.000000000000000000, 0.0000000000000000000, 0.0000000000000000000 ) ) ;
#278 = CARTESIAN_POINT ( 'NONE',  ( 0.03146450399999999731, 3.853290411035908808E-18, -3.853290411035908808E-18 ) ) ;
#279 = AXIS2_PLACEMENT_3D ( 'NONE', #300, #81, #75 ) ;
#280 = ORIENTED_EDGE ( 'NONE', *, *, #78, .F. ) ;
#281 = CARTESIAN_POINT ( 'NONE',  ( -0.03146450399999999731, 0.0000000000000000000, 3.853290411035908808E-18 ) ) ;
#282 = EDGE_LOOP ( 'NONE', ( #160, #318, #36 ) ) ;
#283 = CARTESIAN_POINT ( 'NONE',  ( 0.0000000000000000000, 0.0000000000000000000, 0.0000000000000000000 ) ) ;
#284 = ORIENTED_EDGE ( 'NONE', *, *, #24, .T. ) ;
#285 =( NAMED_UNIT ( * ) SI_UNIT ( $, .STERADIAN. ) SOLID_ANGLE_UNIT ( ) );
#286 = AXIS2_PLACEMENT_3D ( 'NONE', #175, #98, #49 ) ;
#287 = EDGE_LOOP ( 'NONE', ( #179, #153, #58, #284 ) ) ;
#288 = FILL_AREA_STYLE_COLOUR ( '', #252 ) ;
#289 = DIRECTION ( 'NONE',  ( -1.000000000000000000, 0.0000000000000000000, 0.0000000000000000000 ) ) ;
#290 = FILL_AREA_STYLE ('',( #288 ) ) ;
#291 = DIRECTION ( 'NONE',  ( -1.224646799147353207E-16, -0.0000000000000000000, -1.000000000000000000 ) ) ;
#292 = CARTESIAN_POINT ( 'NONE',  ( 5.597721655935125696E-17, 0.0000000000000000000, 0.4570886609782083276 ) ) ;
#293 = AXIS2_PLACEMENT_3D ( 'NONE', #283, #257, #227 ) ;
#294 = PRODUCT_DEFINITION_FORMATION_WITH_SPECIFIED_SOURCE ( 'ANY', '', #202, .NOT_KNOWN. ) ;
#295 = DIRECTION ( 'NONE',  ( 1.000000000000000000, 0.0000000000000000000, 0.0000000000000000000 ) ) ;
#296 = ADVANCED_FACE ( 'NONE', ( #57 ), #20, .T. ) ;
#297 = CARTESIAN_POINT ( 'NONE',  ( 3.853290411035908808E-18, 0.0000000000000000000, 0.03146450399999999731 ) ) ;
#298 = EDGE_CURVE ( 'NONE', #240, #52, #111, .T. ) ;
#299 = AXIS2_PLACEMENT_3D ( 'NONE', #199, #3, #301 ) ;
#300 = CARTESIAN_POINT ( 'NONE',  ( 2.314288535156702350E-17, 0.0000000000000000000, 0.1889760000000000051 ) ) ;
#301 = DIRECTION ( 'NONE',  ( 1.000000000000000000, 0.0000000000000000000, -0.0000000000000000000 ) ) ;
#302 = PLANE ( 'NONE',  #299 ) ;
#303 = FACE_OUTER_BOUND ( 'NONE', #114, .T. ) ;
#304 = CIRCLE ( 'NONE', #275, 0.07874000000000000443 ) ;
#305 = VERTEX_POINT ( 'NONE', #135 ) ;
#306 = CYLINDRICAL_SURFACE ( 'NONE', #293, 0.03146450399999999731 ) ;
#307 = VERTEX_POINT ( 'NONE', #86 ) ;
#308 = ORIENTED_EDGE ( 'NONE', *, *, #154, .T. ) ;
#309 = EDGE_CURVE ( 'NONE', #240, #151, #161, .T. ) ;
#310 = DIRECTION ( 'NONE',  ( -1.000000000000000000, 0.0000000000000000000, 1.356612038155888783E-16 ) ) ;
#311 = VECTOR ( 'NONE', #51, 39.37007874015748143 ) ;
#312 = UNCERTAINTY_MEASURE_WITH_UNIT (LENGTH_MEASURE( 1.000000000000000082E-05 ), #112, 'distance_accuracy_value', 'NONE');
#313 = VECTOR ( 'NONE', #137, 39.37007874015748854 ) ;
#314 = ORIENTED_EDGE ( 'NONE', *, *, #78, .T. ) ;
#315 = CARTESIAN_POINT ( 'NONE',  ( 5.779935616553862056E-18, 0.0000000000000000000, 0.0000000000000000000 ) ) ;
#316 = LINE ( 'NONE', #33, #237 ) ;
#317 = STYLED_ITEM ( 'NONE', ( #35 ), #61 ) ;
#318 = ORIENTED_EDGE ( 'NONE', *, *, #91, .T. ) ;
#319 = PRODUCT_DEFINITION_CONTEXT ( 'detailed design', #124, 'design' ) ;
#320 = PRODUCT_DEFINITION ( 'UNKNOWN', '', #294, #319 ) ;
#321 = AXIS2_PLACEMENT_3D ( 'NONE', #63, #246, #140 ) ;
#322 = CARTESIAN_POINT ( 'NONE',  ( -0.06374000000000018540, 0.0000000000000000000, 1.968503999999999809 ) ) ;
#323 = DIRECTION ( 'NONE',  ( 1.000000000000000000, 0.0000000000000000000, 0.0000000000000000000 ) ) ;
#324 = FACE_OUTER_BOUND ( 'NONE', #156, .T. ) ;
#325 = FACE_OUTER_BOUND ( 'NONE', #287, .T. ) ;
ENDSEC;
END-ISO-10303-21;
