ISO-10303-21;
HEADER;
FILE_DESCRIPTION (( 'STEP AP214' ),
    '1' );
FILE_NAME ('83431.STEP',
    '2023-06-23T10:02:00',
    ( '' ),
    ( '' ),
    'SwSTEP 2.0',
    'SolidWorks 2023',
    '' );
FILE_SCHEMA (( 'AUTOMOTIVE_DESIGN' ));
ENDSEC;

DATA;
#1 = APPLICATION_PROTOCOL_DEFINITION ( 'draft international standard', 'automotive_design', 1998, #92 ) ;
#2 = ORIENTED_EDGE ( 'NONE', *, *, #210, .T. ) ;
#3 = STYLED_ITEM ( 'NONE', ( #157 ), #280 ) ;
#4 =( GEOMETRIC_REPRESENTATION_CONTEXT ( 3 ) GLOBAL_UNCERTAINTY_ASSIGNED_CONTEXT ( ( #260 ) ) GLOBAL_UNIT_ASSIGNED_CONTEXT ( ( #140, #217, #239 ) ) REPRESENTATION_CONTEXT ( 'NONE', 'WORKASPACE' ) );
#5 = PRESENTATION_LAYER_ASSIGNMENT (  '', '', ( #165 ) ) ;
#6 = CARTESIAN_POINT ( 'NONE',  ( 0.000000000000000000, 0.000000000000000000, -0.09375000000000001388 ) ) ;
#7 = DIMENSIONAL_EXPONENTS ( 1.000000000000000000, 0.000000000000000000, 0.000000000000000000, 0.000000000000000000, 0.000000000000000000, 0.000000000000000000, 0.000000000000000000 ) ;
#8 = DIRECTION ( 'NONE',  ( 3.918869757271530214E-17, 1.000000000000000000, -0.000000000000000000 ) ) ;
#9 = DIRECTION ( 'NONE',  ( -1.000000000000000000, 0.000000000000000000, 0.000000000000000000 ) ) ;
#10 = CARTESIAN_POINT ( 'NONE',  ( 1.148106374200643863E-17, 0.000000000000000000, 0.09375000000000001388 ) ) ;
#11 = EDGE_CURVE ( 'NONE', #19, #99, #70, .T. ) ;
#12 =( NAMED_UNIT ( * ) SI_UNIT ( $, .STERADIAN. ) SOLID_ANGLE_UNIT ( ) );
#13 = AXIS2_PLACEMENT_3D ( 'NONE', #250, #225, #226 ) ;
#14 = PLANE ( 'NONE',  #55 ) ;
#15 = ORIENTED_EDGE ( 'NONE', *, *, #11, .T. ) ;
#16 = AXIS2_PLACEMENT_3D ( 'NONE', #169, #94, #219 ) ;
#17 = AXIS2_PLACEMENT_3D ( 'NONE', #32, #203, #54 ) ;
#18 = SURFACE_STYLE_USAGE ( .BOTH. , #43 ) ;
#19 = VERTEX_POINT ( 'NONE', #218 ) ;
#20 = ORIENTED_EDGE ( 'NONE', *, *, #257, .F. ) ;
#21 = SURFACE_STYLE_USAGE ( .BOTH. , #59 ) ;
#22 = ORIENTED_EDGE ( 'NONE', *, *, #257, .T. ) ;
#23 = AXIS2_PLACEMENT_3D ( 'NONE', #101, #198, #266 ) ;
#24 = VECTOR ( 'NONE', #306, 39.37007874015748143 ) ;
#25 = FACE_OUTER_BOUND ( 'NONE', #39, .T. ) ;
#26 = LENGTH_MEASURE_WITH_UNIT ( LENGTH_MEASURE( 0.02539999999999999897 ), #292 );
#27 = SURFACE_SIDE_STYLE ('',( #223 ) ) ;
#28 = PRODUCT_CONTEXT ( 'NONE', #92, 'mechanical' ) ;
#29 = FACE_OUTER_BOUND ( 'NONE', #132, .T. ) ;
#30 = CLOSED_SHELL ( 'NONE', ( #119, #268, #65, #291 ) ) ;
#31 = VECTOR ( 'NONE', #106, 39.37007874015748143 ) ;
#32 = CARTESIAN_POINT ( 'NONE',  ( 7.198846956776916766E-35, 0.4375000000000000000, 0.000000000000000000 ) ) ;
#33 = LINE ( 'NONE', #10, #31 ) ;
#34 = EDGE_CURVE ( 'NONE', #99, #110, #50, .T. ) ;
#35 = FILL_AREA_STYLE_COLOUR ( '', #86 ) ;
#36 = PRESENTATION_LAYER_ASSIGNMENT (  '', '', ( #285 ) ) ;
#37 = CARTESIAN_POINT ( 'NONE',  ( 6.123233995736766036E-17, 2.000000000000000000, 0.000000000000000000 ) ) ;
#38 = LINE ( 'NONE', #254, #275 ) ;
#39 = EDGE_LOOP ( 'NONE', ( #166, #234, #212, #264 ) ) ;
#40 = FILL_AREA_STYLE_COLOUR ( '', #242 ) ;
#41 = SURFACE_STYLE_FILL_AREA ( #111 ) ;
#42 = ORIENTED_EDGE ( 'NONE', *, *, #277, .F. ) ;
#43 = SURFACE_SIDE_STYLE ('',( #60 ) ) ;
#44 = ADVANCED_FACE ( 'NONE', ( #293 ), #118, .T. ) ;
#45 =( CONVERSION_BASED_UNIT ( 'INCH', #258 ) LENGTH_UNIT ( ) NAMED_UNIT ( #142 ) );
#46 = MECHANICAL_DESIGN_GEOMETRIC_PRESENTATION_REPRESENTATION (  '', ( #3 ), #61 ) ;
#47 = ORIENTED_EDGE ( 'NONE', *, *, #222, .F. ) ;
#48 = FILL_AREA_STYLE ('',( #40 ) ) ;
#49 = CARTESIAN_POINT ( 'NONE',  ( 6.123233995736766036E-17, 2.000000000000000000, 0.000000000000000000 ) ) ;
#50 = LINE ( 'NONE', #197, #24 ) ;
#51 = FILL_AREA_STYLE ('',( #309 ) ) ;
#52 = DIRECTION ( 'NONE',  ( 1.000000000000000000, 0.000000000000000000, 0.000000000000000000 ) ) ;
#53 =( NAMED_UNIT ( * ) SI_UNIT ( $, .STERADIAN. ) SOLID_ANGLE_UNIT ( ) );
#54 = DIRECTION ( 'NONE',  ( -1.000000000000000000, 3.918869757271530214E-17, 0.000000000000000000 ) ) ;
#55 = AXIS2_PLACEMENT_3D ( 'NONE', #87, #283, #301 ) ;
#56 = FACE_OUTER_BOUND ( 'NONE', #231, .T. ) ;
#57 = CARTESIAN_POINT ( 'NONE',  ( 0.000000000000000000, 0.000000000000000000, 0.000000000000000000 ) ) ;
#58 = CARTESIAN_POINT ( 'NONE',  ( 1.148106374200643863E-17, 0.000000000000000000, 0.09375000000000001388 ) ) ;
#59 = SURFACE_SIDE_STYLE ('',( #261 ) ) ;
#60 = SURFACE_STYLE_FILL_AREA ( #237 ) ;
#61 =( GEOMETRIC_REPRESENTATION_CONTEXT ( 3 ) GLOBAL_UNCERTAINTY_ASSIGNED_CONTEXT ( ( #186 ) ) GLOBAL_UNIT_ASSIGNED_CONTEXT ( ( #45, #138, #135 ) ) REPRESENTATION_CONTEXT ( 'NONE', 'WORKASPACE' ) );
#62 =( CONVERSION_BASED_UNIT ( 'INCH', #209 ) LENGTH_UNIT ( ) NAMED_UNIT ( #7 ) );
#63 = ORIENTED_EDGE ( 'NONE', *, *, #253, .F. ) ;
#64 = AXIS2_PLACEMENT_3D ( 'NONE', #49, #191, #121 ) ;
#65 = ADVANCED_FACE ( 'NONE', ( #29 ), #73, .T. ) ;
#66 = ORIENTED_EDGE ( 'NONE', *, *, #187, .F. ) ;
#67 = FILL_AREA_STYLE_COLOUR ( '', #262 ) ;
#68 =( NAMED_UNIT ( * ) PLANE_ANGLE_UNIT ( ) SI_UNIT ( $, .RADIAN. ) );
#69 = MECHANICAL_DESIGN_GEOMETRIC_PRESENTATION_REPRESENTATION (  '', ( #232 ), #131 ) ;
#70 = CIRCLE ( 'NONE', #16, 0.09375000000000001388 ) ;
#71 = COLOUR_RGB ( '',1.000000000000000000, 0.000000000000000000, 0.000000000000000000 ) ;
#72 =( NAMED_UNIT ( * ) SI_UNIT ( $, .STERADIAN. ) SOLID_ANGLE_UNIT ( ) );
#73 = CYLINDRICAL_SURFACE ( 'NONE', #100, 0.09375000000000001388 ) ;
#74 = PRESENTATION_STYLE_ASSIGNMENT (( #189 ) ) ;
#75 = CARTESIAN_POINT ( 'NONE',  ( 0.000000000000000000, 0.4375000000000000000, -0.09375000000000001388 ) ) ;
#76 = DIRECTION ( 'NONE',  ( 0.000000000000000000, 0.000000000000000000, -1.000000000000000000 ) ) ;
#77 = DIRECTION ( 'NONE',  ( 0.000000000000000000, 0.000000000000000000, 1.000000000000000000 ) ) ;
#78 = CARTESIAN_POINT ( 'NONE',  ( 0.000000000000000000, 0.000000000000000000, 0.000000000000000000 ) ) ;
#79 = DIMENSIONAL_EXPONENTS ( 1.000000000000000000, 0.000000000000000000, 0.000000000000000000, 0.000000000000000000, 0.000000000000000000, 0.000000000000000000, 0.000000000000000000 ) ;
#80 = DIRECTION ( 'NONE',  ( 3.918869757271530214E-17, 1.000000000000000000, -0.000000000000000000 ) ) ;
#81 = AXIS2_PLACEMENT_3D ( 'NONE', #204, #229, #175 ) ;
#82 = DIRECTION ( 'NONE',  ( -1.000000000000000000, 0.000000000000000000, 0.000000000000000000 ) ) ;
#83 = DIRECTION ( 'NONE',  ( 3.918869757271530214E-17, 1.000000000000000000, -0.000000000000000000 ) ) ;
#84 = CARTESIAN_POINT ( 'NONE',  ( 6.123233995736766036E-17, 2.000000000000000000, 0.000000000000000000 ) ) ;
#85 = PRESENTATION_STYLE_ASSIGNMENT (( #21 ) ) ;
#86 = COLOUR_RGB ( '',1.000000000000000000, 0.000000000000000000, 0.000000000000000000 ) ;
#87 = CARTESIAN_POINT ( 'NONE',  ( 0.000000000000000000, 0.4375000000000000000, 0.000000000000000000 ) ) ;
#88 = FILL_AREA_STYLE_COLOUR ( '', #137 ) ;
#89 = ORIENTED_EDGE ( 'NONE', *, *, #34, .T. ) ;
#90 = UNCERTAINTY_MEASURE_WITH_UNIT (LENGTH_MEASURE( 1.000000000000000082E-05 ), #62, 'distance_accuracy_value', 'NONE');
#91 = PRESENTATION_STYLE_ASSIGNMENT (( #115 ) ) ;
#92 = APPLICATION_CONTEXT ( 'automotive_design' ) ;
#93 = DIRECTION ( 'NONE',  ( 0.000000000000000000, 0.000000000000000000, -1.000000000000000000 ) ) ;
#94 = DIRECTION ( 'NONE',  ( -0.000000000000000000, -1.000000000000000000, -0.000000000000000000 ) ) ;
#95 = DIMENSIONAL_EXPONENTS ( 1.000000000000000000, 0.000000000000000000, 0.000000000000000000, 0.000000000000000000, 0.000000000000000000, 0.000000000000000000, 0.000000000000000000 ) ;
#96 =( CONVERSION_BASED_UNIT ( 'INCH', #221 ) LENGTH_UNIT ( ) NAMED_UNIT ( #79 ) );
#97 = PRODUCT_DEFINITION_SHAPE ( 'NONE', 'NONE',  #304 ) ;
#98 = ADVANCED_FACE ( 'NONE', ( #243 ), #241, .F. ) ;
#99 = VERTEX_POINT ( 'NONE', #75 ) ;
#100 = AXIS2_PLACEMENT_3D ( 'NONE', #78, #168, #76 ) ;
#101 = CARTESIAN_POINT ( 'NONE',  ( 0.000000000000000000, 0.000000000000000000, 0.000000000000000000 ) ) ;
#102 =( CONVERSION_BASED_UNIT ( 'INCH', #107 ) LENGTH_UNIT ( ) NAMED_UNIT ( #95 ) );
#103 = LINE ( 'NONE', #297, #271 ) ;
#104 = STYLED_ITEM ( 'NONE', ( #74 ), #291 ) ;
#105 = COLOUR_RGB ( '',1.000000000000000000, 0.000000000000000000, 0.000000000000000000 ) ;
#106 = DIRECTION ( 'NONE',  ( -0.000000000000000000, -1.000000000000000000, -0.000000000000000000 ) ) ;
#107 = LENGTH_MEASURE_WITH_UNIT ( LENGTH_MEASURE( 0.02539999999999999897 ), #295 );
#108 = APPLICATION_CONTEXT ( 'automotive_design' ) ;
#109 = AXIS2_PLACEMENT_3D ( 'NONE', #84, #154, #82 ) ;
#110 = VERTEX_POINT ( 'NONE', #6 ) ;
#111 = FILL_AREA_STYLE ('',( #230 ) ) ;
#112 = ORIENTED_EDGE ( 'NONE', *, *, #187, .T. ) ;
#113 =( LENGTH_UNIT ( ) NAMED_UNIT ( * ) SI_UNIT ( $, .METRE. ) );
#114 = PRODUCT_DEFINITION_FORMATION_WITH_SPECIFIED_SOURCE ( 'ANY', '', #155, .NOT_KNOWN. ) ;
#115 = SURFACE_STYLE_USAGE ( .BOTH. , #281 ) ;
#116 = EDGE_CURVE ( 'NONE', #267, #110, #288, .T. ) ;
#117 = EDGE_LOOP ( 'NONE', ( #160, #158 ) ) ;
#118 = CYLINDRICAL_SURFACE ( 'NONE', #64, 0.09374999999999997224 ) ;
#119 = ADVANCED_FACE ( 'NONE', ( #25 ), #172, .T. ) ;
#120 = ORIENTED_EDGE ( 'NONE', *, *, #128, .F. ) ;
#121 = DIRECTION ( 'NONE',  ( -1.000000000000000000, 0.000000000000000000, 0.000000000000000000 ) ) ;
#122 = PRESENTATION_LAYER_ASSIGNMENT (  '', '', ( #216 ) ) ;
#123 = CIRCLE ( 'NONE', #307, 0.09375000000000001388 ) ;
#124 = FILL_AREA_STYLE ('',( #35 ) ) ;
#125 = PRESENTATION_STYLE_ASSIGNMENT (( #296 ) ) ;
#126 =( NAMED_UNIT ( * ) PLANE_ANGLE_UNIT ( ) SI_UNIT ( $, .RADIAN. ) );
#127 = AXIS2_PLACEMENT_3D ( 'NONE', #196, #77, #52 ) ;
#128 = EDGE_CURVE ( 'NONE', #215, #303, #103, .T. ) ;
#129 = UNCERTAINTY_MEASURE_WITH_UNIT (LENGTH_MEASURE( 1.000000000000000082E-05 ), #144, 'distance_accuracy_value', 'NONE');
#130 = ORIENTED_EDGE ( 'NONE', *, *, #277, .T. ) ;
#131 =( GEOMETRIC_REPRESENTATION_CONTEXT ( 3 ) GLOBAL_UNCERTAINTY_ASSIGNED_CONTEXT ( ( #238 ) ) GLOBAL_UNIT_ASSIGNED_CONTEXT ( ( #167, #68, #72 ) ) REPRESENTATION_CONTEXT ( 'NONE', 'WORKASPACE' ) );
#132 = EDGE_LOOP ( 'NONE', ( #63, #15, #89, #161 ) ) ;
#133 =( LENGTH_UNIT ( ) NAMED_UNIT ( * ) SI_UNIT ( $, .METRE. ) );
#134 = EDGE_LOOP ( 'NONE', ( #22, #136 ) ) ;
#135 =( NAMED_UNIT ( * ) SI_UNIT ( $, .STERADIAN. ) SOLID_ANGLE_UNIT ( ) );
#136 = ORIENTED_EDGE ( 'NONE', *, *, #153, .T. ) ;
#137 = COLOUR_RGB ( '',0.7921568627450980005, 0.8196078431372548767, 0.9333333333333333481 ) ;
#138 =( NAMED_UNIT ( * ) PLANE_ANGLE_UNIT ( ) SI_UNIT ( $, .RADIAN. ) );
#139 = MECHANICAL_DESIGN_GEOMETRIC_PRESENTATION_REPRESENTATION (  '', ( #104 ), #4 ) ;
#140 =( CONVERSION_BASED_UNIT ( 'INCH', #26 ) LENGTH_UNIT ( ) NAMED_UNIT ( #195 ) );
#141 = SURFACE_SIDE_STYLE ('',( #245 ) ) ;
#142 = DIMENSIONAL_EXPONENTS ( 1.000000000000000000, 0.000000000000000000, 0.000000000000000000, 0.000000000000000000, 0.000000000000000000, 0.000000000000000000, 0.000000000000000000 ) ;
#143 = MECHANICAL_DESIGN_GEOMETRIC_PRESENTATION_REPRESENTATION (  '', ( #285 ), #177 ) ;
#144 =( CONVERSION_BASED_UNIT ( 'INCH', #220 ) LENGTH_UNIT ( ) NAMED_UNIT ( #244 ) );
#145 = VERTEX_POINT ( 'NONE', #252 ) ;
#146 = CARTESIAN_POINT ( 'NONE',  ( 0.09375000000000001388, 2.000000000000000000, 1.148106374200643401E-17 ) ) ;
#147 = DIRECTION ( 'NONE',  ( -3.918869757271530214E-17, -1.000000000000000000, 0.000000000000000000 ) ) ;
#148 = AXIS2_PLACEMENT_3D ( 'NONE', #37, #80, #270 ) ;
#149 = AXIS2_PLACEMENT_3D ( 'NONE', #181, #8, #9 ) ;
#150 = CYLINDRICAL_SURFACE ( 'NONE', #109, 0.09374999999999997224 ) ;
#151 = DIRECTION ( 'NONE',  ( 0.000000000000000000, 0.000000000000000000, -1.000000000000000000 ) ) ;
#152 = FACE_OUTER_BOUND ( 'NONE', #255, .T. ) ;
#153 = EDGE_CURVE ( 'NONE', #303, #145, #233, .T. ) ;
#154 = DIRECTION ( 'NONE',  ( 3.918869757271530214E-17, 1.000000000000000000, -0.000000000000000000 ) ) ;
#155 = PRODUCT ( '83431', '83431', '', ( #28 ) ) ;
#156 =( LENGTH_UNIT ( ) NAMED_UNIT ( * ) SI_UNIT ( $, .METRE. ) );
#157 = PRESENTATION_STYLE_ASSIGNMENT (( #18 ) ) ;
#158 = ORIENTED_EDGE ( 'NONE', *, *, #116, .T. ) ;
#159 = CLOSED_SHELL ( 'NONE', ( #201, #179, #44, #98 ) ) ;
#160 = ORIENTED_EDGE ( 'NONE', *, *, #247, .T. ) ;
#161 = ORIENTED_EDGE ( 'NONE', *, *, #116, .F. ) ;
#162 = FILL_AREA_STYLE ('',( #67 ) ) ;
#163 = PRODUCT_RELATED_PRODUCT_CATEGORY ( 'part', '', ( #155 ) ) ;
#164 = ORIENTED_EDGE ( 'NONE', *, *, #128, .T. ) ;
#165 = STYLED_ITEM ( 'NONE', ( #91 ), #268 ) ;
#166 = ORIENTED_EDGE ( 'NONE', *, *, #222, .T. ) ;
#167 =( CONVERSION_BASED_UNIT ( 'INCH', #265 ) LENGTH_UNIT ( ) NAMED_UNIT ( #170 ) );
#168 = DIRECTION ( 'NONE',  ( -0.000000000000000000, -1.000000000000000000, -0.000000000000000000 ) ) ;
#169 = CARTESIAN_POINT ( 'NONE',  ( 0.000000000000000000, 0.4375000000000000000, 0.000000000000000000 ) ) ;
#170 = DIMENSIONAL_EXPONENTS ( 1.000000000000000000, 0.000000000000000000, 0.000000000000000000, 0.000000000000000000, 0.000000000000000000, 0.000000000000000000, 0.000000000000000000 ) ;
#171 =( NAMED_UNIT ( * ) SI_UNIT ( $, .STERADIAN. ) SOLID_ANGLE_UNIT ( ) );
#172 = CYLINDRICAL_SURFACE ( 'NONE', #81, 0.09375000000000001388 ) ;
#173 =( NAMED_UNIT ( * ) PLANE_ANGLE_UNIT ( ) SI_UNIT ( $, .RADIAN. ) );
#174 = PRESENTATION_STYLE_ASSIGNMENT (( #290 ) ) ;
#175 = DIRECTION ( 'NONE',  ( 0.000000000000000000, 0.000000000000000000, -1.000000000000000000 ) ) ;
#176 = PLANE ( 'NONE',  #17 ) ;
#177 =( GEOMETRIC_REPRESENTATION_CONTEXT ( 3 ) GLOBAL_UNCERTAINTY_ASSIGNED_CONTEXT ( ( #180 ) ) GLOBAL_UNIT_ASSIGNED_CONTEXT ( ( #96, #240, #53 ) ) REPRESENTATION_CONTEXT ( 'NONE', 'WORKASPACE' ) );
#178 = CARTESIAN_POINT ( 'NONE',  ( 0.09375000000000001388, 0.4374999999999998890, 1.148106374200643401E-17 ) ) ;
#179 = ADVANCED_FACE ( 'NONE', ( #56 ), #176, .F. ) ;
#180 = UNCERTAINTY_MEASURE_WITH_UNIT (LENGTH_MEASURE( 1.000000000000000082E-05 ), #96, 'distance_accuracy_value', 'NONE');
#181 = CARTESIAN_POINT ( 'NONE',  ( 0.000000000000000000, 0.4374999999999998890, 0.000000000000000000 ) ) ;
#182 = CARTESIAN_POINT ( 'NONE',  ( 0.000000000000000000, 0.4375000000000000000, 0.000000000000000000 ) ) ;
#183 = PRESENTATION_LAYER_ASSIGNMENT (  '', '', ( #3 ) ) ;
#184 = PRODUCT_DEFINITION_CONTEXT ( 'detailed design', #108, 'design' ) ;
#185 = DIRECTION ( 'NONE',  ( 3.918869757271530214E-17, 1.000000000000000000, -0.000000000000000000 ) ) ;
#186 = UNCERTAINTY_MEASURE_WITH_UNIT (LENGTH_MEASURE( 1.000000000000000082E-05 ), #45, 'distance_accuracy_value', 'NONE');
#187 = EDGE_CURVE ( 'NONE', #215, #188, #263, .T. ) ;
#188 = VERTEX_POINT ( 'NONE', #298 ) ;
#189 = SURFACE_STYLE_USAGE ( .BOTH. , #141 ) ;
#190 = CIRCLE ( 'NONE', #302, 0.09374999999999994449 ) ;
#191 = DIRECTION ( 'NONE',  ( 3.918869757271530214E-17, 1.000000000000000000, -0.000000000000000000 ) ) ;
#192 =( GEOMETRIC_REPRESENTATION_CONTEXT ( 3 ) GLOBAL_UNCERTAINTY_ASSIGNED_CONTEXT ( ( #90 ) ) GLOBAL_UNIT_ASSIGNED_CONTEXT ( ( #62, #207, #286 ) ) REPRESENTATION_CONTEXT ( 'NONE', 'WORKASPACE' ) );
#193 = CARTESIAN_POINT ( 'NONE',  ( 0.000000000000000000, 0.000000000000000000, 0.000000000000000000 ) ) ;
#194 = CARTESIAN_POINT ( 'NONE',  ( 0.09375000000000001388, 2.000000000000000000, 0.000000000000000000 ) ) ;
#195 = DIMENSIONAL_EXPONENTS ( 1.000000000000000000, 0.000000000000000000, 0.000000000000000000, 0.000000000000000000, 0.000000000000000000, 0.000000000000000000, 0.000000000000000000 ) ;
#196 = CARTESIAN_POINT ( 'NONE',  ( 0.000000000000000000, 0.000000000000000000, 0.000000000000000000 ) ) ;
#197 = CARTESIAN_POINT ( 'NONE',  ( 0.000000000000000000, 0.000000000000000000, -0.09375000000000001388 ) ) ;
#198 = DIRECTION ( 'NONE',  ( -0.000000000000000000, -1.000000000000000000, -0.000000000000000000 ) ) ;
#199 = CIRCLE ( 'NONE', #13, 0.09375000000000001388 ) ;
#200 =( GEOMETRIC_REPRESENTATION_CONTEXT ( 3 ) GLOBAL_UNCERTAINTY_ASSIGNED_CONTEXT ( ( #129 ) ) GLOBAL_UNIT_ASSIGNED_CONTEXT ( ( #144, #173, #171 ) ) REPRESENTATION_CONTEXT ( 'NONE', 'WORKASPACE' ) );
#201 = ADVANCED_FACE ( 'NONE', ( #249 ), #150, .T. ) ;
#202 = CARTESIAN_POINT ( 'NONE',  ( 6.123233995736766036E-17, 2.000000000000000000, 0.000000000000000000 ) ) ;
#203 = DIRECTION ( 'NONE',  ( 3.918869757271530214E-17, 1.000000000000000000, -0.000000000000000000 ) ) ;
#204 = CARTESIAN_POINT ( 'NONE',  ( 0.000000000000000000, 0.000000000000000000, 0.000000000000000000 ) ) ;
#205 = PRESENTATION_LAYER_ASSIGNMENT (  '', '', ( #232 ) ) ;
#206 = MECHANICAL_DESIGN_GEOMETRIC_PRESENTATION_REPRESENTATION (  '', ( #165 ), #192 ) ;
#207 =( NAMED_UNIT ( * ) PLANE_ANGLE_UNIT ( ) SI_UNIT ( $, .RADIAN. ) );
#208 = EDGE_LOOP ( 'NONE', ( #120, #112, #130, #246 ) ) ;
#209 = LENGTH_MEASURE_WITH_UNIT ( LENGTH_MEASURE( 0.02539999999999999897 ), #113 );
#210 = EDGE_CURVE ( 'NONE', #188, #215, #199, .T. ) ;
#211 = PLANE ( 'NONE',  #278 ) ;
#212 = ORIENTED_EDGE ( 'NONE', *, *, #247, .F. ) ;
#213 = DIRECTION ( 'NONE',  ( 0.000000000000000000, -1.000000000000000000, -0.000000000000000000 ) ) ;
#214 = FACE_OUTER_BOUND ( 'NONE', #117, .T. ) ;
#215 = VERTEX_POINT ( 'NONE', #178 ) ;
#216 = STYLED_ITEM ( 'NONE', ( #125 ), #119 ) ;
#217 =( NAMED_UNIT ( * ) PLANE_ANGLE_UNIT ( ) SI_UNIT ( $, .RADIAN. ) );
#218 = CARTESIAN_POINT ( 'NONE',  ( 1.148106374200643863E-17, 0.4375000000000000000, 0.09375000000000001388 ) ) ;
#219 = DIRECTION ( 'NONE',  ( 0.000000000000000000, 0.000000000000000000, -1.000000000000000000 ) ) ;
#220 = LENGTH_MEASURE_WITH_UNIT ( LENGTH_MEASURE( 0.02539999999999999897 ), #308 );
#221 = LENGTH_MEASURE_WITH_UNIT ( LENGTH_MEASURE( 0.02539999999999999897 ), #294 );
#222 = EDGE_CURVE ( 'NONE', #99, #19, #300, .T. ) ;
#223 = SURFACE_STYLE_FILL_AREA ( #51 ) ;
#224 = AXIS2_PLACEMENT_3D ( 'NONE', #194, #147, #248 ) ;
#225 = DIRECTION ( 'NONE',  ( 3.918869757271530214E-17, 1.000000000000000000, -0.000000000000000000 ) ) ;
#226 = DIRECTION ( 'NONE',  ( -1.000000000000000000, 0.000000000000000000, 0.000000000000000000 ) ) ;
#227 = DIRECTION ( 'NONE',  ( -0.000000000000000000, -1.000000000000000000, -0.000000000000000000 ) ) ;
#228 = DIRECTION ( 'NONE',  ( 3.918869757271530214E-17, 1.000000000000000000, -0.000000000000000000 ) ) ;
#229 = DIRECTION ( 'NONE',  ( -0.000000000000000000, -1.000000000000000000, -0.000000000000000000 ) ) ;
#230 = FILL_AREA_STYLE_COLOUR ( '', #71 ) ;
#231 = EDGE_LOOP ( 'NONE', ( #269, #66 ) ) ;
#232 = STYLED_ITEM ( 'NONE', ( #85 ), #282 ) ;
#233 = CIRCLE ( 'NONE', #148, 0.09374999999999994449 ) ;
#234 = ORIENTED_EDGE ( 'NONE', *, *, #253, .T. ) ;
#235 = ADVANCED_BREP_SHAPE_REPRESENTATION ( '83431', ( #282, #280, #127 ), #200 ) ;
#236 = ORIENTED_EDGE ( 'NONE', *, *, #11, .F. ) ;
#237 = FILL_AREA_STYLE ('',( #88 ) ) ;
#238 = UNCERTAINTY_MEASURE_WITH_UNIT (LENGTH_MEASURE( 1.000000000000000082E-05 ), #167, 'distance_accuracy_value', 'NONE');
#239 =( NAMED_UNIT ( * ) SI_UNIT ( $, .STERADIAN. ) SOLID_ANGLE_UNIT ( ) );
#240 =( NAMED_UNIT ( * ) PLANE_ANGLE_UNIT ( ) SI_UNIT ( $, .RADIAN. ) );
#241 = PLANE ( 'NONE',  #224 ) ;
#242 = COLOUR_RGB ( '',1.000000000000000000, 0.000000000000000000, 0.000000000000000000 ) ;
#243 = FACE_OUTER_BOUND ( 'NONE', #134, .T. ) ;
#244 = DIMENSIONAL_EXPONENTS ( 1.000000000000000000, 0.000000000000000000, 0.000000000000000000, 0.000000000000000000, 0.000000000000000000, 0.000000000000000000, 0.000000000000000000 ) ;
#245 = SURFACE_STYLE_FILL_AREA ( #48 ) ;
#246 = ORIENTED_EDGE ( 'NONE', *, *, #153, .F. ) ;
#247 = EDGE_CURVE ( 'NONE', #110, #267, #123, .T. ) ;
#248 = DIRECTION ( 'NONE',  ( 1.000000000000000000, -3.918869757271530214E-17, 0.000000000000000000 ) ) ;
#249 = FACE_OUTER_BOUND ( 'NONE', #259, .T. ) ;
#250 = CARTESIAN_POINT ( 'NONE',  ( 0.000000000000000000, 0.4374999999999998890, 0.000000000000000000 ) ) ;
#251 = DIRECTION ( 'NONE',  ( -0.000000000000000000, -1.000000000000000000, -0.000000000000000000 ) ) ;
#252 = CARTESIAN_POINT ( 'NONE',  ( -0.09374999999999987510, 2.000000000000000000, 0.000000000000000000 ) ) ;
#253 = EDGE_CURVE ( 'NONE', #19, #267, #33, .T. ) ;
#254 = CARTESIAN_POINT ( 'NONE',  ( -0.09374999999999990286, 2.000000000000000000, 0.000000000000000000 ) ) ;
#255 = EDGE_LOOP ( 'NONE', ( #47, #236 ) ) ;
#256 = MECHANICAL_DESIGN_GEOMETRIC_PRESENTATION_REPRESENTATION (  '', ( #216 ), #284 ) ;
#257 = EDGE_CURVE ( 'NONE', #145, #303, #190, .T. ) ;
#258 = LENGTH_MEASURE_WITH_UNIT ( LENGTH_MEASURE( 0.02539999999999999897 ), #133 );
#259 = EDGE_LOOP ( 'NONE', ( #2, #164, #20, #42 ) ) ;
#260 = UNCERTAINTY_MEASURE_WITH_UNIT (LENGTH_MEASURE( 1.000000000000000082E-05 ), #140, 'distance_accuracy_value', 'NONE');
#261 = SURFACE_STYLE_FILL_AREA ( #162 ) ;
#262 = COLOUR_RGB ( '',0.7921568627450980005, 0.8196078431372548767, 0.9333333333333333481 ) ;
#263 = CIRCLE ( 'NONE', #149, 0.09375000000000001388 ) ;
#264 = ORIENTED_EDGE ( 'NONE', *, *, #34, .F. ) ;
#265 = LENGTH_MEASURE_WITH_UNIT ( LENGTH_MEASURE( 0.02539999999999999897 ), #156 );
#266 = DIRECTION ( 'NONE',  ( 0.000000000000000000, 0.000000000000000000, -1.000000000000000000 ) ) ;
#267 = VERTEX_POINT ( 'NONE', #58 ) ;
#268 = ADVANCED_FACE ( 'NONE', ( #152 ), #14, .T. ) ;
#269 = ORIENTED_EDGE ( 'NONE', *, *, #210, .F. ) ;
#270 = DIRECTION ( 'NONE',  ( -1.000000000000000000, 0.000000000000000000, 0.000000000000000000 ) ) ;
#271 = VECTOR ( 'NONE', #228, 39.37007874015748143 ) ;
#272 = SURFACE_SIDE_STYLE ('',( #276 ) ) ;
#273 = DIRECTION ( 'NONE',  ( 0.000000000000000000, 0.000000000000000000, -1.000000000000000000 ) ) ;
#274 = DIRECTION ( 'NONE',  ( -1.000000000000000000, 0.000000000000000000, 0.000000000000000000 ) ) ;
#275 = VECTOR ( 'NONE', #185, 39.37007874015748143 ) ;
#276 = SURFACE_STYLE_FILL_AREA ( #124 ) ;
#277 = EDGE_CURVE ( 'NONE', #188, #145, #38, .T. ) ;
#278 = AXIS2_PLACEMENT_3D ( 'NONE', #193, #213, #93 ) ;
#279 = PRESENTATION_LAYER_ASSIGNMENT (  '', '', ( #104 ) ) ;
#280 = MANIFOLD_SOLID_BREP ( 'Revolve - Tool Body (Straight Shanked)', #159 ) ;
#281 = SURFACE_SIDE_STYLE ('',( #41 ) ) ;
#282 = MANIFOLD_SOLID_BREP ( 'Revolve - Cutting Edge', #30 ) ;
#283 = DIRECTION ( 'NONE',  ( 0.000000000000000000, 1.000000000000000000, 0.000000000000000000 ) ) ;
#284 =( GEOMETRIC_REPRESENTATION_CONTEXT ( 3 ) GLOBAL_UNCERTAINTY_ASSIGNED_CONTEXT ( ( #299 ) ) GLOBAL_UNIT_ASSIGNED_CONTEXT ( ( #102, #126, #12 ) ) REPRESENTATION_CONTEXT ( 'NONE', 'WORKASPACE' ) );
#285 = STYLED_ITEM ( 'NONE', ( #174 ), #65 ) ;
#286 =( NAMED_UNIT ( * ) SI_UNIT ( $, .STERADIAN. ) SOLID_ANGLE_UNIT ( ) );
#287 = SHAPE_DEFINITION_REPRESENTATION ( #97, #235 ) ;
#288 = CIRCLE ( 'NONE', #23, 0.09375000000000001388 ) ;
#289 = AXIS2_PLACEMENT_3D ( 'NONE', #182, #227, #273 ) ;
#290 = SURFACE_STYLE_USAGE ( .BOTH. , #27 ) ;
#291 = ADVANCED_FACE ( 'NONE', ( #214 ), #211, .T. ) ;
#292 =( LENGTH_UNIT ( ) NAMED_UNIT ( * ) SI_UNIT ( $, .METRE. ) );
#293 = FACE_OUTER_BOUND ( 'NONE', #208, .T. ) ;
#294 =( LENGTH_UNIT ( ) NAMED_UNIT ( * ) SI_UNIT ( $, .METRE. ) );
#295 =( LENGTH_UNIT ( ) NAMED_UNIT ( * ) SI_UNIT ( $, .METRE. ) );
#296 = SURFACE_STYLE_USAGE ( .BOTH. , #272 ) ;
#297 = CARTESIAN_POINT ( 'NONE',  ( 0.09375000000000004163, 2.000000000000000000, 1.148106374200643247E-17 ) ) ;
#298 = CARTESIAN_POINT ( 'NONE',  ( -0.09375000000000001388, 0.4374999999999998890, 0.000000000000000000 ) ) ;
#299 = UNCERTAINTY_MEASURE_WITH_UNIT (LENGTH_MEASURE( 1.000000000000000082E-05 ), #102, 'distance_accuracy_value', 'NONE');
#300 = CIRCLE ( 'NONE', #289, 0.09375000000000001388 ) ;
#301 = DIRECTION ( 'NONE',  ( 0.000000000000000000, -0.000000000000000000, 1.000000000000000000 ) ) ;
#302 = AXIS2_PLACEMENT_3D ( 'NONE', #202, #83, #274 ) ;
#303 = VERTEX_POINT ( 'NONE', #146 ) ;
#304 = PRODUCT_DEFINITION ( 'UNKNOWN', '', #114, #184 ) ;
#305 = APPLICATION_PROTOCOL_DEFINITION ( 'draft international standard', 'automotive_design', 1998, #108 ) ;
#306 = DIRECTION ( 'NONE',  ( -0.000000000000000000, -1.000000000000000000, -0.000000000000000000 ) ) ;
#307 = AXIS2_PLACEMENT_3D ( 'NONE', #57, #251, #151 ) ;
#308 =( LENGTH_UNIT ( ) NAMED_UNIT ( * ) SI_UNIT ( $, .METRE. ) );
#309 = FILL_AREA_STYLE_COLOUR ( '', #105 ) ;
ENDSEC;
END-ISO-10303-21;
