ISO-10303-21;
HEADER;
FILE_DESCRIPTION (( 'STEP AP214' ),
    '1' );
FILE_NAME ('Micro_SFL-218-46.STEP',
    '2021-09-02T04:54:52',
    ( '' ),
    ( '' ),
    'SwSTEP 2.0',
    'SolidWorks 2020',
    '' );
FILE_SCHEMA (( 'AUTOMOTIVE_DESIGN' ));
ENDSEC;

DATA;
#1 = CARTESIAN_POINT ( 'NONE',  ( 1.027591864242593897E-16, 0.0000000000000000000, 0.8390924346171020343 ) ) ;
#2 = DIRECTION ( 'NONE',  ( -0.0000000000000000000, -0.0000000000000000000, -1.000000000000000000 ) ) ;
#3 = AXIS2_PLACEMENT_3D ( 'NONE', #227, #41, #207 ) ;
#4 = CARTESIAN_POINT ( 'NONE',  ( 0.0000000000000000000, 0.0000000000000000000, 2.500000000000000000 ) ) ;
#5 = CARTESIAN_POINT ( 'NONE',  ( 0.0000000000000000000, 0.0000000000000000000, 0.0000000000000000000 ) ) ;
#6 = DIRECTION ( 'NONE',  ( 1.000000000000000000, 0.0000000000000000000, 0.0000000000000000000 ) ) ;
#7 = SURFACE_STYLE_FILL_AREA ( #291 ) ;
#8 = EDGE_LOOP ( 'NONE', ( #156, #136, #85, #173 ) ) ;
#9 = VERTEX_POINT ( 'NONE', #110 ) ;
#10 = UNCERTAINTY_MEASURE_WITH_UNIT (LENGTH_MEASURE( 1.000000000000000082E-05 ), #236, 'distance_accuracy_value', 'NONE');
#11 = PRODUCT_RELATED_PRODUCT_CATEGORY ( 'part', '', ( #51 ) ) ;
#12 = ORIENTED_EDGE ( 'NONE', *, *, #114, .T. ) ;
#13 = EDGE_LOOP ( 'NONE', ( #112, #12, #160, #219 ) ) ;
#14 = DIRECTION ( 'NONE',  ( -1.000000000000000000, 0.0000000000000000000, 1.224646799147353207E-16 ) ) ;
#15 =( GEOMETRIC_REPRESENTATION_CONTEXT ( 3 ) GLOBAL_UNCERTAINTY_ASSIGNED_CONTEXT ( ( #253 ) ) GLOBAL_UNIT_ASSIGNED_CONTEXT ( ( #151, #191, #135 ) ) REPRESENTATION_CONTEXT ( 'NONE', 'WORKASPACE' ) );
#16 = CARTESIAN_POINT ( 'NONE',  ( -0.1092905999999999045, 1.338423834668937173E-17, 0.7500000000000001110 ) ) ;
#17 = CARTESIAN_POINT ( 'NONE',  ( 1.639096465029840193E-33, 0.0000000000000000000, 1.338423834668937173E-17 ) ) ;
#18 = DIRECTION ( 'NONE',  ( -1.000000000000000000, 0.0000000000000000000, 0.0000000000000000000 ) ) ;
#19 = CARTESIAN_POINT ( 'NONE',  ( 0.0000000000000000000, 0.0000000000000000000, 2.500000000000000000 ) ) ;
#20 = CARTESIAN_POINT ( 'NONE',  ( 0.1250000000000000000, 1.530808498934191509E-17, 2.500000000000000000 ) ) ;
#21 = FACE_OUTER_BOUND ( 'NONE', #220, .T. ) ;
#22 = DIRECTION ( 'NONE',  ( 1.224646799147353207E-16, 0.0000000000000000000, 1.000000000000000000 ) ) ;
#23 = CONICAL_SURFACE ( 'NONE', #175, 0.1092905999999999878, 0.1745329251994339470 ) ;
#24 = FILL_AREA_STYLE ('',( #101 ) ) ;
#25 = COLOUR_RGB ( '',0.7921568627450980005, 0.8196078431372548767, 0.9333333333333333481 ) ;
#26 = EDGE_CURVE ( 'NONE', #267, #133, #150, .T. ) ;
#27 = ORIENTED_EDGE ( 'NONE', *, *, #76, .F. ) ;
#28 = ORIENTED_EDGE ( 'NONE', *, *, #200, .T. ) ;
#29 = ADVANCED_FACE ( 'NONE', ( #217 ), #285, .T. ) ;
#30 = ORIENTED_EDGE ( 'NONE', *, *, #120, .T. ) ;
#31 = ORIENTED_EDGE ( 'NONE', *, *, #296, .T. ) ;
#32 = APPLICATION_CONTEXT ( 'automotive_design' ) ;
#33 = EDGE_LOOP ( 'NONE', ( #262, #79, #201, #134 ) ) ;
#34 = CARTESIAN_POINT ( 'NONE',  ( -0.1092905999999999878, 0.0000000000000000000, 2.676847669337874346E-17 ) ) ;
#35 = STYLED_ITEM ( 'NONE', ( #276 ), #248 ) ;
#36 = VECTOR ( 'NONE', #269, 39.37007874015748143 ) ;
#37 = CARTESIAN_POINT ( 'NONE',  ( 0.1092905999999999878, 1.338423834668937173E-17, -1.338423834668937173E-17 ) ) ;
#38 = DIRECTION ( 'NONE',  ( -1.224646799147353207E-16, -0.0000000000000000000, -1.000000000000000000 ) ) ;
#39 = CARTESIAN_POINT ( 'NONE',  ( 0.0000000000000000000, 0.0000000000000000000, 2.500000000000000000 ) ) ;
#40 = PRODUCT_DEFINITION_FORMATION_WITH_SPECIFIED_SOURCE ( 'ANY', '', #51, .NOT_KNOWN. ) ;
#41 = DIRECTION ( 'NONE',  ( -1.224646799147353207E-16, -0.0000000000000000000, -1.000000000000000000 ) ) ;
#42 = EDGE_CURVE ( 'NONE', #133, #267, #271, .T. ) ;
#43 = DIRECTION ( 'NONE',  ( 1.000000000000000000, 0.0000000000000000000, -0.0000000000000000000 ) ) ;
#44 = LINE ( 'NONE', #280, #232 ) ;
#45 = DIRECTION ( 'NONE',  ( 1.000000000000000000, 0.0000000000000000000, 0.0000000000000000000 ) ) ;
#46 = CARTESIAN_POINT ( 'NONE',  ( -0.1249999999999999029, 0.0000000000000000000, 0.8390924346171020343 ) ) ;
#47 = LINE ( 'NONE', #20, #109 ) ;
#48 = AXIS2_PLACEMENT_3D ( 'NONE', #87, #187, #115 ) ;
#49 = VECTOR ( 'NONE', #145, 39.37007874015748143 ) ;
#50 = ORIENTED_EDGE ( 'NONE', *, *, #218, .T. ) ;
#51 = PRODUCT ( 'Micro_SFL-218-46', 'Micro_SFL-218-46', '', ( #197 ) ) ;
#52 = DIRECTION ( 'NONE',  ( 0.0000000000000000000, 0.0000000000000000000, 1.000000000000000000 ) ) ;
#53 = ORIENTED_EDGE ( 'NONE', *, *, #26, .T. ) ;
#54 = DIRECTION ( 'NONE',  ( -0.0000000000000000000, -0.0000000000000000000, -1.000000000000000000 ) ) ;
#55 = VERTEX_POINT ( 'NONE', #64 ) ;
#56 = EDGE_CURVE ( 'NONE', #137, #179, #94, .T. ) ;
#57 = ORIENTED_EDGE ( 'NONE', *, *, #161, .F. ) ;
#58 = DIRECTION ( 'NONE',  ( -0.1736481776669312194, 2.126576849575783625E-17, 0.9848077530122077983 ) ) ;
#59 = CARTESIAN_POINT ( 'NONE',  ( 0.1100000000000001948, 1.347111479062090784E-17, 2.500000000000000000 ) ) ;
#60 = AXIS2_PLACEMENT_3D ( 'NONE', #39, #166, #251 ) ;
#61 = CONICAL_SURFACE ( 'NONE', #77, 0.1100000000000001948, 0.7853981633974517207 ) ;
#62 = CARTESIAN_POINT ( 'NONE',  ( 0.0000000000000000000, 0.0000000000000000000, 2.500000000000000000 ) ) ;
#63 = CARTESIAN_POINT ( 'NONE',  ( 9.184850993605150903E-17, 0.0000000000000000000, 0.7500000000000001110 ) ) ;
#64 = CARTESIAN_POINT ( 'NONE',  ( -0.1250000000000000000, 0.0000000000000000000, 2.485000000000000320 ) ) ;
#65 = ADVANCED_FACE ( 'NONE', ( #164 ), #186, .T. ) ;
#66 = AXIS2_PLACEMENT_3D ( 'NONE', #5, #68, #43 ) ;
#67 =( LENGTH_UNIT ( ) NAMED_UNIT ( * ) SI_UNIT ( $, .METRE. ) );
#68 = DIRECTION ( 'NONE',  ( 0.0000000000000000000, 0.0000000000000000000, 1.000000000000000000 ) ) ;
#69 = APPLICATION_CONTEXT ( 'automotive_design' ) ;
#70 = DIRECTION ( 'NONE',  ( 0.1736481776669314414, 0.0000000000000000000, 0.9848077530122077983 ) ) ;
#71 = ADVANCED_FACE ( 'NONE', ( #273 ), #167, .T. ) ;
#72 = DIMENSIONAL_EXPONENTS ( 1.000000000000000000, 0.0000000000000000000, 0.0000000000000000000, 0.0000000000000000000, 0.0000000000000000000, 0.0000000000000000000, 0.0000000000000000000 ) ;
#73 = FACE_OUTER_BOUND ( 'NONE', #192, .T. ) ;
#74 = CARTESIAN_POINT ( 'NONE',  ( 0.0000000000000000000, 0.0000000000000000000, 0.0000000000000000000 ) ) ;
#75 = ORIENTED_EDGE ( 'NONE', *, *, #42, .F. ) ;
#76 = EDGE_CURVE ( 'NONE', #137, #9, #78, .T. ) ;
#77 = AXIS2_PLACEMENT_3D ( 'NONE', #19, #209, #185 ) ;
#78 = CIRCLE ( 'NONE', #284, 0.1092905999999999878 ) ;
#79 = ORIENTED_EDGE ( 'NONE', *, *, #161, .T. ) ;
#80 =( CONVERSION_BASED_UNIT ( 'INCH', #176 ) LENGTH_UNIT ( ) NAMED_UNIT ( #213 ) );
#81 = CARTESIAN_POINT ( 'NONE',  ( 0.0000000000000000000, 0.0000000000000000000, 2.500000000000000000 ) ) ;
#82 = ADVANCED_BREP_SHAPE_REPRESENTATION ( 'Micro_SFL-218-46', ( #248, #293 ), #15 ) ;
#83 = ORIENTED_EDGE ( 'NONE', *, *, #155, .T. ) ;
#84 = SURFACE_SIDE_STYLE ('',( #7 ) ) ;
#85 = ORIENTED_EDGE ( 'NONE', *, *, #120, .F. ) ;
#86 = PRODUCT_DEFINITION_SHAPE ( 'NONE', 'NONE',  #208 ) ;
#87 = CARTESIAN_POINT ( 'NONE',  ( 0.0000000000000000000, 0.0000000000000000000, 2.485000000000000320 ) ) ;
#88 = CARTESIAN_POINT ( 'NONE',  ( 0.0000000000000000000, 0.0000000000000000000, 0.0000000000000000000 ) ) ;
#89 = EDGE_CURVE ( 'NONE', #9, #177, #121, .T. ) ;
#90 = DIRECTION ( 'NONE',  ( -1.224646799147353207E-16, -0.0000000000000000000, -1.000000000000000000 ) ) ;
#91 = AXIS2_PLACEMENT_3D ( 'NONE', #17, #298, #297 ) ;
#92 = AXIS2_PLACEMENT_3D ( 'NONE', #265, #54, #157 ) ;
#93 = ADVANCED_FACE ( 'NONE', ( #299 ), #205, .T. ) ;
#94 = LINE ( 'NONE', #16, #108 ) ;
#95 = UNCERTAINTY_MEASURE_WITH_UNIT (LENGTH_MEASURE( 1.000000000000000082E-05 ), #80, 'distance_accuracy_value', 'NONE');
#96 = DIRECTION ( 'NONE',  ( -1.224646799147353207E-16, -0.0000000000000000000, -1.000000000000000000 ) ) ;
#97 = ADVANCED_FACE ( 'NONE', ( #252 ), #61, .T. ) ;
#98 = AXIS2_PLACEMENT_3D ( 'NONE', #127, #129, #126 ) ;
#99 =( LENGTH_UNIT ( ) NAMED_UNIT ( * ) SI_UNIT ( $, .METRE. ) );
#100 = EDGE_CURVE ( 'NONE', #179, #113, #225, .T. ) ;
#101 = FILL_AREA_STYLE_COLOUR ( '', #152 ) ;
#102 = CARTESIAN_POINT ( 'NONE',  ( 0.1092906000000000849, 0.0000000000000000000, 0.7500000000000001110 ) ) ;
#103 = ADVANCED_FACE ( 'NONE', ( #206 ), #144, .T. ) ;
#104 = AXIS2_PLACEMENT_3D ( 'NONE', #274, #118, #226 ) ;
#105 = ORIENTED_EDGE ( 'NONE', *, *, #100, .F. ) ;
#106 = EDGE_CURVE ( 'NONE', #55, #240, #203, .T. ) ;
#107 = ORIENTED_EDGE ( 'NONE', *, *, #200, .F. ) ;
#108 = VECTOR ( 'NONE', #58, 39.37007874015748143 ) ;
#109 = VECTOR ( 'NONE', #2, 39.37007874015748143 ) ;
#110 = CARTESIAN_POINT ( 'NONE',  ( 0.1092906000000000849, 0.0000000000000000000, 0.7500000000000001110 ) ) ;
#111 = EDGE_CURVE ( 'NONE', #240, #55, #211, .T. ) ;
#112 = ORIENTED_EDGE ( 'NONE', *, *, #89, .F. ) ;
#113 = VERTEX_POINT ( 'NONE', #255 ) ;
#114 = EDGE_CURVE ( 'NONE', #9, #137, #124, .T. ) ;
#115 = DIRECTION ( 'NONE',  ( 1.000000000000000000, 0.0000000000000000000, 0.0000000000000000000 ) ) ;
#116 = VECTOR ( 'NONE', #260, 39.37007874015748143 ) ;
#117 = CARTESIAN_POINT ( 'NONE',  ( 0.0000000000000000000, 0.0000000000000000000, 2.485000000000000320 ) ) ;
#118 = DIRECTION ( 'NONE',  ( 0.0000000000000000000, 0.0000000000000000000, 1.000000000000000000 ) ) ;
#119 = DIRECTION ( 'NONE',  ( 1.000000000000000000, 0.0000000000000000000, 0.0000000000000000000 ) ) ;
#120 = EDGE_CURVE ( 'NONE', #159, #177, #238, .T. ) ;
#121 = LINE ( 'NONE', #37, #49 ) ;
#122 = CARTESIAN_POINT ( 'NONE',  ( 9.184850993605150903E-17, 0.0000000000000000000, 0.7500000000000001110 ) ) ;
#123 = DIRECTION ( 'NONE',  ( -0.7071067811865499042, 0.0000000000000000000, -0.7071067811865451302 ) ) ;
#124 = CIRCLE ( 'NONE', #3, 0.1092905999999999878 ) ;
#125 = CONICAL_SURFACE ( 'NONE', #130, 0.1100000000000001948, 0.7853981633974517207 ) ;
#126 = DIRECTION ( 'NONE',  ( -1.000000000000000000, 0.0000000000000000000, 1.224646799147353207E-16 ) ) ;
#127 = CARTESIAN_POINT ( 'NONE',  ( 1.639096465029840193E-33, 0.0000000000000000000, 1.338423834668937173E-17 ) ) ;
#128 = CLOSED_SHELL ( 'NONE', ( #71, #239, #97, #103, #29, #65, #184, #235, #93, #221 ) ) ;
#129 = DIRECTION ( 'NONE',  ( -1.224646799147353207E-16, -0.0000000000000000000, -1.000000000000000000 ) ) ;
#130 = AXIS2_PLACEMENT_3D ( 'NONE', #4, #215, #237 ) ;
#131 = EDGE_CURVE ( 'NONE', #137, #159, #146, .T. ) ;
#132 = APPLICATION_PROTOCOL_DEFINITION ( 'draft international standard', 'automotive_design', 1998, #32 ) ;
#133 = VERTEX_POINT ( 'NONE', #181 ) ;
#134 = ORIENTED_EDGE ( 'NONE', *, *, #218, .F. ) ;
#135 =( NAMED_UNIT ( * ) SI_UNIT ( $, .STERADIAN. ) SOLID_ANGLE_UNIT ( ) );
#136 = ORIENTED_EDGE ( 'NONE', *, *, #89, .T. ) ;
#137 = VERTEX_POINT ( 'NONE', #204 ) ;
#138 = EDGE_LOOP ( 'NONE', ( #246, #31, #105, #264 ) ) ;
#139 = AXIS2_PLACEMENT_3D ( 'NONE', #1, #96, #119 ) ;
#140 =( GEOMETRIC_REPRESENTATION_CONTEXT ( 3 ) GLOBAL_UNCERTAINTY_ASSIGNED_CONTEXT ( ( #95 ) ) GLOBAL_UNIT_ASSIGNED_CONTEXT ( ( #80, #287, #289 ) ) REPRESENTATION_CONTEXT ( 'NONE', 'WORKASPACE' ) );
#141 = LINE ( 'NONE', #59, #116 ) ;
#142 = MECHANICAL_DESIGN_GEOMETRIC_PRESENTATION_REPRESENTATION (  '', ( #263 ), #140 ) ;
#143 = DIRECTION ( 'NONE',  ( -0.0000000000000000000, -0.0000000000000000000, -1.000000000000000000 ) ) ;
#144 = CYLINDRICAL_SURFACE ( 'NONE', #163, 0.1250000000000000000 ) ;
#145 = DIRECTION ( 'NONE',  ( -1.224646799147353207E-16, -0.0000000000000000000, -1.000000000000000000 ) ) ;
#146 = LINE ( 'NONE', #183, #270 ) ;
#147 = SURFACE_SIDE_STYLE ('',( #230 ) ) ;
#148 = SURFACE_STYLE_USAGE ( .BOTH. , #147 ) ;
#149 = PRESENTATION_LAYER_ASSIGNMENT (  '', '', ( #35 ) ) ;
#150 = CIRCLE ( 'NONE', #234, 0.1100000000000001948 ) ;
#151 =( CONVERSION_BASED_UNIT ( 'INCH', #283 ) LENGTH_UNIT ( ) NAMED_UNIT ( #281 ) );
#152 = COLOUR_RGB ( '',0.7921568627450980005, 0.8196078431372548767, 0.9333333333333333481 ) ;
#153 = SHAPE_DEFINITION_REPRESENTATION ( #86, #82 ) ;
#154 = ORIENTED_EDGE ( 'NONE', *, *, #56, .F. ) ;
#155 = EDGE_CURVE ( 'NONE', #55, #179, #295, .T. ) ;
#156 = ORIENTED_EDGE ( 'NONE', *, *, #76, .T. ) ;
#157 = DIRECTION ( 'NONE',  ( -1.000000000000000000, 0.0000000000000000000, 0.0000000000000000000 ) ) ;
#158 = APPLICATION_PROTOCOL_DEFINITION ( 'draft international standard', 'automotive_design', 1998, #69 ) ;
#159 = VERTEX_POINT ( 'NONE', #34 ) ;
#160 = ORIENTED_EDGE ( 'NONE', *, *, #131, .T. ) ;
#161 = EDGE_CURVE ( 'NONE', #267, #240, #141, .T. ) ;
#162 = DIRECTION ( 'NONE',  ( -1.000000000000000000, 0.0000000000000000000, 1.224646799147353207E-16 ) ) ;
#163 = AXIS2_PLACEMENT_3D ( 'NONE', #62, #143, #228 ) ;
#164 = FACE_OUTER_BOUND ( 'NONE', #223, .T. ) ;
#165 = CONICAL_SURFACE ( 'NONE', #224, 0.1092905999999999878, 0.1745329251994339470 ) ;
#166 = DIRECTION ( 'NONE',  ( 0.0000000000000000000, 0.0000000000000000000, 1.000000000000000000 ) ) ;
#167 = CYLINDRICAL_SURFACE ( 'NONE', #212, 0.1092905999999999878 ) ;
#168 = DIRECTION ( 'NONE',  ( 1.000000000000000000, 0.0000000000000000000, 0.0000000000000000000 ) ) ;
#169 = DIRECTION ( 'NONE',  ( 1.000000000000000000, 0.0000000000000000000, 0.0000000000000000000 ) ) ;
#170 = FACE_OUTER_BOUND ( 'NONE', #288, .T. ) ;
#171 =( NAMED_UNIT ( * ) PLANE_ANGLE_UNIT ( ) SI_UNIT ( $, .RADIAN. ) );
#172 = SURFACE_STYLE_USAGE ( .BOTH. , #84 ) ;
#173 = ORIENTED_EDGE ( 'NONE', *, *, #131, .F. ) ;
#174 = AXIS2_PLACEMENT_3D ( 'NONE', #117, #275, #168 ) ;
#175 = AXIS2_PLACEMENT_3D ( 'NONE', #233, #22, #169 ) ;
#176 = LENGTH_MEASURE_WITH_UNIT ( LENGTH_MEASURE( 0.02539999999999999897 ), #261 );
#177 = VERTEX_POINT ( 'NONE', #190 ) ;
#178 = DIRECTION ( 'NONE',  ( 0.0000000000000000000, 0.0000000000000000000, 1.000000000000000000 ) ) ;
#179 = VERTEX_POINT ( 'NONE', #46 ) ;
#180 = ORIENTED_EDGE ( 'NONE', *, *, #100, .T. ) ;
#181 = CARTESIAN_POINT ( 'NONE',  ( -0.1100000000000001948, 0.0000000000000000000, 2.500000000000000000 ) ) ;
#182 = PRODUCT_DEFINITION_CONTEXT ( 'detailed design', #32, 'design' ) ;
#183 = CARTESIAN_POINT ( 'NONE',  ( -0.1092905999999999878, 0.0000000000000000000, 1.338423834668937173E-17 ) ) ;
#184 = ADVANCED_FACE ( 'NONE', ( #210 ), #125, .T. ) ;
#185 = DIRECTION ( 'NONE',  ( -1.000000000000000000, 0.0000000000000000000, 0.0000000000000000000 ) ) ;
#186 = PLANE ( 'NONE',  #60 ) ;
#187 = DIRECTION ( 'NONE',  ( 0.0000000000000000000, 0.0000000000000000000, -1.000000000000000000 ) ) ;
#188 = AXIS2_PLACEMENT_3D ( 'NONE', #229, #90, #162 ) ;
#189 = CARTESIAN_POINT ( 'NONE',  ( 1.027591864242593897E-16, 0.0000000000000000000, 0.8390924346171020343 ) ) ;
#190 = CARTESIAN_POINT ( 'NONE',  ( 0.1092905999999999878, 1.338423834668937173E-17, 0.0000000000000000000 ) ) ;
#191 =( NAMED_UNIT ( * ) PLANE_ANGLE_UNIT ( ) SI_UNIT ( $, .RADIAN. ) );
#192 = EDGE_LOOP ( 'NONE', ( #27, #242, #180, #107 ) ) ;
#193 = PRESENTATION_STYLE_ASSIGNMENT (( #172 ) ) ;
#194 = ORIENTED_EDGE ( 'NONE', *, *, #296, .F. ) ;
#195 = MECHANICAL_DESIGN_GEOMETRIC_PRESENTATION_REPRESENTATION (  '', ( #35 ), #256 ) ;
#196 = ORIENTED_EDGE ( 'NONE', *, *, #245, .T. ) ;
#197 = PRODUCT_CONTEXT ( 'NONE', #69, 'mechanical' ) ;
#198 = EDGE_LOOP ( 'NONE', ( #57, #75, #50, #282 ) ) ;
#199 = FILL_AREA_STYLE_COLOUR ( '', #25 ) ;
#200 = EDGE_CURVE ( 'NONE', #9, #113, #259, .T. ) ;
#201 = ORIENTED_EDGE ( 'NONE', *, *, #106, .F. ) ;
#202 = EDGE_CURVE ( 'NONE', #177, #159, #286, .T. ) ;
#203 = CIRCLE ( 'NONE', #48, 0.1250000000000000000 ) ;
#204 = CARTESIAN_POINT ( 'NONE',  ( -0.1092905999999999045, 1.434616166801564572E-17, 0.7500000000000001110 ) ) ;
#205 = CYLINDRICAL_SURFACE ( 'NONE', #188, 0.1092905999999999878 ) ;
#206 = FACE_OUTER_BOUND ( 'NONE', #138, .T. ) ;
#207 = DIRECTION ( 'NONE',  ( -1.000000000000000000, 0.0000000000000000000, 0.0000000000000000000 ) ) ;
#208 = PRODUCT_DEFINITION ( 'UNKNOWN', '', #40, #182 ) ;
#209 = DIRECTION ( 'NONE',  ( 0.0000000000000000000, 0.0000000000000000000, -1.000000000000000000 ) ) ;
#210 = FACE_OUTER_BOUND ( 'NONE', #198, .T. ) ;
#211 = CIRCLE ( 'NONE', #174, 0.1250000000000000000 ) ;
#212 = AXIS2_PLACEMENT_3D ( 'NONE', #88, #38, #14 ) ;
#213 = DIMENSIONAL_EXPONENTS ( 1.000000000000000000, 0.0000000000000000000, 0.0000000000000000000, 0.0000000000000000000, 0.0000000000000000000, 0.0000000000000000000, 0.0000000000000000000 ) ;
#214 = CARTESIAN_POINT ( 'NONE',  ( 0.1100000000000001948, 1.438959988998141146E-17, 2.500000000000000000 ) ) ;
#215 = DIRECTION ( 'NONE',  ( 0.0000000000000000000, 0.0000000000000000000, -1.000000000000000000 ) ) ;
#216 =( NAMED_UNIT ( * ) SI_UNIT ( $, .STERADIAN. ) SOLID_ANGLE_UNIT ( ) );
#217 = FACE_OUTER_BOUND ( 'NONE', #292, .T. ) ;
#218 = EDGE_CURVE ( 'NONE', #133, #55, #44, .T. ) ;
#219 = ORIENTED_EDGE ( 'NONE', *, *, #202, .F. ) ;
#220 = EDGE_LOOP ( 'NONE', ( #30, #247 ) ) ;
#221 = ADVANCED_FACE ( 'NONE', ( #21 ), #279, .F. ) ;
#222 = ORIENTED_EDGE ( 'NONE', *, *, #114, .F. ) ;
#223 = EDGE_LOOP ( 'NONE', ( #244, #53 ) ) ;
#224 = AXIS2_PLACEMENT_3D ( 'NONE', #122, #231, #45 ) ;
#225 = CIRCLE ( 'NONE', #139, 0.1250000000000000000 ) ;
#226 = DIRECTION ( 'NONE',  ( 1.000000000000000000, 0.0000000000000000000, 0.0000000000000000000 ) ) ;
#227 = CARTESIAN_POINT ( 'NONE',  ( 9.184850993605150903E-17, 0.0000000000000000000, 0.7500000000000001110 ) ) ;
#228 = DIRECTION ( 'NONE',  ( -1.000000000000000000, 0.0000000000000000000, 0.0000000000000000000 ) ) ;
#229 = CARTESIAN_POINT ( 'NONE',  ( 0.0000000000000000000, 0.0000000000000000000, 0.0000000000000000000 ) ) ;
#230 = SURFACE_STYLE_FILL_AREA ( #24 ) ;
#231 = DIRECTION ( 'NONE',  ( 1.224646799147353207E-16, 0.0000000000000000000, 1.000000000000000000 ) ) ;
#232 = VECTOR ( 'NONE', #123, 39.37007874015748143 ) ;
#233 = CARTESIAN_POINT ( 'NONE',  ( 9.184850993605150903E-17, 0.0000000000000000000, 0.7500000000000001110 ) ) ;
#234 = AXIS2_PLACEMENT_3D ( 'NONE', #81, #178, #290 ) ;
#235 = ADVANCED_FACE ( 'NONE', ( #170 ), #165, .T. ) ;
#236 =( CONVERSION_BASED_UNIT ( 'INCH', #278 ) LENGTH_UNIT ( ) NAMED_UNIT ( #72 ) );
#237 = DIRECTION ( 'NONE',  ( -1.000000000000000000, 0.0000000000000000000, 0.0000000000000000000 ) ) ;
#238 = CIRCLE ( 'NONE', #91, 0.1092905999999999878 ) ;
#239 = ADVANCED_FACE ( 'NONE', ( #73 ), #23, .T. ) ;
#240 = VERTEX_POINT ( 'NONE', #257 ) ;
#241 = DIRECTION ( 'NONE',  ( 1.000000000000000000, 0.0000000000000000000, 0.0000000000000000000 ) ) ;
#242 = ORIENTED_EDGE ( 'NONE', *, *, #56, .T. ) ;
#243 = ORIENTED_EDGE ( 'NONE', *, *, #111, .T. ) ;
#244 = ORIENTED_EDGE ( 'NONE', *, *, #42, .T. ) ;
#245 = EDGE_CURVE ( 'NONE', #113, #179, #258, .T. ) ;
#246 = ORIENTED_EDGE ( 'NONE', *, *, #106, .T. ) ;
#247 = ORIENTED_EDGE ( 'NONE', *, *, #202, .T. ) ;
#248 = MANIFOLD_SOLID_BREP ( 'Cut-Revolve1', #128 ) ;
#249 = DIRECTION ( 'NONE',  ( -1.224646799147353207E-16, -0.0000000000000000000, -1.000000000000000000 ) ) ;
#250 = AXIS2_PLACEMENT_3D ( 'NONE', #189, #277, #6 ) ;
#251 = DIRECTION ( 'NONE',  ( 1.000000000000000000, 0.0000000000000000000, -0.0000000000000000000 ) ) ;
#252 = FACE_OUTER_BOUND ( 'NONE', #33, .T. ) ;
#253 = UNCERTAINTY_MEASURE_WITH_UNIT (LENGTH_MEASURE( 1.000000000000000082E-05 ), #151, 'distance_accuracy_value', 'NONE');
#254 = DIRECTION ( 'NONE',  ( -1.224646799147353207E-16, -0.0000000000000000000, -1.000000000000000000 ) ) ;
#255 = CARTESIAN_POINT ( 'NONE',  ( 0.1250000000000001110, 1.530808498934192742E-17, 0.8390924346171020343 ) ) ;
#256 =( GEOMETRIC_REPRESENTATION_CONTEXT ( 3 ) GLOBAL_UNCERTAINTY_ASSIGNED_CONTEXT ( ( #10 ) ) GLOBAL_UNIT_ASSIGNED_CONTEXT ( ( #236, #171, #216 ) ) REPRESENTATION_CONTEXT ( 'NONE', 'WORKASPACE' ) );
#257 = CARTESIAN_POINT ( 'NONE',  ( 0.1250000000000000000, 1.530808498934191509E-17, 2.485000000000000320 ) ) ;
#258 = CIRCLE ( 'NONE', #250, 0.1250000000000000000 ) ;
#259 = LINE ( 'NONE', #102, #294 ) ;
#260 = DIRECTION ( 'NONE',  ( 0.7071067811865499042, 8.659560562354961208E-17, -0.7071067811865451302 ) ) ;
#261 =( LENGTH_UNIT ( ) NAMED_UNIT ( * ) SI_UNIT ( $, .METRE. ) );
#262 = ORIENTED_EDGE ( 'NONE', *, *, #26, .F. ) ;
#263 = STYLED_ITEM ( 'NONE', ( #193 ), #82 ) ;
#264 = ORIENTED_EDGE ( 'NONE', *, *, #155, .F. ) ;
#265 = CARTESIAN_POINT ( 'NONE',  ( 0.0000000000000000000, 0.0000000000000000000, 2.500000000000000000 ) ) ;
#266 = ORIENTED_EDGE ( 'NONE', *, *, #245, .F. ) ;
#267 = VERTEX_POINT ( 'NONE', #214 ) ;
#268 = CARTESIAN_POINT ( 'NONE',  ( -0.1250000000000000000, 0.0000000000000000000, 2.500000000000000000 ) ) ;
#269 = DIRECTION ( 'NONE',  ( -0.0000000000000000000, -0.0000000000000000000, -1.000000000000000000 ) ) ;
#270 = VECTOR ( 'NONE', #249, 39.37007874015748143 ) ;
#271 = CIRCLE ( 'NONE', #104, 0.1100000000000001948 ) ;
#272 = PRESENTATION_LAYER_ASSIGNMENT (  '', '', ( #263 ) ) ;
#273 = FACE_OUTER_BOUND ( 'NONE', #8, .T. ) ;
#274 = CARTESIAN_POINT ( 'NONE',  ( 0.0000000000000000000, 0.0000000000000000000, 2.500000000000000000 ) ) ;
#275 = DIRECTION ( 'NONE',  ( 0.0000000000000000000, 0.0000000000000000000, -1.000000000000000000 ) ) ;
#276 = PRESENTATION_STYLE_ASSIGNMENT (( #148 ) ) ;
#277 = DIRECTION ( 'NONE',  ( -1.224646799147353207E-16, -0.0000000000000000000, -1.000000000000000000 ) ) ;
#278 = LENGTH_MEASURE_WITH_UNIT ( LENGTH_MEASURE( 0.02539999999999999897 ), #99 );
#279 = PLANE ( 'NONE',  #66 ) ;
#280 = CARTESIAN_POINT ( 'NONE',  ( -0.1100000000000001948, 0.0000000000000000000, 2.500000000000000000 ) ) ;
#281 = DIMENSIONAL_EXPONENTS ( 1.000000000000000000, 0.0000000000000000000, 0.0000000000000000000, 0.0000000000000000000, 0.0000000000000000000, 0.0000000000000000000, 0.0000000000000000000 ) ;
#282 = ORIENTED_EDGE ( 'NONE', *, *, #111, .F. ) ;
#283 = LENGTH_MEASURE_WITH_UNIT ( LENGTH_MEASURE( 0.02539999999999999897 ), #67 );
#284 = AXIS2_PLACEMENT_3D ( 'NONE', #63, #254, #18 ) ;
#285 = CYLINDRICAL_SURFACE ( 'NONE', #92, 0.1250000000000000000 ) ;
#286 = CIRCLE ( 'NONE', #98, 0.1092905999999999878 ) ;
#287 =( NAMED_UNIT ( * ) PLANE_ANGLE_UNIT ( ) SI_UNIT ( $, .RADIAN. ) );
#288 = EDGE_LOOP ( 'NONE', ( #154, #222, #28, #196 ) ) ;
#289 =( NAMED_UNIT ( * ) SI_UNIT ( $, .STERADIAN. ) SOLID_ANGLE_UNIT ( ) );
#290 = DIRECTION ( 'NONE',  ( 1.000000000000000000, 0.0000000000000000000, 0.0000000000000000000 ) ) ;
#291 = FILL_AREA_STYLE ('',( #199 ) ) ;
#292 = EDGE_LOOP ( 'NONE', ( #194, #243, #83, #266 ) ) ;
#293 = AXIS2_PLACEMENT_3D ( 'NONE', #74, #52, #241 ) ;
#294 = VECTOR ( 'NONE', #70, 39.37007874015748143 ) ;
#295 = LINE ( 'NONE', #268, #36 ) ;
#296 = EDGE_CURVE ( 'NONE', #240, #113, #47, .T. ) ;
#297 = DIRECTION ( 'NONE',  ( -1.000000000000000000, 0.0000000000000000000, 1.224646799147353207E-16 ) ) ;
#298 = DIRECTION ( 'NONE',  ( -1.224646799147353207E-16, -0.0000000000000000000, -1.000000000000000000 ) ) ;
#299 = FACE_OUTER_BOUND ( 'NONE', #13, .T. ) ;
ENDSEC;
END-ISO-10303-21;
