ISO-10303-21;
HEADER;
FILE_DESCRIPTION (( 'STEP AP214' ),
    '1' );
FILE_NAME ('Micro_EMS-218-3X.STEP',
    '2021-09-01T17:48:11',
    ( '' ),
    ( '' ),
    'SwSTEP 2.0',
    'SolidWorks 2020',
    '' );
FILE_SCHEMA (( 'AUTOMOTIVE_DESIGN' ));
ENDSEC;

DATA;
#1 = CARTESIAN_POINT ( 'NONE',  ( -0.1100000000000001948, 0.0000000000000000000, 2.500000000000000000 ) ) ;
#2 = CARTESIAN_POINT ( 'NONE',  ( 0.1100000000000001948, 1.347111479062090784E-17, 2.500000000000000000 ) ) ;
#3 = AXIS2_PLACEMENT_3D ( 'NONE', #110, #62, #158 ) ;
#4 = VECTOR ( 'NONE', #267, 39.37007874015748143 ) ;
#5 = ORIENTED_EDGE ( 'NONE', *, *, #45, .F. ) ;
#6 = EDGE_CURVE ( 'NONE', #43, #278, #53, .T. ) ;
#7 = DIRECTION ( 'NONE',  ( 0.0000000000000000000, 0.0000000000000000000, -1.000000000000000000 ) ) ;
#8 = DIRECTION ( 'NONE',  ( 0.0000000000000000000, 0.0000000000000000000, 1.000000000000000000 ) ) ;
#9 = CARTESIAN_POINT ( 'NONE',  ( 0.0000000000000000000, 0.0000000000000000000, 2.500000000000000000 ) ) ;
#10 = FILL_AREA_STYLE ('',( #155 ) ) ;
#11 = PRODUCT_RELATED_PRODUCT_CATEGORY ( 'part', '', ( #205 ) ) ;
#12 = DIRECTION ( 'NONE',  ( -1.000000000000000000, 0.0000000000000000000, 0.0000000000000000000 ) ) ;
#13 = PRESENTATION_STYLE_ASSIGNMENT (( #243 ) ) ;
#14 = DIRECTION ( 'NONE',  ( -0.0000000000000000000, -0.0000000000000000000, -1.000000000000000000 ) ) ;
#15 = EDGE_CURVE ( 'NONE', #278, #297, #169, .T. ) ;
#16 = CLOSED_SHELL ( 'NONE', ( #261, #99, #87, #130, #187, #203, #162, #184, #67, #73 ) ) ;
#17 =( LENGTH_UNIT ( ) NAMED_UNIT ( * ) SI_UNIT ( $, .METRE. ) );
#18 = VERTEX_POINT ( 'NONE', #166 ) ;
#19 = CARTESIAN_POINT ( 'NONE',  ( 0.1250000000000000000, 1.530808498934191509E-17, 2.485000000000000320 ) ) ;
#20 = LINE ( 'NONE', #111, #71 ) ;
#21 = ORIENTED_EDGE ( 'NONE', *, *, #15, .T. ) ;
#22 = EDGE_CURVE ( 'NONE', #278, #253, #270, .T. ) ;
#23 = LINE ( 'NONE', #180, #192 ) ;
#24 = AXIS2_PLACEMENT_3D ( 'NONE', #247, #132, #12 ) ;
#25 = EDGE_LOOP ( 'NONE', ( #85, #39, #161, #173 ) ) ;
#26 = PLANE ( 'NONE',  #143 ) ;
#27 = ORIENTED_EDGE ( 'NONE', *, *, #6, .T. ) ;
#28 = PRESENTATION_LAYER_ASSIGNMENT (  '', '', ( #118 ) ) ;
#29 = APPLICATION_CONTEXT ( 'automotive_design' ) ;
#30 = CONICAL_SURFACE ( 'NONE', #233, 0.1100000000000001948, 0.7853981633974517207 ) ;
#31 = ORIENTED_EDGE ( 'NONE', *, *, #105, .T. ) ;
#32 = CARTESIAN_POINT ( 'NONE',  ( 0.0000000000000000000, 0.0000000000000000000, 0.0000000000000000000 ) ) ;
#33 =( CONVERSION_BASED_UNIT ( 'INCH', #54 ) LENGTH_UNIT ( ) NAMED_UNIT ( #47 ) );
#34 = FACE_OUTER_BOUND ( 'NONE', #238, .T. ) ;
#35 =( NAMED_UNIT ( * ) PLANE_ANGLE_UNIT ( ) SI_UNIT ( $, .RADIAN. ) );
#36 = DIRECTION ( 'NONE',  ( 1.000000000000000000, 0.0000000000000000000, 0.0000000000000000000 ) ) ;
#37 = VERTEX_POINT ( 'NONE', #92 ) ;
#38 = DIRECTION ( 'NONE',  ( -1.224646799147353207E-16, -0.0000000000000000000, -1.000000000000000000 ) ) ;
#39 = ORIENTED_EDGE ( 'NONE', *, *, #212, .T. ) ;
#40 = DIRECTION ( 'NONE',  ( -1.224646799147353207E-16, -0.0000000000000000000, -1.000000000000000000 ) ) ;
#41 = CARTESIAN_POINT ( 'NONE',  ( -0.1250000000000000000, 0.0000000000000000000, 2.485000000000000320 ) ) ;
#42 = DIRECTION ( 'NONE',  ( -1.224646799147353207E-16, -0.0000000000000000000, -1.000000000000000000 ) ) ;
#43 = VERTEX_POINT ( 'NONE', #72 ) ;
#44 = CIRCLE ( 'NONE', #83, 0.1250000000000000000 ) ;
#45 = EDGE_CURVE ( 'NONE', #293, #189, #141, .T. ) ;
#46 = CARTESIAN_POINT ( 'NONE',  ( 0.0000000000000000000, 0.0000000000000000000, 2.500000000000000000 ) ) ;
#47 = DIMENSIONAL_EXPONENTS ( 1.000000000000000000, 0.0000000000000000000, 0.0000000000000000000, 0.0000000000000000000, 0.0000000000000000000, 0.0000000000000000000, 0.0000000000000000000 ) ;
#48 = EDGE_LOOP ( 'NONE', ( #282, #31 ) ) ;
#49 = CIRCLE ( 'NONE', #288, 0.1092406499999999947 ) ;
#50 = EDGE_CURVE ( 'NONE', #189, #297, #164, .T. ) ;
#51 =( CONVERSION_BASED_UNIT ( 'INCH', #145 ) LENGTH_UNIT ( ) NAMED_UNIT ( #264 ) );
#52 = CARTESIAN_POINT ( 'NONE',  ( 0.0000000000000000000, 0.0000000000000000000, 2.485000000000000320 ) ) ;
#53 = LINE ( 'NONE', #1, #90 ) ;
#54 = LENGTH_MEASURE_WITH_UNIT ( LENGTH_MEASURE( 0.02539999999999999897 ), #195 );
#55 = EDGE_CURVE ( 'NONE', #253, #278, #102, .T. ) ;
#56 = CARTESIAN_POINT ( 'NONE',  ( 0.0000000000000000000, 0.0000000000000000000, 2.500000000000000000 ) ) ;
#57 = DIRECTION ( 'NONE',  ( 1.000000000000000000, 0.0000000000000000000, 0.0000000000000000000 ) ) ;
#58 = FACE_OUTER_BOUND ( 'NONE', #115, .T. ) ;
#59 = AXIS2_PLACEMENT_3D ( 'NONE', #163, #190, #75 ) ;
#60 = DIRECTION ( 'NONE',  ( -1.000000000000000000, 0.0000000000000000000, 1.224646799147353207E-16 ) ) ;
#61 = ORIENTED_EDGE ( 'NONE', *, *, #298, .F. ) ;
#62 = DIRECTION ( 'NONE',  ( 0.0000000000000000000, 0.0000000000000000000, 1.000000000000000000 ) ) ;
#63 = AXIS2_PLACEMENT_3D ( 'NONE', #216, #152, #101 ) ;
#64 = CARTESIAN_POINT ( 'NONE',  ( 0.1250000000000000000, 1.530808498934191509E-17, 2.500000000000000000 ) ) ;
#65 = ORIENTED_EDGE ( 'NONE', *, *, #268, .T. ) ;
#66 = CARTESIAN_POINT ( 'NONE',  ( 0.0000000000000000000, 0.0000000000000000000, 2.485000000000000320 ) ) ;
#67 = ADVANCED_FACE ( 'NONE', ( #76 ), #239, .T. ) ;
#68 = DIRECTION ( 'NONE',  ( 0.0000000000000000000, 0.0000000000000000000, 1.000000000000000000 ) ) ;
#69 = AXIS2_PLACEMENT_3D ( 'NONE', #290, #244, #36 ) ;
#70 = AXIS2_PLACEMENT_3D ( 'NONE', #154, #291, #80 ) ;
#71 = VECTOR ( 'NONE', #198, 39.37007874015747433 ) ;
#72 = CARTESIAN_POINT ( 'NONE',  ( -0.1100000000000001948, 0.0000000000000000000, 2.500000000000000000 ) ) ;
#73 = ADVANCED_FACE ( 'NONE', ( #255 ), #26, .F. ) ;
#74 = AXIS2_PLACEMENT_3D ( 'NONE', #148, #103, #199 ) ;
#75 = DIRECTION ( 'NONE',  ( 1.000000000000000000, 0.0000000000000000000, 0.0000000000000000000 ) ) ;
#76 = FACE_OUTER_BOUND ( 'NONE', #214, .T. ) ;
#77 = CONICAL_SURFACE ( 'NONE', #74, 0.1100000000000001948, 0.7853981633974517207 ) ;
#78 = CARTESIAN_POINT ( 'NONE',  ( 8.748579329396911086E-17, 0.0000000000000000000, 0.7143757151439918962 ) ) ;
#79 = CARTESIAN_POINT ( 'NONE',  ( 0.0000000000000000000, 0.0000000000000000000, 0.0000000000000000000 ) ) ;
#80 = DIRECTION ( 'NONE',  ( 1.000000000000000000, 0.0000000000000000000, 0.0000000000000000000 ) ) ;
#81 =( LENGTH_UNIT ( ) NAMED_UNIT ( * ) SI_UNIT ( $, .METRE. ) );
#82 = CARTESIAN_POINT ( 'NONE',  ( -0.1092406499999999947, 0.0000000000000000000, 2.675624247185526200E-17 ) ) ;
#83 = AXIS2_PLACEMENT_3D ( 'NONE', #78, #106, #171 ) ;
#84 =( GEOMETRIC_REPRESENTATION_CONTEXT ( 3 ) GLOBAL_UNCERTAINTY_ASSIGNED_CONTEXT ( ( #222 ) ) GLOBAL_UNIT_ASSIGNED_CONTEXT ( ( #295, #35, #274 ) ) REPRESENTATION_CONTEXT ( 'NONE', 'WORKASPACE' ) );
#85 = ORIENTED_EDGE ( 'NONE', *, *, #22, .T. ) ;
#86 = ORIENTED_EDGE ( 'NONE', *, *, #55, .T. ) ;
#87 = ADVANCED_FACE ( 'NONE', ( #258 ), #30, .T. ) ;
#88 = LINE ( 'NONE', #64, #94 ) ;
#89 = DIRECTION ( 'NONE',  ( -0.0000000000000000000, -0.0000000000000000000, -1.000000000000000000 ) ) ;
#90 = VECTOR ( 'NONE', #91, 39.37007874015748143 ) ;
#91 = DIRECTION ( 'NONE',  ( -0.7071067811865499042, 0.0000000000000000000, -0.7071067811865451302 ) ) ;
#92 = CARTESIAN_POINT ( 'NONE',  ( 0.1100000000000001948, 1.438959988998141146E-17, 2.500000000000000000 ) ) ;
#93 = ORIENTED_EDGE ( 'NONE', *, *, #105, .F. ) ;
#94 = VECTOR ( 'NONE', #89, 39.37007874015748143 ) ;
#95 =( GEOMETRIC_REPRESENTATION_CONTEXT ( 3 ) GLOBAL_UNCERTAINTY_ASSIGNED_CONTEXT ( ( #273 ) ) GLOBAL_UNIT_ASSIGNED_CONTEXT ( ( #51, #120, #109 ) ) REPRESENTATION_CONTEXT ( 'NONE', 'WORKASPACE' ) );
#96 = EDGE_CURVE ( 'NONE', #37, #253, #208, .T. ) ;
#97 = COLOUR_RGB ( '',0.7921568627450980005, 0.8196078431372548767, 0.9333333333333333481 ) ;
#98 = DIRECTION ( 'NONE',  ( 1.000000000000000000, 0.0000000000000000000, 0.0000000000000000000 ) ) ;
#99 = ADVANCED_FACE ( 'NONE', ( #58 ), #181, .T. ) ;
#100 = CARTESIAN_POINT ( 'NONE',  ( 0.1092406500000000502, 0.0000000000000000000, 0.6250000000000000000 ) ) ;
#101 = DIRECTION ( 'NONE',  ( -1.000000000000000000, 0.0000000000000000000, 0.0000000000000000000 ) ) ;
#102 = CIRCLE ( 'NONE', #185, 0.1250000000000000000 ) ;
#103 = DIRECTION ( 'NONE',  ( 0.0000000000000000000, 0.0000000000000000000, -1.000000000000000000 ) ) ;
#104 = PRESENTATION_STYLE_ASSIGNMENT (( #271 ) ) ;
#105 = EDGE_CURVE ( 'NONE', #262, #142, #49, .T. ) ;
#106 = DIRECTION ( 'NONE',  ( -1.224646799147353207E-16, -0.0000000000000000000, -1.000000000000000000 ) ) ;
#107 = EDGE_LOOP ( 'NONE', ( #284, #248, #254, #176 ) ) ;
#108 = AXIS2_PLACEMENT_3D ( 'NONE', #175, #38, #287 ) ;
#109 =( NAMED_UNIT ( * ) SI_UNIT ( $, .STERADIAN. ) SOLID_ANGLE_UNIT ( ) );
#110 = CARTESIAN_POINT ( 'NONE',  ( 0.0000000000000000000, 0.0000000000000000000, 2.500000000000000000 ) ) ;
#111 = CARTESIAN_POINT ( 'NONE',  ( -0.1092406499999999253, 1.337812123592763100E-17, 0.6250000000000000000 ) ) ;
#112 = VECTOR ( 'NONE', #279, 39.37007874015748143 ) ;
#113 = UNCERTAINTY_MEASURE_WITH_UNIT (LENGTH_MEASURE( 1.000000000000000082E-05 ), #33, 'distance_accuracy_value', 'NONE');
#114 = EDGE_CURVE ( 'NONE', #293, #262, #194, .T. ) ;
#115 = EDGE_LOOP ( 'NONE', ( #226, #168, #299, #5 ) ) ;
#116 = DIRECTION ( 'NONE',  ( -1.000000000000000000, 0.0000000000000000000, 0.0000000000000000000 ) ) ;
#117 = ORIENTED_EDGE ( 'NONE', *, *, #256, .F. ) ;
#118 = STYLED_ITEM ( 'NONE', ( #104 ), #207 ) ;
#119 = ORIENTED_EDGE ( 'NONE', *, *, #114, .T. ) ;
#120 =( NAMED_UNIT ( * ) PLANE_ANGLE_UNIT ( ) SI_UNIT ( $, .RADIAN. ) );
#121 = DIRECTION ( 'NONE',  ( -1.000000000000000000, 0.0000000000000000000, 1.224646799147353207E-16 ) ) ;
#122 = CARTESIAN_POINT ( 'NONE',  ( 0.1250000000000000833, 1.530808498934192433E-17, 0.7143757151439918962 ) ) ;
#123 = PRODUCT_CONTEXT ( 'NONE', #29, 'mechanical' ) ;
#124 = AXIS2_PLACEMENT_3D ( 'NONE', #66, #7, #98 ) ;
#125 = MECHANICAL_DESIGN_GEOMETRIC_PRESENTATION_REPRESENTATION (  '', ( #283 ), #84 ) ;
#126 = SURFACE_STYLE_FILL_AREA ( #242 ) ;
#127 = FACE_OUTER_BOUND ( 'NONE', #223, .T. ) ;
#128 = ORIENTED_EDGE ( 'NONE', *, *, #138, .T. ) ;
#129 = PLANE ( 'NONE',  #257 ) ;
#130 = ADVANCED_FACE ( 'NONE', ( #269 ), #178, .T. ) ;
#131 = SURFACE_SIDE_STYLE ('',( #220 ) ) ;
#132 = DIRECTION ( 'NONE',  ( -1.224646799147353207E-16, -0.0000000000000000000, -1.000000000000000000 ) ) ;
#133 = AXIS2_PLACEMENT_3D ( 'NONE', #292, #42, #229 ) ;
#134 = CYLINDRICAL_SURFACE ( 'NONE', #228, 0.1092406499999999947 ) ;
#135 = PRODUCT_DEFINITION_CONTEXT ( 'detailed design', #150, 'design' ) ;
#136 = ORIENTED_EDGE ( 'NONE', *, *, #55, .F. ) ;
#137 = DIRECTION ( 'NONE',  ( -1.224646799147353207E-16, -0.0000000000000000000, -1.000000000000000000 ) ) ;
#138 = EDGE_CURVE ( 'NONE', #18, #293, #151, .T. ) ;
#139 = VECTOR ( 'NONE', #186, 39.37007874015748143 ) ;
#140 = DIRECTION ( 'NONE',  ( 0.1736481776669313304, 0.0000000000000000000, 0.9848077530122077983 ) ) ;
#141 = LINE ( 'NONE', #100, #260 ) ;
#142 = VERTEX_POINT ( 'NONE', #82 ) ;
#143 = AXIS2_PLACEMENT_3D ( 'NONE', #280, #68, #165 ) ;
#144 = ORIENTED_EDGE ( 'NONE', *, *, #96, .F. ) ;
#145 = LENGTH_MEASURE_WITH_UNIT ( LENGTH_MEASURE( 0.02539999999999999897 ), #81 );
#146 = DIRECTION ( 'NONE',  ( 1.000000000000000000, 0.0000000000000000000, 0.0000000000000000000 ) ) ;
#147 = CARTESIAN_POINT ( 'NONE',  ( 1.638347335018400726E-33, 0.0000000000000000000, 1.337812123592763100E-17 ) ) ;
#148 = CARTESIAN_POINT ( 'NONE',  ( 0.0000000000000000000, 0.0000000000000000000, 2.500000000000000000 ) ) ;
#149 = DIRECTION ( 'NONE',  ( 0.0000000000000000000, 0.0000000000000000000, 1.000000000000000000 ) ) ;
#150 = APPLICATION_CONTEXT ( 'automotive_design' ) ;
#151 = CIRCLE ( 'NONE', #24, 0.1092406499999999947 ) ;
#152 = DIRECTION ( 'NONE',  ( -0.0000000000000000000, -0.0000000000000000000, -1.000000000000000000 ) ) ;
#153 = SHAPE_DEFINITION_REPRESENTATION ( #289, #177 ) ;
#154 = CARTESIAN_POINT ( 'NONE',  ( 7.654042494670957853E-17, 0.0000000000000000000, 0.6250000000000000000 ) ) ;
#155 = FILL_AREA_STYLE_COLOUR ( '', #97 ) ;
#156 = EDGE_LOOP ( 'NONE', ( #128, #119, #276, #231 ) ) ;
#157 = CYLINDRICAL_SURFACE ( 'NONE', #237, 0.1250000000000000000 ) ;
#158 = DIRECTION ( 'NONE',  ( 1.000000000000000000, 0.0000000000000000000, 0.0000000000000000000 ) ) ;
#159 = CIRCLE ( 'NONE', #3, 0.1100000000000001948 ) ;
#160 = ORIENTED_EDGE ( 'NONE', *, *, #232, .F. ) ;
#161 = ORIENTED_EDGE ( 'NONE', *, *, #196, .F. ) ;
#162 = ADVANCED_FACE ( 'NONE', ( #272 ), #77, .T. ) ;
#163 = CARTESIAN_POINT ( 'NONE',  ( 8.748579329396911086E-17, 0.0000000000000000000, 0.7143757151439918962 ) ) ;
#164 = CIRCLE ( 'NONE', #59, 0.1250000000000000000 ) ;
#165 = DIRECTION ( 'NONE',  ( 1.000000000000000000, 0.0000000000000000000, -0.0000000000000000000 ) ) ;
#166 = CARTESIAN_POINT ( 'NONE',  ( -0.1092406499999999253, 1.434310311263477304E-17, 0.6250000000000000000 ) ) ;
#167 = EDGE_CURVE ( 'NONE', #37, #43, #213, .T. ) ;
#168 = ORIENTED_EDGE ( 'NONE', *, *, #298, .T. ) ;
#169 = LINE ( 'NONE', #182, #112 ) ;
#170 = DIRECTION ( 'NONE',  ( 1.000000000000000000, 0.0000000000000000000, 0.0000000000000000000 ) ) ;
#171 = DIRECTION ( 'NONE',  ( 1.000000000000000000, 0.0000000000000000000, 0.0000000000000000000 ) ) ;
#172 =( NAMED_UNIT ( * ) PLANE_ANGLE_UNIT ( ) SI_UNIT ( $, .RADIAN. ) );
#173 = ORIENTED_EDGE ( 'NONE', *, *, #15, .F. ) ;
#174 = CIRCLE ( 'NONE', #108, 0.1092406499999999947 ) ;
#175 = CARTESIAN_POINT ( 'NONE',  ( 1.638347335018400726E-33, 0.0000000000000000000, 1.337812123592763100E-17 ) ) ;
#176 = ORIENTED_EDGE ( 'NONE', *, *, #6, .F. ) ;
#177 = ADVANCED_BREP_SHAPE_REPRESENTATION ( 'Micro_EMS-218-3X', ( #207, #193 ), #95 ) ;
#178 = CYLINDRICAL_SURFACE ( 'NONE', #63, 0.1250000000000000000 ) ;
#179 = DIRECTION ( 'NONE',  ( -1.224646799147353207E-16, -0.0000000000000000000, -1.000000000000000000 ) ) ;
#180 = CARTESIAN_POINT ( 'NONE',  ( -0.1092406499999999947, 0.0000000000000000000, 1.337812123592763100E-17 ) ) ;
#181 = CONICAL_SURFACE ( 'NONE', #70, 0.1092406499999999947, 0.1745329251994338360 ) ;
#182 = CARTESIAN_POINT ( 'NONE',  ( -0.1250000000000000000, 0.0000000000000000000, 2.500000000000000000 ) ) ;
#183 = DIRECTION ( 'NONE',  ( -1.224646799147353207E-16, -0.0000000000000000000, -1.000000000000000000 ) ) ;
#184 = ADVANCED_FACE ( 'NONE', ( #34 ), #281, .T. ) ;
#185 = AXIS2_PLACEMENT_3D ( 'NONE', #52, #285, #146 ) ;
#186 = DIRECTION ( 'NONE',  ( 0.7071067811865499042, 8.659560562354961208E-17, -0.7071067811865451302 ) ) ;
#187 = ADVANCED_FACE ( 'NONE', ( #127 ), #157, .T. ) ;
#188 = EDGE_CURVE ( 'NONE', #142, #262, #174, .T. ) ;
#189 = VERTEX_POINT ( 'NONE', #122 ) ;
#190 = DIRECTION ( 'NONE',  ( -1.224646799147353207E-16, -0.0000000000000000000, -1.000000000000000000 ) ) ;
#191 = DIRECTION ( 'NONE',  ( -1.000000000000000000, 0.0000000000000000000, 0.0000000000000000000 ) ) ;
#192 = VECTOR ( 'NONE', #137, 39.37007874015748143 ) ;
#193 = AXIS2_PLACEMENT_3D ( 'NONE', #79, #149, #57 ) ;
#194 = LINE ( 'NONE', #221, #4 ) ;
#195 =( LENGTH_UNIT ( ) NAMED_UNIT ( * ) SI_UNIT ( $, .METRE. ) );
#196 = EDGE_CURVE ( 'NONE', #297, #189, #44, .T. ) ;
#197 = ORIENTED_EDGE ( 'NONE', *, *, #50, .T. ) ;
#198 = DIRECTION ( 'NONE',  ( -0.1736481776669311639, 2.126576849575782392E-17, 0.9848077530122080203 ) ) ;
#199 = DIRECTION ( 'NONE',  ( -1.000000000000000000, 0.0000000000000000000, 0.0000000000000000000 ) ) ;
#200 = CARTESIAN_POINT ( 'NONE',  ( 0.0000000000000000000, 0.0000000000000000000, 0.0000000000000000000 ) ) ;
#201 =( NAMED_UNIT ( * ) SI_UNIT ( $, .STERADIAN. ) SOLID_ANGLE_UNIT ( ) );
#202 = AXIS2_PLACEMENT_3D ( 'NONE', #294, #8, #170 ) ;
#203 = ADVANCED_FACE ( 'NONE', ( #266 ), #129, .T. ) ;
#204 = ORIENTED_EDGE ( 'NONE', *, *, #114, .F. ) ;
#205 = PRODUCT ( 'Micro_EMS-218-3X', 'Micro_EMS-218-3X', '', ( #123 ) ) ;
#206 = ORIENTED_EDGE ( 'NONE', *, *, #212, .F. ) ;
#207 = MANIFOLD_SOLID_BREP ( 'Cut-Revolve1', #16 ) ;
#208 = LINE ( 'NONE', #2, #139 ) ;
#209 = COLOUR_RGB ( '',0.7921568627450980005, 0.8196078431372548767, 0.9333333333333333481 ) ;
#210 = PRODUCT_DEFINITION_FORMATION_WITH_SPECIFIED_SOURCE ( 'ANY', '', #205, .NOT_KNOWN. ) ;
#211 = EDGE_LOOP ( 'NONE', ( #144, #117, #27, #136 ) ) ;
#212 = EDGE_CURVE ( 'NONE', #253, #189, #88, .T. ) ;
#213 = CIRCLE ( 'NONE', #202, 0.1100000000000001948 ) ;
#214 = EDGE_LOOP ( 'NONE', ( #204, #259, #65, #93 ) ) ;
#215 = ORIENTED_EDGE ( 'NONE', *, *, #167, .T. ) ;
#216 = CARTESIAN_POINT ( 'NONE',  ( 0.0000000000000000000, 0.0000000000000000000, 2.500000000000000000 ) ) ;
#217 = APPLICATION_PROTOCOL_DEFINITION ( 'draft international standard', 'automotive_design', 1998, #150 ) ;
#218 = AXIS2_PLACEMENT_3D ( 'NONE', #32, #183, #121 ) ;
#219 = SURFACE_SIDE_STYLE ('',( #126 ) ) ;
#220 = SURFACE_STYLE_FILL_AREA ( #10 ) ;
#221 = CARTESIAN_POINT ( 'NONE',  ( 0.1092406499999999947, 1.337812123592763100E-17, -1.337812123592763100E-17 ) ) ;
#222 = UNCERTAINTY_MEASURE_WITH_UNIT (LENGTH_MEASURE( 1.000000000000000082E-05 ), #295, 'distance_accuracy_value', 'NONE');
#223 = EDGE_LOOP ( 'NONE', ( #206, #86, #21, #234 ) ) ;
#224 = FILL_AREA_STYLE_COLOUR ( '', #209 ) ;
#225 = PRODUCT_DEFINITION ( 'UNKNOWN', '', #210, #135 ) ;
#226 = ORIENTED_EDGE ( 'NONE', *, *, #138, .F. ) ;
#227 =( GEOMETRIC_REPRESENTATION_CONTEXT ( 3 ) GLOBAL_UNCERTAINTY_ASSIGNED_CONTEXT ( ( #113 ) ) GLOBAL_UNIT_ASSIGNED_CONTEXT ( ( #33, #172, #201 ) ) REPRESENTATION_CONTEXT ( 'NONE', 'WORKASPACE' ) );
#228 = AXIS2_PLACEMENT_3D ( 'NONE', #200, #179, #275 ) ;
#229 = DIRECTION ( 'NONE',  ( -1.000000000000000000, 0.0000000000000000000, 0.0000000000000000000 ) ) ;
#230 = CARTESIAN_POINT ( 'NONE',  ( 0.1092406500000000502, 0.0000000000000000000, 0.6250000000000000000 ) ) ;
#231 = ORIENTED_EDGE ( 'NONE', *, *, #268, .F. ) ;
#232 = EDGE_CURVE ( 'NONE', #293, #18, #265, .T. ) ;
#233 = AXIS2_PLACEMENT_3D ( 'NONE', #46, #235, #116 ) ;
#234 = ORIENTED_EDGE ( 'NONE', *, *, #50, .F. ) ;
#235 = DIRECTION ( 'NONE',  ( 0.0000000000000000000, 0.0000000000000000000, -1.000000000000000000 ) ) ;
#236 = ORIENTED_EDGE ( 'NONE', *, *, #45, .T. ) ;
#237 = AXIS2_PLACEMENT_3D ( 'NONE', #9, #14, #191 ) ;
#238 = EDGE_LOOP ( 'NONE', ( #61, #160, #236, #197 ) ) ;
#239 = CYLINDRICAL_SURFACE ( 'NONE', #218, 0.1092406499999999947 ) ;
#240 = APPLICATION_PROTOCOL_DEFINITION ( 'draft international standard', 'automotive_design', 1998, #29 ) ;
#241 = DIRECTION ( 'NONE',  ( 0.0000000000000000000, 0.0000000000000000000, 1.000000000000000000 ) ) ;
#242 = FILL_AREA_STYLE ('',( #224 ) ) ;
#243 = SURFACE_STYLE_USAGE ( .BOTH. , #131 ) ;
#244 = DIRECTION ( 'NONE',  ( 1.224646799147353207E-16, 0.0000000000000000000, 1.000000000000000000 ) ) ;
#245 = LENGTH_MEASURE_WITH_UNIT ( LENGTH_MEASURE( 0.02539999999999999897 ), #17 );
#246 = EDGE_LOOP ( 'NONE', ( #263, #215 ) ) ;
#247 = CARTESIAN_POINT ( 'NONE',  ( 7.654042494670957853E-17, 0.0000000000000000000, 0.6250000000000000000 ) ) ;
#248 = ORIENTED_EDGE ( 'NONE', *, *, #96, .T. ) ;
#249 = DIRECTION ( 'NONE',  ( 1.000000000000000000, 0.0000000000000000000, -0.0000000000000000000 ) ) ;
#250 = MECHANICAL_DESIGN_GEOMETRIC_PRESENTATION_REPRESENTATION (  '', ( #118 ), #227 ) ;
#251 = PRESENTATION_LAYER_ASSIGNMENT (  '', '', ( #283 ) ) ;
#252 = CARTESIAN_POINT ( 'NONE',  ( 0.1092406499999999947, 1.337812123592763100E-17, 0.0000000000000000000 ) ) ;
#253 = VERTEX_POINT ( 'NONE', #19 ) ;
#254 = ORIENTED_EDGE ( 'NONE', *, *, #22, .F. ) ;
#255 = FACE_OUTER_BOUND ( 'NONE', #48, .T. ) ;
#256 = EDGE_CURVE ( 'NONE', #43, #37, #159, .T. ) ;
#257 = AXIS2_PLACEMENT_3D ( 'NONE', #56, #241, #249 ) ;
#258 = FACE_OUTER_BOUND ( 'NONE', #107, .T. ) ;
#259 = ORIENTED_EDGE ( 'NONE', *, *, #232, .T. ) ;
#260 = VECTOR ( 'NONE', #140, 39.37007874015748143 ) ;
#261 = ADVANCED_FACE ( 'NONE', ( #296 ), #134, .T. ) ;
#262 = VERTEX_POINT ( 'NONE', #252 ) ;
#263 = ORIENTED_EDGE ( 'NONE', *, *, #256, .T. ) ;
#264 = DIMENSIONAL_EXPONENTS ( 1.000000000000000000, 0.0000000000000000000, 0.0000000000000000000, 0.0000000000000000000, 0.0000000000000000000, 0.0000000000000000000, 0.0000000000000000000 ) ;
#265 = CIRCLE ( 'NONE', #133, 0.1092406499999999947 ) ;
#266 = FACE_OUTER_BOUND ( 'NONE', #246, .T. ) ;
#267 = DIRECTION ( 'NONE',  ( -1.224646799147353207E-16, -0.0000000000000000000, -1.000000000000000000 ) ) ;
#268 = EDGE_CURVE ( 'NONE', #18, #142, #23, .T. ) ;
#269 = FACE_OUTER_BOUND ( 'NONE', #25, .T. ) ;
#270 = CIRCLE ( 'NONE', #124, 0.1250000000000000000 ) ;
#271 = SURFACE_STYLE_USAGE ( .BOTH. , #219 ) ;
#272 = FACE_OUTER_BOUND ( 'NONE', #211, .T. ) ;
#273 = UNCERTAINTY_MEASURE_WITH_UNIT (LENGTH_MEASURE( 1.000000000000000082E-05 ), #51, 'distance_accuracy_value', 'NONE');
#274 =( NAMED_UNIT ( * ) SI_UNIT ( $, .STERADIAN. ) SOLID_ANGLE_UNIT ( ) );
#275 = DIRECTION ( 'NONE',  ( -1.000000000000000000, 0.0000000000000000000, 1.224646799147353207E-16 ) ) ;
#276 = ORIENTED_EDGE ( 'NONE', *, *, #188, .F. ) ;
#277 = CARTESIAN_POINT ( 'NONE',  ( -0.1249999999999999167, 0.0000000000000000000, 0.7143757151439918962 ) ) ;
#278 = VERTEX_POINT ( 'NONE', #41 ) ;
#279 = DIRECTION ( 'NONE',  ( -0.0000000000000000000, -0.0000000000000000000, -1.000000000000000000 ) ) ;
#280 = CARTESIAN_POINT ( 'NONE',  ( 0.0000000000000000000, 0.0000000000000000000, 0.0000000000000000000 ) ) ;
#281 = CONICAL_SURFACE ( 'NONE', #69, 0.1092406499999999947, 0.1745329251994338360 ) ;
#282 = ORIENTED_EDGE ( 'NONE', *, *, #188, .T. ) ;
#283 = STYLED_ITEM ( 'NONE', ( #13 ), #177 ) ;
#284 = ORIENTED_EDGE ( 'NONE', *, *, #167, .F. ) ;
#285 = DIRECTION ( 'NONE',  ( 0.0000000000000000000, 0.0000000000000000000, -1.000000000000000000 ) ) ;
#286 = DIMENSIONAL_EXPONENTS ( 1.000000000000000000, 0.0000000000000000000, 0.0000000000000000000, 0.0000000000000000000, 0.0000000000000000000, 0.0000000000000000000, 0.0000000000000000000 ) ;
#287 = DIRECTION ( 'NONE',  ( -1.000000000000000000, 0.0000000000000000000, 1.224646799147353207E-16 ) ) ;
#288 = AXIS2_PLACEMENT_3D ( 'NONE', #147, #40, #60 ) ;
#289 = PRODUCT_DEFINITION_SHAPE ( 'NONE', 'NONE',  #225 ) ;
#290 = CARTESIAN_POINT ( 'NONE',  ( 7.654042494670957853E-17, 0.0000000000000000000, 0.6250000000000000000 ) ) ;
#291 = DIRECTION ( 'NONE',  ( 1.224646799147353207E-16, 0.0000000000000000000, 1.000000000000000000 ) ) ;
#292 = CARTESIAN_POINT ( 'NONE',  ( 7.654042494670957853E-17, 0.0000000000000000000, 0.6250000000000000000 ) ) ;
#293 = VERTEX_POINT ( 'NONE', #230 ) ;
#294 = CARTESIAN_POINT ( 'NONE',  ( 0.0000000000000000000, 0.0000000000000000000, 2.500000000000000000 ) ) ;
#295 =( CONVERSION_BASED_UNIT ( 'INCH', #245 ) LENGTH_UNIT ( ) NAMED_UNIT ( #286 ) );
#296 = FACE_OUTER_BOUND ( 'NONE', #156, .T. ) ;
#297 = VERTEX_POINT ( 'NONE', #277 ) ;
#298 = EDGE_CURVE ( 'NONE', #18, #297, #20, .T. ) ;
#299 = ORIENTED_EDGE ( 'NONE', *, *, #196, .T. ) ;
ENDSEC;
END-ISO-10303-21;
