ISO-10303-21;
HEADER;
FILE_DESCRIPTION (( 'STEP AP214' ),
    '1' );
FILE_NAME ('Micro_AMRM-012-2X.STEP',
    '2021-09-01T17:13:10',
    ( '' ),
    ( '' ),
    'SwSTEP 2.0',
    'SolidWorks 2020',
    '' );
FILE_SCHEMA (( 'AUTOMOTIVE_DESIGN' ));
ENDSEC;

DATA;
#1 = EDGE_CURVE ( 'NONE', #91, #40, #132, .T. ) ;
#2 = PRESENTATION_LAYER_ASSIGNMENT (  '', '', ( #291 ) ) ;
#3 = DIRECTION ( 'NONE',  ( -1.224646799147353207E-16, -0.0000000000000000000, -1.000000000000000000 ) ) ;
#4 = FACE_OUTER_BOUND ( 'NONE', #93, .T. ) ;
#5 = SURFACE_STYLE_FILL_AREA ( #32 ) ;
#6 = ADVANCED_FACE ( 'NONE', ( #100 ), #127, .T. ) ;
#7 = CARTESIAN_POINT ( 'NONE',  ( -0.06374000000000018540, 0.0000000000000000000, 1.968503999999999809 ) ) ;
#8 = DIRECTION ( 'NONE',  ( -1.000000000000000000, 0.0000000000000000000, 0.0000000000000000000 ) ) ;
#9 = DIRECTION ( 'NONE',  ( 0.7071067811865507924, 8.659560562354973534E-17, -0.7071067811865443531 ) ) ;
#10 = PRODUCT_DEFINITION_CONTEXT ( 'detailed design', #226, 'design' ) ;
#11 = DIRECTION ( 'NONE',  ( -1.000000000000000000, 0.0000000000000000000, 1.224646799147353207E-16 ) ) ;
#12 = PRODUCT_DEFINITION_SHAPE ( 'NONE', 'NONE',  #247 ) ;
#13 = AXIS2_PLACEMENT_3D ( 'NONE', #153, #288, #175 ) ;
#14 = CARTESIAN_POINT ( 'NONE',  ( 0.07874000000000001831, 9.642868896486260050E-18, 1.953504000000000129 ) ) ;
#15 = UNCERTAINTY_MEASURE_WITH_UNIT (LENGTH_MEASURE( 1.000000000000000082E-05 ), #74, 'distance_accuracy_value', 'NONE');
#16 = DIRECTION ( 'NONE',  ( -1.224646799147353207E-16, -0.0000000000000000000, -1.000000000000000000 ) ) ;
#17 = ADVANCED_BREP_SHAPE_REPRESENTATION ( 'Micro_AMRM-012-2X', ( #89, #19 ), #202 ) ;
#18 = ORIENTED_EDGE ( 'NONE', *, *, #78, .T. ) ;
#19 = AXIS2_PLACEMENT_3D ( 'NONE', #126, #284, #172 ) ;
#20 = ORIENTED_EDGE ( 'NONE', *, *, #26, .F. ) ;
#21 = ORIENTED_EDGE ( 'NONE', *, *, #106, .T. ) ;
#22 = ADVANCED_FACE ( 'NONE', ( #216 ), #48, .F. ) ;
#23 = ORIENTED_EDGE ( 'NONE', *, *, #159, .T. ) ;
#24 = AXIS2_PLACEMENT_3D ( 'NONE', #250, #16, #60 ) ;
#25 = CARTESIAN_POINT ( 'NONE',  ( -0.02359837800000000665, 0.0000000000000000000, 2.889967808276932569E-18 ) ) ;
#26 = EDGE_CURVE ( 'NONE', #86, #63, #140, .T. ) ;
#27 =( LENGTH_UNIT ( ) NAMED_UNIT ( * ) SI_UNIT ( $, .METRE. ) );
#28 = CARTESIAN_POINT ( 'NONE',  ( -0.02359837800000000665, 0.0000000000000000000, 5.779935616553865137E-18 ) ) ;
#29 = AXIS2_PLACEMENT_3D ( 'NONE', #283, #56, #8 ) ;
#30 = DIRECTION ( 'NONE',  ( 0.0000000000000000000, 0.0000000000000000000, 1.000000000000000000 ) ) ;
#31 = FILL_AREA_STYLE ('',( #277 ) ) ;
#32 = FILL_AREA_STYLE ('',( #117 ) ) ;
#33 = FACE_OUTER_BOUND ( 'NONE', #135, .T. ) ;
#34 = DIRECTION ( 'NONE',  ( -1.224646799147353207E-16, -0.0000000000000000000, -1.000000000000000000 ) ) ;
#35 = DIRECTION ( 'NONE',  ( -0.0000000000000000000, -0.0000000000000000000, -1.000000000000000000 ) ) ;
#36 = CARTESIAN_POINT ( 'NONE',  ( 0.02359837800000002400, 0.0000000000000000000, 0.1496059999999999890 ) ) ;
#37 = CIRCLE ( 'NONE', #198, 0.02359837800000000665 ) ;
#38 = CYLINDRICAL_SURFACE ( 'NONE', #225, 0.02359837800000000665 ) ;
#39 = ORIENTED_EDGE ( 'NONE', *, *, #218, .F. ) ;
#40 = VERTEX_POINT ( 'NONE', #164 ) ;
#41 = ORIENTED_EDGE ( 'NONE', *, *, #268, .T. ) ;
#42 = VECTOR ( 'NONE', #141, 39.37007874015748143 ) ;
#43 = EDGE_LOOP ( 'NONE', ( #290, #269 ) ) ;
#44 = ORIENTED_EDGE ( 'NONE', *, *, #50, .F. ) ;
#45 = LENGTH_MEASURE_WITH_UNIT ( LENGTH_MEASURE( 0.02539999999999999897 ), #210 );
#46 = AXIS2_PLACEMENT_3D ( 'NONE', #162, #274, #142 ) ;
#47 = DIRECTION ( 'NONE',  ( 1.000000000000000000, 0.0000000000000000000, -0.0000000000000000000 ) ) ;
#48 = PLANE ( 'NONE',  #64 ) ;
#49 =( CONVERSION_BASED_UNIT ( 'INCH', #45 ) LENGTH_UNIT ( ) NAMED_UNIT ( #58 ) );
#50 = EDGE_CURVE ( 'NONE', #91, #253, #238, .T. ) ;
#51 = CIRCLE ( 'NONE', #105, 0.02359837800000000665 ) ;
#52 = PRESENTATION_STYLE_ASSIGNMENT (( #166 ) ) ;
#53 =( NAMED_UNIT ( * ) PLANE_ANGLE_UNIT ( ) SI_UNIT ( $, .RADIAN. ) );
#54 = DIRECTION ( 'NONE',  ( -1.224646799147353207E-16, -0.0000000000000000000, -1.000000000000000000 ) ) ;
#55 = DIRECTION ( 'NONE',  ( 0.0000000000000000000, 0.0000000000000000000, 1.000000000000000000 ) ) ;
#56 = DIRECTION ( 'NONE',  ( 0.0000000000000000000, 0.0000000000000000000, -1.000000000000000000 ) ) ;
#57 = CARTESIAN_POINT ( 'NONE',  ( 0.06374000000000018540, 7.805898697765251255E-18, 1.968503999999999809 ) ) ;
#58 = DIMENSIONAL_EXPONENTS ( 1.000000000000000000, 0.0000000000000000000, 0.0000000000000000000, 0.0000000000000000000, 0.0000000000000000000, 0.0000000000000000000, 0.0000000000000000000 ) ;
#59 = CARTESIAN_POINT ( 'NONE',  ( 0.0000000000000000000, 0.0000000000000000000, 1.968503999999999809 ) ) ;
#60 = DIRECTION ( 'NONE',  ( -1.000000000000000000, 0.0000000000000000000, 1.224646799147353207E-16 ) ) ;
#61 = CIRCLE ( 'NONE', #249, 0.06374000000000018540 ) ;
#62 = EDGE_LOOP ( 'NONE', ( #111, #18, #267, #203 ) ) ;
#63 = VERTEX_POINT ( 'NONE', #28 ) ;
#64 = AXIS2_PLACEMENT_3D ( 'NONE', #138, #275, #47 ) ;
#65 = VECTOR ( 'NONE', #103, 39.37007874015748143 ) ;
#66 = ORIENTED_EDGE ( 'NONE', *, *, #83, .F. ) ;
#67 = UNCERTAINTY_MEASURE_WITH_UNIT (LENGTH_MEASURE( 1.000000000000000082E-05 ), #146, 'distance_accuracy_value', 'NONE');
#68 = DIRECTION ( 'NONE',  ( 1.224646799147353207E-16, 0.0000000000000000000, 1.000000000000000000 ) ) ;
#69 = DIRECTION ( 'NONE',  ( 1.224646799147353207E-16, 0.0000000000000000000, 1.000000000000000000 ) ) ;
#70 = MECHANICAL_DESIGN_GEOMETRIC_PRESENTATION_REPRESENTATION (  '', ( #291 ), #149 ) ;
#71 = CARTESIAN_POINT ( 'NONE',  ( 1.832145090332389117E-17, 0.0000000000000000000, 0.1496059999999999890 ) ) ;
#72 = APPLICATION_PROTOCOL_DEFINITION ( 'draft international standard', 'automotive_design', 1998, #98 ) ;
#73 = SURFACE_SIDE_STYLE ('',( #113 ) ) ;
#74 =( CONVERSION_BASED_UNIT ( 'INCH', #215 ) LENGTH_UNIT ( ) NAMED_UNIT ( #124 ) );
#75 = AXIS2_PLACEMENT_3D ( 'NONE', #286, #220, #223 ) ;
#76 = LINE ( 'NONE', #77, #65 ) ;
#77 = CARTESIAN_POINT ( 'NONE',  ( 0.02359837800000000665, 2.889967808276932569E-18, -2.889967808276932569E-18 ) ) ;
#78 = EDGE_CURVE ( 'NONE', #231, #86, #37, .T. ) ;
#79 = LINE ( 'NONE', #36, #167 ) ;
#80 = MECHANICAL_DESIGN_GEOMETRIC_PRESENTATION_REPRESENTATION (  '', ( #280 ), #193 ) ;
#81 = AXIS2_PLACEMENT_3D ( 'NONE', #148, #279, #173 ) ;
#82 = LINE ( 'NONE', #243, #266 ) ;
#83 = EDGE_CURVE ( 'NONE', #178, #185, #214, .T. ) ;
#84 = PRODUCT ( 'Micro_AMRM-012-2X', 'Micro_AMRM-012-2X', '', ( #120 ) ) ;
#85 = CYLINDRICAL_SURFACE ( 'NONE', #24, 0.02359837800000000665 ) ;
#86 = VERTEX_POINT ( 'NONE', #188 ) ;
#87 = COLOUR_RGB ( '',0.7921568627450980005, 0.8196078431372548767, 0.9333333333333333481 ) ;
#88 = ORIENTED_EDGE ( 'NONE', *, *, #50, .T. ) ;
#89 = MANIFOLD_SOLID_BREP ( 'Cut-Revolve1', #261 ) ;
#90 = VERTEX_POINT ( 'NONE', #14 ) ;
#91 = VERTEX_POINT ( 'NONE', #7 ) ;
#92 = VECTOR ( 'NONE', #9, 39.37007874015748143 ) ;
#93 = EDGE_LOOP ( 'NONE', ( #252, #254 ) ) ;
#94 = CARTESIAN_POINT ( 'NONE',  ( 3.539189826045237101E-34, 0.0000000000000000000, 2.889967808276932569E-18 ) ) ;
#95 = FACE_OUTER_BOUND ( 'NONE', #157, .T. ) ;
#96 = CARTESIAN_POINT ( 'NONE',  ( 0.0000000000000000000, 0.0000000000000000000, 1.968503999999999809 ) ) ;
#97 = EDGE_CURVE ( 'NONE', #230, #63, #51, .T. ) ;
#98 = APPLICATION_CONTEXT ( 'automotive_design' ) ;
#99 =( NAMED_UNIT ( * ) PLANE_ANGLE_UNIT ( ) SI_UNIT ( $, .RADIAN. ) );
#100 = FACE_OUTER_BOUND ( 'NONE', #251, .T. ) ;
#101 = AXIS2_PLACEMENT_3D ( 'NONE', #222, #264, #246 ) ;
#102 = DIRECTION ( 'NONE',  ( -1.000000000000000000, 0.0000000000000000000, 0.0000000000000000000 ) ) ;
#103 = DIRECTION ( 'NONE',  ( -1.224646799147353207E-16, -0.0000000000000000000, -1.000000000000000000 ) ) ;
#104 = CARTESIAN_POINT ( 'NONE',  ( 0.02359837800000000665, 2.889967808276932569E-18, 0.0000000000000000000 ) ) ;
#105 = AXIS2_PLACEMENT_3D ( 'NONE', #94, #107, #11 ) ;
#106 = EDGE_CURVE ( 'NONE', #185, #178, #257, .T. ) ;
#107 = DIRECTION ( 'NONE',  ( -1.224646799147353207E-16, -0.0000000000000000000, -1.000000000000000000 ) ) ;
#108 = ORIENTED_EDGE ( 'NONE', *, *, #209, .T. ) ;
#109 = ORIENTED_EDGE ( 'NONE', *, *, #256, .F. ) ;
#110 = ORIENTED_EDGE ( 'NONE', *, *, #137, .T. ) ;
#111 = ORIENTED_EDGE ( 'NONE', *, *, #168, .F. ) ;
#112 = CIRCLE ( 'NONE', #101, 0.07874000000000001831 ) ;
#113 = SURFACE_STYLE_FILL_AREA ( #31 ) ;
#114 =( LENGTH_UNIT ( ) NAMED_UNIT ( * ) SI_UNIT ( $, .METRE. ) );
#115 =( NAMED_UNIT ( * ) SI_UNIT ( $, .STERADIAN. ) SOLID_ANGLE_UNIT ( ) );
#116 = DIRECTION ( 'NONE',  ( -1.224646799147353207E-16, -0.0000000000000000000, -1.000000000000000000 ) ) ;
#117 = FILL_AREA_STYLE_COLOUR ( '', #87 ) ;
#118 = DIRECTION ( 'NONE',  ( -1.000000000000000000, 0.0000000000000000000, 0.0000000000000000000 ) ) ;
#119 = PRODUCT_RELATED_PRODUCT_CATEGORY ( 'part', '', ( #84 ) ) ;
#120 = PRODUCT_CONTEXT ( 'NONE', #98, 'mechanical' ) ;
#121 = CIRCLE ( 'NONE', #13, 0.07874000000000001831 ) ;
#122 = DIRECTION ( 'NONE',  ( -1.000000000000000000, 0.0000000000000000000, 1.224646799147353207E-16 ) ) ;
#123 = FACE_OUTER_BOUND ( 'NONE', #236, .T. ) ;
#124 = DIMENSIONAL_EXPONENTS ( 1.000000000000000000, 0.0000000000000000000, 0.0000000000000000000, 0.0000000000000000000, 0.0000000000000000000, 0.0000000000000000000, 0.0000000000000000000 ) ;
#125 = DIRECTION ( 'NONE',  ( -1.000000000000000000, 0.0000000000000000000, 0.0000000000000000000 ) ) ;
#126 = CARTESIAN_POINT ( 'NONE',  ( 0.0000000000000000000, 0.0000000000000000000, 0.0000000000000000000 ) ) ;
#127 = CONICAL_SURFACE ( 'NONE', #295, 0.02359837800000000665, 0.1745329251994338915 ) ;
#128 = DIRECTION ( 'NONE',  ( 1.000000000000000000, 0.0000000000000000000, 0.0000000000000000000 ) ) ;
#129 = AXIS2_PLACEMENT_3D ( 'NONE', #151, #54, #122 ) ;
#130 = CARTESIAN_POINT ( 'NONE',  ( 0.0000000000000000000, 0.0000000000000000000, 0.0000000000000000000 ) ) ;
#131 = ORIENTED_EDGE ( 'NONE', *, *, #78, .F. ) ;
#132 = CIRCLE ( 'NONE', #248, 0.06374000000000018540 ) ;
#133 = VECTOR ( 'NONE', #3, 39.37007874015748143 ) ;
#134 = EDGE_LOOP ( 'NONE', ( #155, #273, #297, #20 ) ) ;
#135 = EDGE_LOOP ( 'NONE', ( #110, #136, #235, #181 ) ) ;
#136 = ORIENTED_EDGE ( 'NONE', *, *, #205, .T. ) ;
#137 = EDGE_CURVE ( 'NONE', #253, #90, #112, .T. ) ;
#138 = CARTESIAN_POINT ( 'NONE',  ( 0.0000000000000000000, 0.0000000000000000000, 0.0000000000000000000 ) ) ;
#139 = AXIS2_PLACEMENT_3D ( 'NONE', #217, #69, #237 ) ;
#140 = LINE ( 'NONE', #25, #133 ) ;
#141 = DIRECTION ( 'NONE',  ( -0.7071067811865507924, 0.0000000000000000000, -0.7071067811865443531 ) ) ;
#142 = DIRECTION ( 'NONE',  ( 1.000000000000000000, 0.0000000000000000000, -0.0000000000000000000 ) ) ;
#143 = DIRECTION ( 'NONE',  ( -1.224646799147353207E-16, -0.0000000000000000000, -1.000000000000000000 ) ) ;
#144 = CIRCLE ( 'NONE', #129, 0.02359837800000000665 ) ;
#145 =( NAMED_UNIT ( * ) PLANE_ANGLE_UNIT ( ) SI_UNIT ( $, .RADIAN. ) );
#146 =( CONVERSION_BASED_UNIT ( 'INCH', #186 ) LENGTH_UNIT ( ) NAMED_UNIT ( #228 ) );
#147 = CYLINDRICAL_SURFACE ( 'NONE', #239, 0.07874000000000001831 ) ;
#148 = CARTESIAN_POINT ( 'NONE',  ( 0.0000000000000000000, 0.0000000000000000000, 1.968503999999999809 ) ) ;
#149 =( GEOMETRIC_REPRESENTATION_CONTEXT ( 3 ) GLOBAL_UNCERTAINTY_ASSIGNED_CONTEXT ( ( #15 ) ) GLOBAL_UNIT_ASSIGNED_CONTEXT ( ( #74, #53, #299 ) ) REPRESENTATION_CONTEXT ( 'NONE', 'WORKASPACE' ) );
#150 = ADVANCED_FACE ( 'NONE', ( #33 ), #195, .T. ) ;
#151 = CARTESIAN_POINT ( 'NONE',  ( 3.539189826045237101E-34, 0.0000000000000000000, 2.889967808276932569E-18 ) ) ;
#152 = PRESENTATION_LAYER_ASSIGNMENT (  '', '', ( #280 ) ) ;
#153 = CARTESIAN_POINT ( 'NONE',  ( 0.0000000000000000000, 0.0000000000000000000, 1.953504000000000129 ) ) ;
#154 = CIRCLE ( 'NONE', #271, 0.02359837800000000665 ) ;
#155 = ORIENTED_EDGE ( 'NONE', *, *, #218, .T. ) ;
#156 = ADVANCED_FACE ( 'NONE', ( #245 ), #281, .T. ) ;
#157 = EDGE_LOOP ( 'NONE', ( #177, #131, #108, #179 ) ) ;
#158 = COLOUR_RGB ( '',0.7921568627450980005, 0.8196078431372548767, 0.9333333333333333481 ) ;
#159 = EDGE_CURVE ( 'NONE', #86, #185, #241, .T. ) ;
#160 = ORIENTED_EDGE ( 'NONE', *, *, #137, .F. ) ;
#161 = DIRECTION ( 'NONE',  ( -1.224646799147353207E-16, -0.0000000000000000000, -1.000000000000000000 ) ) ;
#162 = CARTESIAN_POINT ( 'NONE',  ( 0.0000000000000000000, 0.0000000000000000000, 1.968503999999999809 ) ) ;
#163 = DIRECTION ( 'NONE',  ( 1.000000000000000000, 0.0000000000000000000, 0.0000000000000000000 ) ) ;
#164 = CARTESIAN_POINT ( 'NONE',  ( 0.06374000000000018540, 8.724383797125754882E-18, 1.968503999999999809 ) ) ;
#165 = DIRECTION ( 'NONE',  ( -0.0000000000000000000, -0.0000000000000000000, -1.000000000000000000 ) ) ;
#166 = SURFACE_STYLE_USAGE ( .BOTH. , #73 ) ;
#167 = VECTOR ( 'NONE', #262, 39.37007874015748143 ) ;
#168 = EDGE_CURVE ( 'NONE', #231, #230, #76, .T. ) ;
#169 = DIRECTION ( 'NONE',  ( -0.0000000000000000000, -0.0000000000000000000, -1.000000000000000000 ) ) ;
#170 = DIRECTION ( 'NONE',  ( -0.1736481776669311916, 2.126576849575783316E-17, 0.9848077530122080203 ) ) ;
#171 = FACE_OUTER_BOUND ( 'NONE', #180, .T. ) ;
#172 = DIRECTION ( 'NONE',  ( 1.000000000000000000, 0.0000000000000000000, 0.0000000000000000000 ) ) ;
#173 = DIRECTION ( 'NONE',  ( -1.000000000000000000, 0.0000000000000000000, 0.0000000000000000000 ) ) ;
#174 = CARTESIAN_POINT ( 'NONE',  ( 0.02359837800000002400, 0.0000000000000000000, 0.1496059999999999890 ) ) ;
#175 = DIRECTION ( 'NONE',  ( 1.000000000000000000, 0.0000000000000000000, 0.0000000000000000000 ) ) ;
#176 = ADVANCED_FACE ( 'NONE', ( #171 ), #147, .T. ) ;
#177 = ORIENTED_EDGE ( 'NONE', *, *, #159, .F. ) ;
#178 = VERTEX_POINT ( 'NONE', #260 ) ;
#179 = ORIENTED_EDGE ( 'NONE', *, *, #83, .T. ) ;
#180 = EDGE_LOOP ( 'NONE', ( #234, #270, #41, #66 ) ) ;
#181 = ORIENTED_EDGE ( 'NONE', *, *, #268, .F. ) ;
#182 = EDGE_CURVE ( 'NONE', #40, #91, #61, .T. ) ;
#183 = CARTESIAN_POINT ( 'NONE',  ( 5.661905607456188872E-17, 0.0000000000000000000, 0.4623296783528303422 ) ) ;
#184 = PLANE ( 'NONE',  #46 ) ;
#185 = VERTEX_POINT ( 'NONE', #197 ) ;
#186 = LENGTH_MEASURE_WITH_UNIT ( LENGTH_MEASURE( 0.02539999999999999897 ), #27 );
#187 = PRODUCT_DEFINITION_FORMATION_WITH_SPECIFIED_SOURCE ( 'ANY', '', #84, .NOT_KNOWN. ) ;
#188 = CARTESIAN_POINT ( 'NONE',  ( -0.02359837799999998931, 6.266418352381596887E-18, 0.1496059999999999890 ) ) ;
#189 = SURFACE_STYLE_USAGE ( .BOTH. , #219 ) ;
#190 = ADVANCED_FACE ( 'NONE', ( #123 ), #255, .T. ) ;
#191 = CARTESIAN_POINT ( 'NONE',  ( 1.832145090332389117E-17, 0.0000000000000000000, 0.1496059999999999890 ) ) ;
#192 = AXIS2_PLACEMENT_3D ( 'NONE', #183, #161, #213 ) ;
#193 =( GEOMETRIC_REPRESENTATION_CONTEXT ( 3 ) GLOBAL_UNCERTAINTY_ASSIGNED_CONTEXT ( ( #204 ) ) GLOBAL_UNIT_ASSIGNED_CONTEXT ( ( #49, #145, #200 ) ) REPRESENTATION_CONTEXT ( 'NONE', 'WORKASPACE' ) );
#194 = CARTESIAN_POINT ( 'NONE',  ( -0.02359837799999998931, 2.889967808276932569E-18, 0.1496059999999999890 ) ) ;
#195 = CYLINDRICAL_SURFACE ( 'NONE', #233, 0.07874000000000001831 ) ;
#196 = EDGE_CURVE ( 'NONE', #40, #90, #287, .T. ) ;
#197 = CARTESIAN_POINT ( 'NONE',  ( -0.07873999999999996280, 0.0000000000000000000, 0.4623296783528303422 ) ) ;
#198 = AXIS2_PLACEMENT_3D ( 'NONE', #191, #116, #118 ) ;
#199 = VECTOR ( 'NONE', #170, 39.37007874015747433 ) ;
#200 =( NAMED_UNIT ( * ) SI_UNIT ( $, .STERADIAN. ) SOLID_ANGLE_UNIT ( ) );
#201 = CARTESIAN_POINT ( 'NONE',  ( -0.07874000000000001831, 0.0000000000000000000, 1.953504000000000129 ) ) ;
#202 =( GEOMETRIC_REPRESENTATION_CONTEXT ( 3 ) GLOBAL_UNCERTAINTY_ASSIGNED_CONTEXT ( ( #67 ) ) GLOBAL_UNIT_ASSIGNED_CONTEXT ( ( #146, #99, #115 ) ) REPRESENTATION_CONTEXT ( 'NONE', 'WORKASPACE' ) );
#203 = ORIENTED_EDGE ( 'NONE', *, *, #97, .F. ) ;
#204 = UNCERTAINTY_MEASURE_WITH_UNIT (LENGTH_MEASURE( 1.000000000000000082E-05 ), #49, 'distance_accuracy_value', 'NONE');
#205 = EDGE_CURVE ( 'NONE', #90, #178, #82, .T. ) ;
#206 = ORIENTED_EDGE ( 'NONE', *, *, #196, .T. ) ;
#207 = VECTOR ( 'NONE', #165, 39.37007874015748143 ) ;
#208 = ORIENTED_EDGE ( 'NONE', *, *, #209, .F. ) ;
#209 = EDGE_CURVE ( 'NONE', #231, #178, #79, .T. ) ;
#210 =( LENGTH_UNIT ( ) NAMED_UNIT ( * ) SI_UNIT ( $, .METRE. ) );
#211 = DIRECTION ( 'NONE',  ( 1.000000000000000000, 0.0000000000000000000, 0.0000000000000000000 ) ) ;
#212 = LINE ( 'NONE', #240, #207 ) ;
#213 = DIRECTION ( 'NONE',  ( 1.000000000000000000, 0.0000000000000000000, 0.0000000000000000000 ) ) ;
#214 = CIRCLE ( 'NONE', #192, 0.07874000000000001831 ) ;
#215 = LENGTH_MEASURE_WITH_UNIT ( LENGTH_MEASURE( 0.02539999999999999897 ), #114 );
#216 = FACE_OUTER_BOUND ( 'NONE', #43, .T. ) ;
#217 = CARTESIAN_POINT ( 'NONE',  ( 1.832145090332389117E-17, 0.0000000000000000000, 0.1496059999999999890 ) ) ;
#218 = EDGE_CURVE ( 'NONE', #86, #231, #154, .T. ) ;
#219 = SURFACE_SIDE_STYLE ('',( #5 ) ) ;
#220 = DIRECTION ( 'NONE',  ( -1.224646799147353207E-16, -0.0000000000000000000, -1.000000000000000000 ) ) ;
#221 = EDGE_CURVE ( 'NONE', #63, #230, #144, .T. ) ;
#222 = CARTESIAN_POINT ( 'NONE',  ( 0.0000000000000000000, 0.0000000000000000000, 1.953504000000000129 ) ) ;
#223 = DIRECTION ( 'NONE',  ( 1.000000000000000000, 0.0000000000000000000, 0.0000000000000000000 ) ) ;
#224 = DIRECTION ( 'NONE',  ( -1.000000000000000000, 0.0000000000000000000, 0.0000000000000000000 ) ) ;
#225 = AXIS2_PLACEMENT_3D ( 'NONE', #130, #143, #258 ) ;
#226 = APPLICATION_CONTEXT ( 'automotive_design' ) ;
#227 = CARTESIAN_POINT ( 'NONE',  ( 0.0000000000000000000, 0.0000000000000000000, 1.968503999999999809 ) ) ;
#228 = DIMENSIONAL_EXPONENTS ( 1.000000000000000000, 0.0000000000000000000, 0.0000000000000000000, 0.0000000000000000000, 0.0000000000000000000, 0.0000000000000000000, 0.0000000000000000000 ) ;
#229 = FACE_OUTER_BOUND ( 'NONE', #62, .T. ) ;
#230 = VERTEX_POINT ( 'NONE', #104 ) ;
#231 = VERTEX_POINT ( 'NONE', #174 ) ;
#232 = ADVANCED_FACE ( 'NONE', ( #265 ), #85, .T. ) ;
#233 = AXIS2_PLACEMENT_3D ( 'NONE', #244, #35, #102 ) ;
#234 = ORIENTED_EDGE ( 'NONE', *, *, #205, .F. ) ;
#235 = ORIENTED_EDGE ( 'NONE', *, *, #106, .F. ) ;
#236 = EDGE_LOOP ( 'NONE', ( #272, #206, #160, #44 ) ) ;
#237 = DIRECTION ( 'NONE',  ( 1.000000000000000000, 0.0000000000000000000, 0.0000000000000000000 ) ) ;
#238 = LINE ( 'NONE', #298, #42 ) ;
#239 = AXIS2_PLACEMENT_3D ( 'NONE', #227, #285, #125 ) ;
#240 = CARTESIAN_POINT ( 'NONE',  ( -0.07874000000000001831, 0.0000000000000000000, 1.968503999999999809 ) ) ;
#241 = LINE ( 'NONE', #194, #199 ) ;
#242 = SHAPE_DEFINITION_REPRESENTATION ( #12, #17 ) ;
#243 = CARTESIAN_POINT ( 'NONE',  ( 0.07874000000000001831, 9.642868896486260050E-18, 1.968503999999999809 ) ) ;
#244 = CARTESIAN_POINT ( 'NONE',  ( 0.0000000000000000000, 0.0000000000000000000, 1.968503999999999809 ) ) ;
#245 = FACE_OUTER_BOUND ( 'NONE', #293, .T. ) ;
#246 = DIRECTION ( 'NONE',  ( 1.000000000000000000, 0.0000000000000000000, 0.0000000000000000000 ) ) ;
#247 = PRODUCT_DEFINITION ( 'UNKNOWN', '', #187, #10 ) ;
#248 = AXIS2_PLACEMENT_3D ( 'NONE', #96, #30, #211 ) ;
#249 = AXIS2_PLACEMENT_3D ( 'NONE', #59, #55, #128 ) ;
#250 = CARTESIAN_POINT ( 'NONE',  ( 0.0000000000000000000, 0.0000000000000000000, 0.0000000000000000000 ) ) ;
#251 = EDGE_LOOP ( 'NONE', ( #39, #23, #21, #208 ) ) ;
#252 = ORIENTED_EDGE ( 'NONE', *, *, #1, .T. ) ;
#253 = VERTEX_POINT ( 'NONE', #201 ) ;
#254 = ORIENTED_EDGE ( 'NONE', *, *, #182, .T. ) ;
#255 = CONICAL_SURFACE ( 'NONE', #81, 0.06374000000000018540, 0.7853981633974528309 ) ;
#256 = EDGE_CURVE ( 'NONE', #90, #253, #121, .T. ) ;
#257 = CIRCLE ( 'NONE', #75, 0.07874000000000001831 ) ;
#258 = DIRECTION ( 'NONE',  ( -1.000000000000000000, 0.0000000000000000000, 1.224646799147353207E-16 ) ) ;
#259 = CARTESIAN_POINT ( 'NONE',  ( 1.832145090332389117E-17, 0.0000000000000000000, 0.1496059999999999890 ) ) ;
#260 = CARTESIAN_POINT ( 'NONE',  ( 0.07874000000000007382, 9.642868896486266213E-18, 0.4623296783528303422 ) ) ;
#261 = CLOSED_SHELL ( 'NONE', ( #232, #6, #190, #150, #176, #276, #156, #289, #263, #22 ) ) ;
#262 = DIRECTION ( 'NONE',  ( 0.1736481776669313859, 0.0000000000000000000, 0.9848077530122077983 ) ) ;
#263 = ADVANCED_FACE ( 'NONE', ( #229 ), #38, .T. ) ;
#264 = DIRECTION ( 'NONE',  ( 0.0000000000000000000, 0.0000000000000000000, -1.000000000000000000 ) ) ;
#265 = FACE_OUTER_BOUND ( 'NONE', #134, .T. ) ;
#266 = VECTOR ( 'NONE', #169, 39.37007874015748143 ) ;
#267 = ORIENTED_EDGE ( 'NONE', *, *, #26, .T. ) ;
#268 = EDGE_CURVE ( 'NONE', #253, #185, #212, .T. ) ;
#269 = ORIENTED_EDGE ( 'NONE', *, *, #97, .T. ) ;
#270 = ORIENTED_EDGE ( 'NONE', *, *, #256, .T. ) ;
#271 = AXIS2_PLACEMENT_3D ( 'NONE', #259, #34, #224 ) ;
#272 = ORIENTED_EDGE ( 'NONE', *, *, #182, .F. ) ;
#273 = ORIENTED_EDGE ( 'NONE', *, *, #168, .T. ) ;
#274 = DIRECTION ( 'NONE',  ( 0.0000000000000000000, 0.0000000000000000000, 1.000000000000000000 ) ) ;
#275 = DIRECTION ( 'NONE',  ( 0.0000000000000000000, 0.0000000000000000000, 1.000000000000000000 ) ) ;
#276 = ADVANCED_FACE ( 'NONE', ( #4 ), #184, .T. ) ;
#277 = FILL_AREA_STYLE_COLOUR ( '', #158 ) ;
#278 = PRESENTATION_STYLE_ASSIGNMENT (( #189 ) ) ;
#279 = DIRECTION ( 'NONE',  ( 0.0000000000000000000, 0.0000000000000000000, -1.000000000000000000 ) ) ;
#280 = STYLED_ITEM ( 'NONE', ( #52 ), #89 ) ;
#281 = CONICAL_SURFACE ( 'NONE', #29, 0.06374000000000018540, 0.7853981633974528309 ) ;
#282 = APPLICATION_PROTOCOL_DEFINITION ( 'draft international standard', 'automotive_design', 1998, #226 ) ;
#283 = CARTESIAN_POINT ( 'NONE',  ( 0.0000000000000000000, 0.0000000000000000000, 1.968503999999999809 ) ) ;
#284 = DIRECTION ( 'NONE',  ( 0.0000000000000000000, 0.0000000000000000000, 1.000000000000000000 ) ) ;
#285 = DIRECTION ( 'NONE',  ( -0.0000000000000000000, -0.0000000000000000000, -1.000000000000000000 ) ) ;
#286 = CARTESIAN_POINT ( 'NONE',  ( 5.661905607456188872E-17, 0.0000000000000000000, 0.4623296783528303422 ) ) ;
#287 = LINE ( 'NONE', #57, #92 ) ;
#288 = DIRECTION ( 'NONE',  ( 0.0000000000000000000, 0.0000000000000000000, -1.000000000000000000 ) ) ;
#289 = ADVANCED_FACE ( 'NONE', ( #95 ), #296, .T. ) ;
#290 = ORIENTED_EDGE ( 'NONE', *, *, #221, .T. ) ;
#291 = STYLED_ITEM ( 'NONE', ( #278 ), #17 ) ;
#292 = ORIENTED_EDGE ( 'NONE', *, *, #1, .F. ) ;
#293 = EDGE_LOOP ( 'NONE', ( #294, #292, #88, #109 ) ) ;
#294 = ORIENTED_EDGE ( 'NONE', *, *, #196, .F. ) ;
#295 = AXIS2_PLACEMENT_3D ( 'NONE', #71, #68, #163 ) ;
#296 = CONICAL_SURFACE ( 'NONE', #139, 0.02359837800000000665, 0.1745329251994338915 ) ;
#297 = ORIENTED_EDGE ( 'NONE', *, *, #221, .F. ) ;
#298 = CARTESIAN_POINT ( 'NONE',  ( -0.06374000000000018540, 0.0000000000000000000, 1.968503999999999809 ) ) ;
#299 =( NAMED_UNIT ( * ) SI_UNIT ( $, .STERADIAN. ) SOLID_ANGLE_UNIT ( ) );
ENDSEC;
END-ISO-10303-21;
