ISO-10303-21;
HEADER;
FILE_DESCRIPTION (( 'STEP AP214' ),
    '1' );
FILE_NAME ('Micro_RMEM-010-2X.STEP',
    '2021-09-01T23:52:35',
    ( '' ),
    ( '' ),
    'SwSTEP 2.0',
    'SolidWorks 2020',
    '' );
FILE_SCHEMA (( 'AUTOMOTIVE_DESIGN' ));
ENDSEC;

DATA;
#1 = CARTESIAN_POINT ( 'NONE',  ( -0.01966531499999998531, 4.820229089631068299E-18, 0.1181100000000000066 ) ) ;
#2 = DIRECTION ( 'NONE',  ( -0.0000000000000000000, -0.0000000000000000000, -1.000000000000000000 ) ) ;
#3 = UNCERTAINTY_MEASURE_WITH_UNIT (LENGTH_MEASURE( 1.000000000000000082E-05 ), #55, 'distance_accuracy_value', 'NONE');
#4 = EDGE_LOOP ( 'NONE', ( #114, #234, #240, #27 ) ) ;
#5 = ADVANCED_FACE ( 'NONE', ( #10 ), #190, .T. ) ;
#6 = ORIENTED_EDGE ( 'NONE', *, *, #65, .T. ) ;
#7 = LINE ( 'NONE', #81, #31 ) ;
#8 = ORIENTED_EDGE ( 'NONE', *, *, #220, .F. ) ;
#9 = FACE_OUTER_BOUND ( 'NONE', #77, .T. ) ;
#10 = FACE_OUTER_BOUND ( 'NONE', #140, .T. ) ;
#11 = FACE_OUTER_BOUND ( 'NONE', #155, .T. ) ;
#12 = CARTESIAN_POINT ( 'NONE',  ( -0.01966531499999999225, 0.0000000000000000000, 2.408306506897442331E-18 ) ) ;
#13 = AXIS2_PLACEMENT_3D ( 'NONE', #139, #59, #107 ) ;
#14 = ORIENTED_EDGE ( 'NONE', *, *, #235, .F. ) ;
#15 = DIRECTION ( 'NONE',  ( -1.000000000000000000, 0.0000000000000000000, 1.224646799147353207E-16 ) ) ;
#16 = PRESENTATION_STYLE_ASSIGNMENT (( #39 ) ) ;
#17 = DIRECTION ( 'NONE',  ( 0.7071067811865482389, 8.659560562354941486E-17, -0.7071067811865469066 ) ) ;
#18 = FILL_AREA_STYLE ('',( #128 ) ) ;
#19 = ORIENTED_EDGE ( 'NONE', *, *, #99, .T. ) ;
#20 = AXIS2_PLACEMENT_3D ( 'NONE', #164, #208, #274 ) ;
#21 = ORIENTED_EDGE ( 'NONE', *, *, #50, .F. ) ;
#22 = PRESENTATION_LAYER_ASSIGNMENT (  '', '', ( #158 ) ) ;
#23 = ADVANCED_FACE ( 'NONE', ( #95 ), #113, .T. ) ;
#24 = ORIENTED_EDGE ( 'NONE', *, *, #297, .T. ) ;
#25 = AXIS2_PLACEMENT_3D ( 'NONE', #191, #270, #160 ) ;
#26 = ORIENTED_EDGE ( 'NONE', *, *, #33, .F. ) ;
#27 = ORIENTED_EDGE ( 'NONE', *, *, #92, .F. ) ;
#28 = FILL_AREA_STYLE_COLOUR ( '', #136 ) ;
#29 = ORIENTED_EDGE ( 'NONE', *, *, #262, .T. ) ;
#30 = FACE_OUTER_BOUND ( 'NONE', #279, .T. ) ;
#31 = VECTOR ( 'NONE', #241, 39.37007874015748143 ) ;
#32 = PRESENTATION_STYLE_ASSIGNMENT (( #156 ) ) ;
#33 = EDGE_CURVE ( 'NONE', #259, #126, #178, .T. ) ;
#34 = VERTEX_POINT ( 'NONE', #280 ) ;
#35 = LINE ( 'NONE', #123, #153 ) ;
#36 = CARTESIAN_POINT ( 'NONE',  ( 0.04405499999999973326, 5.395181473643630390E-18, 1.496062999999999921 ) ) ;
#37 = CARTESIAN_POINT ( 'NONE',  ( -0.04405499999999973326, 0.0000000000000000000, 1.496062999999999921 ) ) ;
#38 = CARTESIAN_POINT ( 'NONE',  ( 0.01966531499999999225, 2.408306506897442331E-18, -2.408306506897442331E-18 ) ) ;
#39 = SURFACE_STYLE_USAGE ( .BOTH. , #295 ) ;
#40 = CIRCLE ( 'NONE', #108, 0.01966531499999999918 ) ;
#41 = EDGE_CURVE ( 'NONE', #286, #80, #72, .T. ) ;
#42 = ORIENTED_EDGE ( 'NONE', *, *, #238, .F. ) ;
#43 = ORIENTED_EDGE ( 'NONE', *, *, #125, .T. ) ;
#44 = COLOUR_RGB ( '',0.7921568627450980005, 0.8196078431372548767, 0.9333333333333333481 ) ;
#45 = ADVANCED_BREP_SHAPE_REPRESENTATION ( 'Micro_RMEM-010-2X', ( #87, #201 ), #282 ) ;
#46 = ADVANCED_FACE ( 'NONE', ( #11 ), #57, .F. ) ;
#47 = APPLICATION_CONTEXT ( 'automotive_design' ) ;
#48 = VECTOR ( 'NONE', #134, 39.37007874015748143 ) ;
#49 = EDGE_LOOP ( 'NONE', ( #56, #76, #8, #21 ) ) ;
#50 = EDGE_CURVE ( 'NONE', #212, #221, #244, .T. ) ;
#51 = DIRECTION ( 'NONE',  ( 0.0000000000000000000, 0.0000000000000000000, -1.000000000000000000 ) ) ;
#52 = CIRCLE ( 'NONE', #299, 0.01966531499999999918 ) ;
#53 = LENGTH_MEASURE_WITH_UNIT ( LENGTH_MEASURE( 0.02539999999999999897 ), #199 );
#54 = ADVANCED_FACE ( 'NONE', ( #30 ), #263, .T. ) ;
#55 =( CONVERSION_BASED_UNIT ( 'INCH', #292 ) LENGTH_UNIT ( ) NAMED_UNIT ( #209 ) );
#56 = ORIENTED_EDGE ( 'NONE', *, *, #157, .T. ) ;
#57 = PLANE ( 'NONE',  #192 ) ;
#58 = DIRECTION ( 'NONE',  ( 1.000000000000000000, 0.0000000000000000000, 0.0000000000000000000 ) ) ;
#59 = DIRECTION ( 'NONE',  ( -0.0000000000000000000, -0.0000000000000000000, -1.000000000000000000 ) ) ;
#60 = CARTESIAN_POINT ( 'NONE',  ( 0.05905500000000000332, 7.232151672364695422E-18, 1.496062999999999921 ) ) ;
#61 =( CONVERSION_BASED_UNIT ( 'INCH', #298 ) LENGTH_UNIT ( ) NAMED_UNIT ( #169 ) );
#62 = PRODUCT_DEFINITION_CONTEXT ( 'detailed design', #214, 'design' ) ;
#63 = CONICAL_SURFACE ( 'NONE', #275, 0.04405499999999973326, 0.7853981633974491672 ) ;
#64 = CARTESIAN_POINT ( 'NONE',  ( 0.01966531499999999225, 2.408306506897442331E-18, 0.0000000000000000000 ) ) ;
#65 = EDGE_CURVE ( 'NONE', #34, #112, #7, .T. ) ;
#66 = EDGE_LOOP ( 'NONE', ( #171, #84, #14, #150 ) ) ;
#67 = UNCERTAINTY_MEASURE_WITH_UNIT (LENGTH_MEASURE( 1.000000000000000082E-05 ), #61, 'distance_accuracy_value', 'NONE');
#68 = CARTESIAN_POINT ( 'NONE',  ( 0.0000000000000000000, 0.0000000000000000000, 0.0000000000000000000 ) ) ;
#69 = CARTESIAN_POINT ( 'NONE',  ( 0.04405499999999973326, 6.313666573004162521E-18, 1.496062999999999921 ) ) ;
#70 = DIRECTION ( 'NONE',  ( 0.0000000000000000000, 0.0000000000000000000, 1.000000000000000000 ) ) ;
#71 = APPLICATION_PROTOCOL_DEFINITION ( 'draft international standard', 'automotive_design', 1998, #214 ) ;
#72 = CIRCLE ( 'NONE', #250, 0.05905500000000000332 ) ;
#73 = DIRECTION ( 'NONE',  ( 1.224646799147353207E-16, 0.0000000000000000000, 1.000000000000000000 ) ) ;
#74 = ADVANCED_FACE ( 'NONE', ( #224 ), #230, .T. ) ;
#75 = SURFACE_STYLE_FILL_AREA ( #266 ) ;
#76 = ORIENTED_EDGE ( 'NONE', *, *, #238, .T. ) ;
#77 = EDGE_LOOP ( 'NONE', ( #276, #117, #185, #223 ) ) ;
#78 = DIRECTION ( 'NONE',  ( -1.224646799147353207E-16, -0.0000000000000000000, -1.000000000000000000 ) ) ;
#79 = DIRECTION ( 'NONE',  ( -1.224646799147353207E-16, -0.0000000000000000000, -1.000000000000000000 ) ) ;
#80 = VERTEX_POINT ( 'NONE', #101 ) ;
#81 = CARTESIAN_POINT ( 'NONE',  ( 0.01966531500000000959, 0.0000000000000000000, 0.1181100000000000066 ) ) ;
#82 = AXIS2_PLACEMENT_3D ( 'NONE', #187, #98, #181 ) ;
#83 = CARTESIAN_POINT ( 'NONE',  ( -0.05905500000000000332, 0.0000000000000000000, 1.481062999999999574 ) ) ;
#84 = ORIENTED_EDGE ( 'NONE', *, *, #264, .T. ) ;
#85 = CARTESIAN_POINT ( 'NONE',  ( 0.05905500000000004496, 7.232151672364700045E-18, 0.3415000044209672847 ) ) ;
#86 = PRODUCT_RELATED_PRODUCT_CATEGORY ( 'part', '', ( #175 ) ) ;
#87 = MANIFOLD_SOLID_BREP ( 'Cut-Revolve1', #284 ) ;
#88 = LINE ( 'NONE', #60, #48 ) ;
#89 = CARTESIAN_POINT ( 'NONE',  ( 4.182168873229444721E-17, 0.0000000000000000000, 0.3415000044209672847 ) ) ;
#90 = FACE_OUTER_BOUND ( 'NONE', #232, .T. ) ;
#91 = MECHANICAL_DESIGN_GEOMETRIC_PRESENTATION_REPRESENTATION (  '', ( #158 ), #179 ) ;
#92 = EDGE_CURVE ( 'NONE', #112, #197, #289, .T. ) ;
#93 = CARTESIAN_POINT ( 'NONE',  ( 0.0000000000000000000, 0.0000000000000000000, 0.0000000000000000000 ) ) ;
#94 = ORIENTED_EDGE ( 'NONE', *, *, #294, .F. ) ;
#95 = FACE_OUTER_BOUND ( 'NONE', #49, .T. ) ;
#96 = VECTOR ( 'NONE', #152, 39.37007874015748143 ) ;
#97 = ORIENTED_EDGE ( 'NONE', *, *, #92, .T. ) ;
#98 = DIRECTION ( 'NONE',  ( 0.0000000000000000000, 0.0000000000000000000, -1.000000000000000000 ) ) ;
#99 = EDGE_CURVE ( 'NONE', #212, #197, #35, .T. ) ;
#100 = ORIENTED_EDGE ( 'NONE', *, *, #262, .F. ) ;
#101 = CARTESIAN_POINT ( 'NONE',  ( 0.05905500000000000332, 7.232151672364695422E-18, 1.481062999999999574 ) ) ;
#102 = CIRCLE ( 'NONE', #147, 0.04405499999999973326 ) ;
#103 = CARTESIAN_POINT ( 'NONE',  ( 2.949324855037695588E-34, 0.0000000000000000000, 2.408306506897442331E-18 ) ) ;
#104 = DIRECTION ( 'NONE',  ( -1.000000000000000000, 0.0000000000000000000, 0.0000000000000000000 ) ) ;
#105 = DIRECTION ( 'NONE',  ( -1.224646799147353207E-16, -0.0000000000000000000, -1.000000000000000000 ) ) ;
#106 = ADVANCED_FACE ( 'NONE', ( #239 ), #205, .T. ) ;
#107 = DIRECTION ( 'NONE',  ( -1.000000000000000000, 0.0000000000000000000, 0.0000000000000000000 ) ) ;
#108 = AXIS2_PLACEMENT_3D ( 'NONE', #195, #105, #110 ) ;
#109 = DIRECTION ( 'NONE',  ( -1.000000000000000000, 0.0000000000000000000, 0.0000000000000000000 ) ) ;
#110 = DIRECTION ( 'NONE',  ( -1.000000000000000000, 0.0000000000000000000, 0.0000000000000000000 ) ) ;
#111 = VECTOR ( 'NONE', #166, 39.37007874015748143 ) ;
#112 = VERTEX_POINT ( 'NONE', #85 ) ;
#113 = CYLINDRICAL_SURFACE ( 'NONE', #210, 0.01966531499999999225 ) ;
#114 = ORIENTED_EDGE ( 'NONE', *, *, #264, .F. ) ;
#115 = ORIENTED_EDGE ( 'NONE', *, *, #194, .T. ) ;
#116 = CIRCLE ( 'NONE', #20, 0.05905500000000000332 ) ;
#117 = ORIENTED_EDGE ( 'NONE', *, *, #297, .F. ) ;
#118 = ADVANCED_FACE ( 'NONE', ( #9 ), #256, .T. ) ;
#119 = CARTESIAN_POINT ( 'NONE',  ( 0.0000000000000000000, 0.0000000000000000000, 1.481062999999999574 ) ) ;
#120 = ORIENTED_EDGE ( 'NONE', *, *, #99, .F. ) ;
#121 = CARTESIAN_POINT ( 'NONE',  ( 0.0000000000000000000, 0.0000000000000000000, 1.496062999999999921 ) ) ;
#122 = ADVANCED_FACE ( 'NONE', ( #260 ), #151, .T. ) ;
#123 = CARTESIAN_POINT ( 'NONE',  ( -0.01966531499999998531, 2.408306506897442716E-18, 0.1181100000000000066 ) ) ;
#124 = VECTOR ( 'NONE', #296, 39.37007874015748143 ) ;
#125 = EDGE_CURVE ( 'NONE', #174, #221, #237, .T. ) ;
#126 = VERTEX_POINT ( 'NONE', #189 ) ;
#127 = DIRECTION ( 'NONE',  ( 1.000000000000000000, 0.0000000000000000000, 0.0000000000000000000 ) ) ;
#128 = FILL_AREA_STYLE_COLOUR ( '', #44 ) ;
#129 = CARTESIAN_POINT ( 'NONE',  ( 2.949324855037695588E-34, 0.0000000000000000000, 2.408306506897442331E-18 ) ) ;
#130 = AXIS2_PLACEMENT_3D ( 'NONE', #183, #78, #203 ) ;
#131 =( LENGTH_UNIT ( ) NAMED_UNIT ( * ) SI_UNIT ( $, .METRE. ) );
#132 = DIRECTION ( 'NONE',  ( -1.000000000000000000, 0.0000000000000000000, 1.224646799147353207E-16 ) ) ;
#133 = DIRECTION ( 'NONE',  ( 0.0000000000000000000, 0.0000000000000000000, -1.000000000000000000 ) ) ;
#134 = DIRECTION ( 'NONE',  ( -0.0000000000000000000, -0.0000000000000000000, -1.000000000000000000 ) ) ;
#135 = CARTESIAN_POINT ( 'NONE',  ( -0.05905499999999996169, 0.0000000000000000000, 0.3415000044209672847 ) ) ;
#136 = COLOUR_RGB ( '',0.7921568627450980005, 0.8196078431372548767, 0.9333333333333333481 ) ;
#137 =( LENGTH_UNIT ( ) NAMED_UNIT ( * ) SI_UNIT ( $, .METRE. ) );
#138 = UNCERTAINTY_MEASURE_WITH_UNIT (LENGTH_MEASURE( 1.000000000000000082E-05 ), #246, 'distance_accuracy_value', 'NONE');
#139 = CARTESIAN_POINT ( 'NONE',  ( 0.0000000000000000000, 0.0000000000000000000, 1.496062999999999921 ) ) ;
#140 = EDGE_LOOP ( 'NONE', ( #24, #219 ) ) ;
#141 = VECTOR ( 'NONE', #17, 39.37007874015748143 ) ;
#142 = DIRECTION ( 'NONE',  ( 1.000000000000000000, 0.0000000000000000000, -0.0000000000000000000 ) ) ;
#143 = CARTESIAN_POINT ( 'NONE',  ( 1.446430334472939084E-17, 0.0000000000000000000, 0.1181100000000000066 ) ) ;
#144 = ORIENTED_EDGE ( 'NONE', *, *, #41, .F. ) ;
#145 = DIRECTION ( 'NONE',  ( 1.000000000000000000, 0.0000000000000000000, 0.0000000000000000000 ) ) ;
#146 = AXIS2_PLACEMENT_3D ( 'NONE', #283, #73, #127 ) ;
#147 = AXIS2_PLACEMENT_3D ( 'NONE', #188, #186, #229 ) ;
#148 = DIRECTION ( 'NONE',  ( -1.224646799147353207E-16, -0.0000000000000000000, -1.000000000000000000 ) ) ;
#149 = PRODUCT_CONTEXT ( 'NONE', #47, 'mechanical' ) ;
#150 = ORIENTED_EDGE ( 'NONE', *, *, #165, .F. ) ;
#151 = CYLINDRICAL_SURFACE ( 'NONE', #13, 0.05905500000000000332 ) ;
#152 = DIRECTION ( 'NONE',  ( -1.224646799147353207E-16, -0.0000000000000000000, -1.000000000000000000 ) ) ;
#153 = VECTOR ( 'NONE', #182, 39.37007874015747433 ) ;
#154 = CARTESIAN_POINT ( 'NONE',  ( 0.0000000000000000000, 0.0000000000000000000, 0.0000000000000000000 ) ) ;
#155 = EDGE_LOOP ( 'NONE', ( #257, #43 ) ) ;
#156 = SURFACE_STYLE_USAGE ( .BOTH. , #291 ) ;
#157 = EDGE_CURVE ( 'NONE', #212, #34, #40, .T. ) ;
#158 = STYLED_ITEM ( 'NONE', ( #16 ), #45 ) ;
#159 = CARTESIAN_POINT ( 'NONE',  ( 0.0000000000000000000, 0.0000000000000000000, 1.496062999999999921 ) ) ;
#160 = DIRECTION ( 'NONE',  ( 1.000000000000000000, 0.0000000000000000000, 0.0000000000000000000 ) ) ;
#161 = AXIS2_PLACEMENT_3D ( 'NONE', #272, #163, #142 ) ;
#162 =( NAMED_UNIT ( * ) SI_UNIT ( $, .STERADIAN. ) SOLID_ANGLE_UNIT ( ) );
#163 = DIRECTION ( 'NONE',  ( 0.0000000000000000000, 0.0000000000000000000, 1.000000000000000000 ) ) ;
#164 = CARTESIAN_POINT ( 'NONE',  ( 0.0000000000000000000, 0.0000000000000000000, 1.481062999999999574 ) ) ;
#165 = EDGE_CURVE ( 'NONE', #286, #197, #226, .T. ) ;
#166 = DIRECTION ( 'NONE',  ( -0.7071067811865482389, 0.0000000000000000000, -0.7071067811865469066 ) ) ;
#167 = AXIS2_PLACEMENT_3D ( 'NONE', #129, #225, #15 ) ;
#168 = LINE ( 'NONE', #36, #141 ) ;
#169 = DIMENSIONAL_EXPONENTS ( 1.000000000000000000, 0.0000000000000000000, 0.0000000000000000000, 0.0000000000000000000, 0.0000000000000000000, 0.0000000000000000000, 0.0000000000000000000 ) ;
#170 = ORIENTED_EDGE ( 'NONE', *, *, #65, .F. ) ;
#171 = ORIENTED_EDGE ( 'NONE', *, *, #41, .T. ) ;
#172 = EDGE_CURVE ( 'NONE', #80, #286, #116, .T. ) ;
#173 = CIRCLE ( 'NONE', #167, 0.01966531499999999225 ) ;
#174 = VERTEX_POINT ( 'NONE', #64 ) ;
#175 = PRODUCT ( 'Micro_RMEM-010-2X', 'Micro_RMEM-010-2X', '', ( #149 ) ) ;
#176 = DIRECTION ( 'NONE',  ( 0.0000000000000000000, 0.0000000000000000000, 1.000000000000000000 ) ) ;
#177 = PRODUCT_DEFINITION_SHAPE ( 'NONE', 'NONE',  #216 ) ;
#178 = CIRCLE ( 'NONE', #200, 0.04405499999999973326 ) ;
#179 =( GEOMETRIC_REPRESENTATION_CONTEXT ( 3 ) GLOBAL_UNCERTAINTY_ASSIGNED_CONTEXT ( ( #3 ) ) GLOBAL_UNIT_ASSIGNED_CONTEXT ( ( #55, #267, #249 ) ) REPRESENTATION_CONTEXT ( 'NONE', 'WORKASPACE' ) );
#180 =( NAMED_UNIT ( * ) SI_UNIT ( $, .STERADIAN. ) SOLID_ANGLE_UNIT ( ) );
#181 = DIRECTION ( 'NONE',  ( -1.000000000000000000, 0.0000000000000000000, 0.0000000000000000000 ) ) ;
#182 = DIRECTION ( 'NONE',  ( -0.1736481776669311639, 2.126576849575783008E-17, 0.9848077530122080203 ) ) ;
#183 = CARTESIAN_POINT ( 'NONE',  ( 0.0000000000000000000, 0.0000000000000000000, 0.0000000000000000000 ) ) ;
#184 = STYLED_ITEM ( 'NONE', ( #32 ), #87 ) ;
#185 = ORIENTED_EDGE ( 'NONE', *, *, #294, .T. ) ;
#186 = DIRECTION ( 'NONE',  ( 0.0000000000000000000, 0.0000000000000000000, 1.000000000000000000 ) ) ;
#187 = CARTESIAN_POINT ( 'NONE',  ( 0.0000000000000000000, 0.0000000000000000000, 1.496062999999999921 ) ) ;
#188 = CARTESIAN_POINT ( 'NONE',  ( 0.0000000000000000000, 0.0000000000000000000, 1.496062999999999921 ) ) ;
#189 = CARTESIAN_POINT ( 'NONE',  ( -0.04405499999999973326, 0.0000000000000000000, 1.496062999999999921 ) ) ;
#190 = PLANE ( 'NONE',  #161 ) ;
#191 = CARTESIAN_POINT ( 'NONE',  ( 1.446430334472939084E-17, 0.0000000000000000000, 0.1181100000000000066 ) ) ;
#192 = AXIS2_PLACEMENT_3D ( 'NONE', #154, #218, #285 ) ;
#193 = VECTOR ( 'NONE', #2, 39.37007874015748143 ) ;
#194 = EDGE_CURVE ( 'NONE', #259, #80, #168, .T. ) ;
#195 = CARTESIAN_POINT ( 'NONE',  ( 1.446430334472939084E-17, 0.0000000000000000000, 0.1181100000000000066 ) ) ;
#196 = AXIS2_PLACEMENT_3D ( 'NONE', #89, #268, #58 ) ;
#197 = VERTEX_POINT ( 'NONE', #135 ) ;
#198 = CIRCLE ( 'NONE', #196, 0.05905500000000000332 ) ;
#199 =( LENGTH_UNIT ( ) NAMED_UNIT ( * ) SI_UNIT ( $, .METRE. ) );
#200 = AXIS2_PLACEMENT_3D ( 'NONE', #278, #70, #145 ) ;
#201 = AXIS2_PLACEMENT_3D ( 'NONE', #93, #176, #281 ) ;
#202 = ORIENTED_EDGE ( 'NONE', *, *, #157, .F. ) ;
#203 = DIRECTION ( 'NONE',  ( -1.000000000000000000, 0.0000000000000000000, 1.224646799147353207E-16 ) ) ;
#204 = ORIENTED_EDGE ( 'NONE', *, *, #235, .T. ) ;
#205 = CYLINDRICAL_SURFACE ( 'NONE', #277, 0.05905500000000000332 ) ;
#206 = CARTESIAN_POINT ( 'NONE',  ( 4.182168873229444721E-17, 0.0000000000000000000, 0.3415000044209672847 ) ) ;
#207 = DIRECTION ( 'NONE',  ( -0.0000000000000000000, -0.0000000000000000000, -1.000000000000000000 ) ) ;
#208 = DIRECTION ( 'NONE',  ( 0.0000000000000000000, 0.0000000000000000000, -1.000000000000000000 ) ) ;
#209 = DIMENSIONAL_EXPONENTS ( 1.000000000000000000, 0.0000000000000000000, 0.0000000000000000000, 0.0000000000000000000, 0.0000000000000000000, 0.0000000000000000000, 0.0000000000000000000 ) ;
#210 = AXIS2_PLACEMENT_3D ( 'NONE', #68, #213, #258 ) ;
#211 = AXIS2_PLACEMENT_3D ( 'NONE', #103, #273, #132 ) ;
#212 = VERTEX_POINT ( 'NONE', #1 ) ;
#213 = DIRECTION ( 'NONE',  ( -1.224646799147353207E-16, -0.0000000000000000000, -1.000000000000000000 ) ) ;
#214 = APPLICATION_CONTEXT ( 'automotive_design' ) ;
#215 =( GEOMETRIC_REPRESENTATION_CONTEXT ( 3 ) GLOBAL_UNCERTAINTY_ASSIGNED_CONTEXT ( ( #138 ) ) GLOBAL_UNIT_ASSIGNED_CONTEXT ( ( #246, #248, #180 ) ) REPRESENTATION_CONTEXT ( 'NONE', 'WORKASPACE' ) );
#216 = PRODUCT_DEFINITION ( 'UNKNOWN', '', #243, #62 ) ;
#217 = ORIENTED_EDGE ( 'NONE', *, *, #125, .F. ) ;
#218 = DIRECTION ( 'NONE',  ( 0.0000000000000000000, 0.0000000000000000000, 1.000000000000000000 ) ) ;
#219 = ORIENTED_EDGE ( 'NONE', *, *, #33, .T. ) ;
#220 = EDGE_CURVE ( 'NONE', #221, #174, #173, .T. ) ;
#221 = VERTEX_POINT ( 'NONE', #293 ) ;
#222 = DIRECTION ( 'NONE',  ( 1.000000000000000000, 0.0000000000000000000, 0.0000000000000000000 ) ) ;
#223 = ORIENTED_EDGE ( 'NONE', *, *, #172, .F. ) ;
#224 = FACE_OUTER_BOUND ( 'NONE', #290, .T. ) ;
#225 = DIRECTION ( 'NONE',  ( -1.224646799147353207E-16, -0.0000000000000000000, -1.000000000000000000 ) ) ;
#226 = LINE ( 'NONE', #231, #193 ) ;
#227 = APPLICATION_PROTOCOL_DEFINITION ( 'draft international standard', 'automotive_design', 1998, #47 ) ;
#228 = DIMENSIONAL_EXPONENTS ( 1.000000000000000000, 0.0000000000000000000, 0.0000000000000000000, 0.0000000000000000000, 0.0000000000000000000, 0.0000000000000000000, 0.0000000000000000000 ) ;
#229 = DIRECTION ( 'NONE',  ( 1.000000000000000000, 0.0000000000000000000, 0.0000000000000000000 ) ) ;
#230 = CONICAL_SURFACE ( 'NONE', #146, 0.01966531499999999918, 0.1745329251994338637 ) ;
#231 = CARTESIAN_POINT ( 'NONE',  ( -0.05905500000000000332, 0.0000000000000000000, 1.496062999999999921 ) ) ;
#232 = EDGE_LOOP ( 'NONE', ( #202, #19, #204, #170 ) ) ;
#233 = CONICAL_SURFACE ( 'NONE', #25, 0.01966531499999999918, 0.1745329251994338637 ) ;
#234 = ORIENTED_EDGE ( 'NONE', *, *, #172, .T. ) ;
#235 = EDGE_CURVE ( 'NONE', #197, #112, #198, .T. ) ;
#236 = SHAPE_DEFINITION_REPRESENTATION ( #177, #45 ) ;
#237 = CIRCLE ( 'NONE', #211, 0.01966531499999999225 ) ;
#238 = EDGE_CURVE ( 'NONE', #34, #174, #252, .T. ) ;
#239 = FACE_OUTER_BOUND ( 'NONE', #66, .T. ) ;
#240 = ORIENTED_EDGE ( 'NONE', *, *, #165, .T. ) ;
#241 = DIRECTION ( 'NONE',  ( 0.1736481776669313581, 0.0000000000000000000, 0.9848077530122077983 ) ) ;
#242 = AXIS2_PLACEMENT_3D ( 'NONE', #206, #148, #222 ) ;
#243 = PRODUCT_DEFINITION_FORMATION_WITH_SPECIFIED_SOURCE ( 'ANY', '', #175, .NOT_KNOWN. ) ;
#244 = LINE ( 'NONE', #12, #96 ) ;
#245 = ORIENTED_EDGE ( 'NONE', *, *, #50, .T. ) ;
#246 =( CONVERSION_BASED_UNIT ( 'INCH', #53 ) LENGTH_UNIT ( ) NAMED_UNIT ( #228 ) );
#247 = EDGE_LOOP ( 'NONE', ( #26, #115, #144, #94 ) ) ;
#248 =( NAMED_UNIT ( * ) PLANE_ANGLE_UNIT ( ) SI_UNIT ( $, .RADIAN. ) );
#249 =( NAMED_UNIT ( * ) SI_UNIT ( $, .STERADIAN. ) SOLID_ANGLE_UNIT ( ) );
#250 = AXIS2_PLACEMENT_3D ( 'NONE', #119, #51, #288 ) ;
#251 = PRESENTATION_LAYER_ASSIGNMENT (  '', '', ( #184 ) ) ;
#252 = LINE ( 'NONE', #38, #124 ) ;
#253 = LINE ( 'NONE', #37, #111 ) ;
#254 = ADVANCED_FACE ( 'NONE', ( #90 ), #233, .T. ) ;
#255 =( NAMED_UNIT ( * ) PLANE_ANGLE_UNIT ( ) SI_UNIT ( $, .RADIAN. ) );
#256 = CONICAL_SURFACE ( 'NONE', #82, 0.04405499999999973326, 0.7853981633974491672 ) ;
#257 = ORIENTED_EDGE ( 'NONE', *, *, #220, .T. ) ;
#258 = DIRECTION ( 'NONE',  ( -1.000000000000000000, 0.0000000000000000000, 1.224646799147353207E-16 ) ) ;
#259 = VERTEX_POINT ( 'NONE', #69 ) ;
#260 = FACE_OUTER_BOUND ( 'NONE', #4, .T. ) ;
#261 = DIRECTION ( 'NONE',  ( -1.000000000000000000, 0.0000000000000000000, 0.0000000000000000000 ) ) ;
#262 = EDGE_CURVE ( 'NONE', #34, #212, #52, .T. ) ;
#263 = CYLINDRICAL_SURFACE ( 'NONE', #130, 0.01966531499999999225 ) ;
#264 = EDGE_CURVE ( 'NONE', #80, #112, #88, .T. ) ;
#265 = FACE_OUTER_BOUND ( 'NONE', #247, .T. ) ;
#266 = FILL_AREA_STYLE ('',( #28 ) ) ;
#267 =( NAMED_UNIT ( * ) PLANE_ANGLE_UNIT ( ) SI_UNIT ( $, .RADIAN. ) );
#268 = DIRECTION ( 'NONE',  ( -1.224646799147353207E-16, -0.0000000000000000000, -1.000000000000000000 ) ) ;
#269 = MECHANICAL_DESIGN_GEOMETRIC_PRESENTATION_REPRESENTATION (  '', ( #184 ), #215 ) ;
#270 = DIRECTION ( 'NONE',  ( 1.224646799147353207E-16, 0.0000000000000000000, 1.000000000000000000 ) ) ;
#271 = SURFACE_STYLE_FILL_AREA ( #18 ) ;
#272 = CARTESIAN_POINT ( 'NONE',  ( 0.0000000000000000000, 0.0000000000000000000, 1.496062999999999921 ) ) ;
#273 = DIRECTION ( 'NONE',  ( -1.224646799147353207E-16, -0.0000000000000000000, -1.000000000000000000 ) ) ;
#274 = DIRECTION ( 'NONE',  ( 1.000000000000000000, 0.0000000000000000000, 0.0000000000000000000 ) ) ;
#275 = AXIS2_PLACEMENT_3D ( 'NONE', #159, #133, #109 ) ;
#276 = ORIENTED_EDGE ( 'NONE', *, *, #194, .F. ) ;
#277 = AXIS2_PLACEMENT_3D ( 'NONE', #121, #207, #261 ) ;
#278 = CARTESIAN_POINT ( 'NONE',  ( 0.0000000000000000000, 0.0000000000000000000, 1.496062999999999921 ) ) ;
#279 = EDGE_LOOP ( 'NONE', ( #42, #29, #245, #217 ) ) ;
#280 = CARTESIAN_POINT ( 'NONE',  ( 0.01966531500000000959, 0.0000000000000000000, 0.1181100000000000066 ) ) ;
#281 = DIRECTION ( 'NONE',  ( 1.000000000000000000, 0.0000000000000000000, 0.0000000000000000000 ) ) ;
#282 =( GEOMETRIC_REPRESENTATION_CONTEXT ( 3 ) GLOBAL_UNCERTAINTY_ASSIGNED_CONTEXT ( ( #67 ) ) GLOBAL_UNIT_ASSIGNED_CONTEXT ( ( #61, #255, #162 ) ) REPRESENTATION_CONTEXT ( 'NONE', 'WORKASPACE' ) );
#283 = CARTESIAN_POINT ( 'NONE',  ( 1.446430334472939084E-17, 0.0000000000000000000, 0.1181100000000000066 ) ) ;
#284 = CLOSED_SHELL ( 'NONE', ( #23, #254, #287, #106, #122, #5, #118, #74, #54, #46 ) ) ;
#285 = DIRECTION ( 'NONE',  ( 1.000000000000000000, 0.0000000000000000000, -0.0000000000000000000 ) ) ;
#286 = VERTEX_POINT ( 'NONE', #83 ) ;
#287 = ADVANCED_FACE ( 'NONE', ( #265 ), #63, .T. ) ;
#288 = DIRECTION ( 'NONE',  ( 1.000000000000000000, 0.0000000000000000000, 0.0000000000000000000 ) ) ;
#289 = CIRCLE ( 'NONE', #242, 0.05905500000000000332 ) ;
#290 = EDGE_LOOP ( 'NONE', ( #120, #100, #6, #97 ) ) ;
#291 = SURFACE_SIDE_STYLE ('',( #75 ) ) ;
#292 = LENGTH_MEASURE_WITH_UNIT ( LENGTH_MEASURE( 0.02539999999999999897 ), #137 );
#293 = CARTESIAN_POINT ( 'NONE',  ( -0.01966531499999999225, 0.0000000000000000000, 4.816613013794884661E-18 ) ) ;
#294 = EDGE_CURVE ( 'NONE', #126, #286, #253, .T. ) ;
#295 = SURFACE_SIDE_STYLE ('',( #271 ) ) ;
#296 = DIRECTION ( 'NONE',  ( -1.224646799147353207E-16, -0.0000000000000000000, -1.000000000000000000 ) ) ;
#297 = EDGE_CURVE ( 'NONE', #126, #259, #102, .T. ) ;
#298 = LENGTH_MEASURE_WITH_UNIT ( LENGTH_MEASURE( 0.02539999999999999897 ), #131 );
#299 = AXIS2_PLACEMENT_3D ( 'NONE', #143, #79, #104 ) ;
ENDSEC;
END-ISO-10303-21;
