ISO-10303-21;
HEADER;
FILE_DESCRIPTION (( 'STEP AP214' ),
    '1' );
FILE_NAME ('Micro_SEM-046-04X.STEP',
    '2021-09-02T00:44:05',
    ( '' ),
    ( '' ),
    'SwSTEP 2.0',
    'SolidWorks 2020',
    '' );
FILE_SCHEMA (( 'AUTOMOTIVE_DESIGN' ));
ENDSEC;

DATA;
#1 = DIRECTION ( 'NONE',  ( 1.000000000000000000, 0.0000000000000000000, -0.0000000000000000000 ) ) ;
#2 = DIRECTION ( 'NONE',  ( 0.0000000000000000000, 0.0000000000000000000, 1.000000000000000000 ) ) ;
#3 = FILL_AREA_STYLE ('',( #28 ) ) ;
#4 =( CONVERSION_BASED_UNIT ( 'INCH', #238 ) LENGTH_UNIT ( ) NAMED_UNIT ( #160 ) );
#5 = ADVANCED_FACE ( 'NONE', ( #75 ), #100, .T. ) ;
#6 = DIRECTION ( 'NONE',  ( -0.0000000000000000000, -0.0000000000000000000, -1.000000000000000000 ) ) ;
#7 = MECHANICAL_DESIGN_GEOMETRIC_PRESENTATION_REPRESENTATION (  '', ( #296 ), #176 ) ;
#8 = MANIFOLD_SOLID_BREP ( 'Cut-Revolve1', #158 ) ;
#9 = CARTESIAN_POINT ( 'NONE',  ( 0.02342655000000000778, 0.0000000000000000000, 0.09400000000000001410 ) ) ;
#10 = CARTESIAN_POINT ( 'NONE',  ( -0.04750000000000064587, 0.0000000000000000000, 1.500000000000000222 ) ) ;
#11 = CARTESIAN_POINT ( 'NONE',  ( 1.151167991198512393E-17, 0.0000000000000000000, 0.09400000000000001410 ) ) ;
#12 = AXIS2_PLACEMENT_3D ( 'NONE', #135, #137, #275 ) ;
#13 = PRESENTATION_LAYER_ASSIGNMENT (  '', '', ( #149 ) ) ;
#14 = DIRECTION ( 'NONE',  ( 0.0000000000000000000, 0.0000000000000000000, -1.000000000000000000 ) ) ;
#15 = DIRECTION ( 'NONE',  ( -1.224646799147353454E-16, -0.0000000000000000000, -1.000000000000000000 ) ) ;
#16 = CIRCLE ( 'NONE', #262, 0.02342654999999999044 ) ;
#17 = ORIENTED_EDGE ( 'NONE', *, *, #182, .F. ) ;
#18 = ORIENTED_EDGE ( 'NONE', *, *, #162, .T. ) ;
#19 = DIRECTION ( 'NONE',  ( 0.0000000000000000000, 0.0000000000000000000, 1.000000000000000000 ) ) ;
#20 = ORIENTED_EDGE ( 'NONE', *, *, #192, .F. ) ;
#21 = MECHANICAL_DESIGN_GEOMETRIC_PRESENTATION_REPRESENTATION (  '', ( #149 ), #37 ) ;
#22 = DIRECTION ( 'NONE',  ( -1.224646799147353454E-16, -0.0000000000000000000, -1.000000000000000000 ) ) ;
#23 = VERTEX_POINT ( 'NONE', #141 ) ;
#24 = CARTESIAN_POINT ( 'NONE',  ( 0.0000000000000000000, 0.0000000000000000000, 0.0000000000000000000 ) ) ;
#25 = APPLICATION_CONTEXT ( 'automotive_design' ) ;
#26 = CARTESIAN_POINT ( 'NONE',  ( 0.02342654999999999044, 2.868924947256541793E-18, -2.868924947256542179E-18 ) ) ;
#27 = AXIS2_PLACEMENT_3D ( 'NONE', #11, #128, #263 ) ;
#28 = FILL_AREA_STYLE_COLOUR ( '', #152 ) ;
#29 = EDGE_LOOP ( 'NONE', ( #144, #70, #282, #198 ) ) ;
#30 = DIRECTION ( 'NONE',  ( 1.000000000000000000, 0.0000000000000000000, 0.0000000000000000000 ) ) ;
#31 = CIRCLE ( 'NONE', #214, 0.06250000000000000000 ) ;
#32 = DIRECTION ( 'NONE',  ( 1.000000000000000000, 0.0000000000000000000, 0.0000000000000000000 ) ) ;
#33 = EDGE_CURVE ( 'NONE', #138, #252, #213, .T. ) ;
#34 = DIRECTION ( 'NONE',  ( 0.0000000000000000000, 0.0000000000000000000, -1.000000000000000000 ) ) ;
#35 = DIRECTION ( 'NONE',  ( -1.000000000000000000, 0.0000000000000000000, 1.224646799147353454E-16 ) ) ;
#36 = AXIS2_PLACEMENT_3D ( 'NONE', #239, #79, #30 ) ;
#37 =( GEOMETRIC_REPRESENTATION_CONTEXT ( 3 ) GLOBAL_UNCERTAINTY_ASSIGNED_CONTEXT ( ( #207 ) ) GLOBAL_UNIT_ASSIGNED_CONTEXT ( ( #221, #292, #71 ) ) REPRESENTATION_CONTEXT ( 'NONE', 'WORKASPACE' ) );
#38 = CYLINDRICAL_SURFACE ( 'NONE', #167, 0.06250000000000000000 ) ;
#39 = CARTESIAN_POINT ( 'NONE',  ( 0.0000000000000000000, 0.0000000000000000000, 0.0000000000000000000 ) ) ;
#40 = ORIENTED_EDGE ( 'NONE', *, *, #228, .F. ) ;
#41 = ADVANCED_FACE ( 'NONE', ( #119 ), #260, .F. ) ;
#42 = AXIS2_PLACEMENT_3D ( 'NONE', #39, #88, #197 ) ;
#43 = DIRECTION ( 'NONE',  ( 1.000000000000000000, 0.0000000000000000000, 0.0000000000000000000 ) ) ;
#44 = ORIENTED_EDGE ( 'NONE', *, *, #244, .T. ) ;
#45 = CARTESIAN_POINT ( 'NONE',  ( 0.0000000000000000000, 0.0000000000000000000, 1.500000000000000222 ) ) ;
#46 = AXIS2_PLACEMENT_3D ( 'NONE', #24, #118, #1 ) ;
#47 = PRODUCT_CONTEXT ( 'NONE', #25, 'mechanical' ) ;
#48 = CIRCLE ( 'NONE', #235, 0.04750000000000064587 ) ;
#49 = VERTEX_POINT ( 'NONE', #233 ) ;
#50 = ORIENTED_EDGE ( 'NONE', *, *, #249, .F. ) ;
#51 = CARTESIAN_POINT ( 'NONE',  ( 1.151167991198512393E-17, 0.0000000000000000000, 0.09400000000000001410 ) ) ;
#52 = EDGE_CURVE ( 'NONE', #23, #210, #299, .T. ) ;
#53 = CONICAL_SURFACE ( 'NONE', #95, 0.02342654999999999391, 0.1745329251994338915 ) ;
#54 = DIRECTION ( 'NONE',  ( -0.0000000000000000000, -0.0000000000000000000, -1.000000000000000000 ) ) ;
#55 = CARTESIAN_POINT ( 'NONE',  ( 0.0000000000000000000, 0.0000000000000000000, 0.0000000000000000000 ) ) ;
#56 = EDGE_CURVE ( 'NONE', #187, #226, #72, .T. ) ;
#57 = FACE_OUTER_BOUND ( 'NONE', #201, .T. ) ;
#58 = AXIS2_PLACEMENT_3D ( 'NONE', #279, #2, #209 ) ;
#59 = PRODUCT_DEFINITION_CONTEXT ( 'detailed design', #64, 'design' ) ;
#60 = CIRCLE ( 'NONE', #186, 0.02342654999999999044 ) ;
#61 = CARTESIAN_POINT ( 'NONE',  ( -0.02342654999999999044, 0.0000000000000000000, 5.737849894513084357E-18 ) ) ;
#62 = SURFACE_SIDE_STYLE ('',( #154 ) ) ;
#63 = ORIENTED_EDGE ( 'NONE', *, *, #205, .F. ) ;
#64 = APPLICATION_CONTEXT ( 'automotive_design' ) ;
#65 = VECTOR ( 'NONE', #15, 39.37007874015748143 ) ;
#66 = ORIENTED_EDGE ( 'NONE', *, *, #76, .F. ) ;
#67 = CIRCLE ( 'NONE', #36, 0.06250000000000000000 ) ;
#68 = SURFACE_STYLE_USAGE ( .BOTH. , #121 ) ;
#69 = SHAPE_DEFINITION_REPRESENTATION ( #153, #84 ) ;
#70 = ORIENTED_EDGE ( 'NONE', *, *, #205, .T. ) ;
#71 =( NAMED_UNIT ( * ) SI_UNIT ( $, .STERADIAN. ) SOLID_ANGLE_UNIT ( ) );
#72 = LINE ( 'NONE', #212, #291 ) ;
#73 =( LENGTH_UNIT ( ) NAMED_UNIT ( * ) SI_UNIT ( $, .METRE. ) );
#74 = EDGE_CURVE ( 'NONE', #164, #210, #60, .T. ) ;
#75 = FACE_OUTER_BOUND ( 'NONE', #271, .T. ) ;
#76 = EDGE_CURVE ( 'NONE', #23, #252, #107, .T. ) ;
#77 = DIRECTION ( 'NONE',  ( 1.224646799147353454E-16, 0.0000000000000000000, 1.000000000000000000 ) ) ;
#78 = FACE_OUTER_BOUND ( 'NONE', #142, .T. ) ;
#79 = DIRECTION ( 'NONE',  ( -1.224646799147353454E-16, -0.0000000000000000000, -1.000000000000000000 ) ) ;
#80 = DIRECTION ( 'NONE',  ( -1.000000000000000000, 0.0000000000000000000, 1.224646799147353454E-16 ) ) ;
#81 = DIRECTION ( 'NONE',  ( -1.224646799147353454E-16, -0.0000000000000000000, -1.000000000000000000 ) ) ;
#82 = EDGE_CURVE ( 'NONE', #23, #187, #281, .T. ) ;
#83 = ORIENTED_EDGE ( 'NONE', *, *, #74, .F. ) ;
#84 = ADVANCED_BREP_SHAPE_REPRESENTATION ( 'Micro_SEM-046-04X', ( #8, #58 ), #174 ) ;
#85 = ADVANCED_FACE ( 'NONE', ( #78 ), #266, .T. ) ;
#86 = DIRECTION ( 'NONE',  ( -1.224646799147353454E-16, -0.0000000000000000000, -1.000000000000000000 ) ) ;
#87 = ORIENTED_EDGE ( 'NONE', *, *, #162, .F. ) ;
#88 = DIRECTION ( 'NONE',  ( -1.224646799147353454E-16, -0.0000000000000000000, -1.000000000000000000 ) ) ;
#89 = ORIENTED_EDGE ( 'NONE', *, *, #192, .T. ) ;
#90 = CARTESIAN_POINT ( 'NONE',  ( 3.864943006337004181E-17, 0.0000000000000000000, 0.3155965466147404586 ) ) ;
#91 = ORIENTED_EDGE ( 'NONE', *, *, #33, .F. ) ;
#92 = PRESENTATION_STYLE_ASSIGNMENT (( #250 ) ) ;
#93 = UNCERTAINTY_MEASURE_WITH_UNIT (LENGTH_MEASURE( 1.000000000000000082E-05 ), #4, 'distance_accuracy_value', 'NONE');
#94 = PRESENTATION_STYLE_ASSIGNMENT (( #68 ) ) ;
#95 = AXIS2_PLACEMENT_3D ( 'NONE', #171, #77, #32 ) ;
#96 = APPLICATION_PROTOCOL_DEFINITION ( 'draft international standard', 'automotive_design', 1998, #64 ) ;
#97 = CARTESIAN_POINT ( 'NONE',  ( 0.0000000000000000000, 0.0000000000000000000, 1.500000000000000222 ) ) ;
#98 = EDGE_CURVE ( 'NONE', #49, #138, #31, .T. ) ;
#99 = ORIENTED_EDGE ( 'NONE', *, *, #268, .T. ) ;
#100 = PLANE ( 'NONE',  #251 ) ;
#101 = VECTOR ( 'NONE', #280, 39.37007874015748143 ) ;
#102 = CYLINDRICAL_SURFACE ( 'NONE', #245, 0.06250000000000000000 ) ;
#103 = CARTESIAN_POINT ( 'NONE',  ( 3.513419753651714367E-34, 0.0000000000000000000, 2.868924947256542179E-18 ) ) ;
#104 = FACE_OUTER_BOUND ( 'NONE', #110, .T. ) ;
#105 = CIRCLE ( 'NONE', #12, 0.06250000000000000000 ) ;
#106 = LINE ( 'NONE', #267, #65 ) ;
#107 = LINE ( 'NONE', #9, #240 ) ;
#108 = ADVANCED_FACE ( 'NONE', ( #290 ), #53, .T. ) ;
#109 =( LENGTH_UNIT ( ) NAMED_UNIT ( * ) SI_UNIT ( $, .METRE. ) );
#110 = EDGE_LOOP ( 'NONE', ( #91, #257, #259, #40 ) ) ;
#111 = CONICAL_SURFACE ( 'NONE', #27, 0.02342654999999999391, 0.1745329251994338915 ) ;
#112 = ADVANCED_FACE ( 'NONE', ( #246 ), #111, .T. ) ;
#113 = DIMENSIONAL_EXPONENTS ( 1.000000000000000000, 0.0000000000000000000, 0.0000000000000000000, 0.0000000000000000000, 0.0000000000000000000, 0.0000000000000000000, 0.0000000000000000000 ) ;
#114 =( CONVERSION_BASED_UNIT ( 'INCH', #133 ) LENGTH_UNIT ( ) NAMED_UNIT ( #113 ) );
#115 = CIRCLE ( 'NONE', #117, 0.02342654999999999391 ) ;
#116 = CIRCLE ( 'NONE', #180, 0.04750000000000064587 ) ;
#117 = AXIS2_PLACEMENT_3D ( 'NONE', #274, #86, #253 ) ;
#118 = DIRECTION ( 'NONE',  ( 0.0000000000000000000, 0.0000000000000000000, 1.000000000000000000 ) ) ;
#119 = FACE_OUTER_BOUND ( 'NONE', #159, .T. ) ;
#120 = AXIS2_PLACEMENT_3D ( 'NONE', #90, #22, #43 ) ;
#121 = SURFACE_SIDE_STYLE ('',( #168 ) ) ;
#122 = CARTESIAN_POINT ( 'NONE',  ( 0.06250000000000000000, 7.654042494670956004E-18, 1.500000000000000222 ) ) ;
#123 = PRESENTATION_LAYER_ASSIGNMENT (  '', '', ( #296 ) ) ;
#124 = DIRECTION ( 'NONE',  ( -1.000000000000000000, 0.0000000000000000000, 0.0000000000000000000 ) ) ;
#125 = CARTESIAN_POINT ( 'NONE',  ( 0.0000000000000000000, 0.0000000000000000000, 1.500000000000000222 ) ) ;
#126 = CARTESIAN_POINT ( 'NONE',  ( 0.0000000000000000000, 0.0000000000000000000, 1.500000000000000222 ) ) ;
#127 = ADVANCED_FACE ( 'NONE', ( #283 ), #169, .T. ) ;
#128 = DIRECTION ( 'NONE',  ( 1.224646799147353454E-16, 0.0000000000000000000, 1.000000000000000000 ) ) ;
#129 = AXIS2_PLACEMENT_3D ( 'NONE', #146, #34, #150 ) ;
#130 = DIRECTION ( 'NONE',  ( -1.224646799147353454E-16, -0.0000000000000000000, -1.000000000000000000 ) ) ;
#131 = LENGTH_MEASURE_WITH_UNIT ( LENGTH_MEASURE( 0.02539999999999999897 ), #109 );
#132 = ADVANCED_FACE ( 'NONE', ( #219 ), #285, .T. ) ;
#133 = LENGTH_MEASURE_WITH_UNIT ( LENGTH_MEASURE( 0.02539999999999999897 ), #206 );
#134 = ORIENTED_EDGE ( 'NONE', *, *, #52, .F. ) ;
#135 = CARTESIAN_POINT ( 'NONE',  ( 0.0000000000000000000, 0.0000000000000000000, 1.485000000000000764 ) ) ;
#136 = ORIENTED_EDGE ( 'NONE', *, *, #82, .T. ) ;
#137 = DIRECTION ( 'NONE',  ( 0.0000000000000000000, 0.0000000000000000000, -1.000000000000000000 ) ) ;
#138 = VERTEX_POINT ( 'NONE', #193 ) ;
#139 = PRODUCT ( 'Micro_SEM-046-04X', 'Micro_SEM-046-04X', '', ( #47 ) ) ;
#140 = VERTEX_POINT ( 'NONE', #175 ) ;
#141 = CARTESIAN_POINT ( 'NONE',  ( 0.02342655000000000778, 0.0000000000000000000, 0.09400000000000001410 ) ) ;
#142 = EDGE_LOOP ( 'NONE', ( #63, #143, #278, #50 ) ) ;
#143 = ORIENTED_EDGE ( 'NONE', *, *, #268, .F. ) ;
#144 = ORIENTED_EDGE ( 'NONE', *, *, #244, .F. ) ;
#145 =( NAMED_UNIT ( * ) PLANE_ANGLE_UNIT ( ) SI_UNIT ( $, .RADIAN. ) );
#146 = CARTESIAN_POINT ( 'NONE',  ( 0.0000000000000000000, 0.0000000000000000000, 1.500000000000000222 ) ) ;
#147 = CARTESIAN_POINT ( 'NONE',  ( -0.02342654999999998350, 5.261483720963751017E-18, 0.09400000000000001410 ) ) ;
#148 = DIRECTION ( 'NONE',  ( 0.0000000000000000000, 0.0000000000000000000, -1.000000000000000000 ) ) ;
#149 = STYLED_ITEM ( 'NONE', ( #92 ), #84 ) ;
#150 = DIRECTION ( 'NONE',  ( -1.000000000000000000, 0.0000000000000000000, 0.0000000000000000000 ) ) ;
#151 = ADVANCED_FACE ( 'NONE', ( #104 ), #38, .T. ) ;
#152 = COLOUR_RGB ( '',0.7921568627450980005, 0.8196078431372548767, 0.9333333333333333481 ) ;
#153 = PRODUCT_DEFINITION_SHAPE ( 'NONE', 'NONE',  #298 ) ;
#154 = SURFACE_STYLE_FILL_AREA ( #178 ) ;
#155 = CARTESIAN_POINT ( 'NONE',  ( -0.06249999999999995837, 0.0000000000000000000, 0.3155965466147404586 ) ) ;
#156 = CARTESIAN_POINT ( 'NONE',  ( 0.0000000000000000000, 0.0000000000000000000, 1.500000000000000222 ) ) ;
#157 = ORIENTED_EDGE ( 'NONE', *, *, #82, .F. ) ;
#158 = CLOSED_SHELL ( 'NONE', ( #218, #108, #132, #211, #151, #5, #85, #112, #127, #41 ) ) ;
#159 = EDGE_LOOP ( 'NONE', ( #183, #165 ) ) ;
#160 = DIMENSIONAL_EXPONENTS ( 1.000000000000000000, 0.0000000000000000000, 0.0000000000000000000, 0.0000000000000000000, 0.0000000000000000000, 0.0000000000000000000, 0.0000000000000000000 ) ;
#161 = EDGE_LOOP ( 'NONE', ( #276, #255, #83, #87 ) ) ;
#162 = EDGE_CURVE ( 'NONE', #187, #164, #106, .T. ) ;
#163 = ORIENTED_EDGE ( 'NONE', *, *, #228, .T. ) ;
#164 = VERTEX_POINT ( 'NONE', #61 ) ;
#165 = ORIENTED_EDGE ( 'NONE', *, *, #194, .T. ) ;
#166 = PRODUCT_DEFINITION_FORMATION_WITH_SPECIFIED_SOURCE ( 'ANY', '', #139, .NOT_KNOWN. ) ;
#167 = AXIS2_PLACEMENT_3D ( 'NONE', #125, #54, #191 ) ;
#168 = SURFACE_STYLE_FILL_AREA ( #3 ) ;
#169 = CYLINDRICAL_SURFACE ( 'NONE', #277, 0.02342654999999999044 ) ;
#170 = CIRCLE ( 'NONE', #120, 0.06250000000000000000 ) ;
#171 = CARTESIAN_POINT ( 'NONE',  ( 1.151167991198512393E-17, 0.0000000000000000000, 0.09400000000000001410 ) ) ;
#172 = DIRECTION ( 'NONE',  ( 1.000000000000000000, 0.0000000000000000000, 0.0000000000000000000 ) ) ;
#173 = LINE ( 'NONE', #215, #230 ) ;
#174 =( GEOMETRIC_REPRESENTATION_CONTEXT ( 3 ) GLOBAL_UNCERTAINTY_ASSIGNED_CONTEXT ( ( #236 ) ) GLOBAL_UNIT_ASSIGNED_CONTEXT ( ( #114, #254, #202 ) ) REPRESENTATION_CONTEXT ( 'NONE', 'WORKASPACE' ) );
#175 = CARTESIAN_POINT ( 'NONE',  ( 0.04750000000000064587, 6.735557395310482421E-18, 1.500000000000000222 ) ) ;
#176 =( GEOMETRIC_REPRESENTATION_CONTEXT ( 3 ) GLOBAL_UNCERTAINTY_ASSIGNED_CONTEXT ( ( #93 ) ) GLOBAL_UNIT_ASSIGNED_CONTEXT ( ( #4, #145, #185 ) ) REPRESENTATION_CONTEXT ( 'NONE', 'WORKASPACE' ) );
#177 = DIRECTION ( 'NONE',  ( -0.7071067811865456854, 0.0000000000000000000, -0.7071067811865493491 ) ) ;
#178 = FILL_AREA_STYLE ('',( #222 ) ) ;
#179 = DIRECTION ( 'NONE',  ( 1.000000000000000000, 0.0000000000000000000, 0.0000000000000000000 ) ) ;
#180 = AXIS2_PLACEMENT_3D ( 'NONE', #156, #19, #179 ) ;
#181 = DIRECTION ( 'NONE',  ( 1.000000000000000000, 0.0000000000000000000, 0.0000000000000000000 ) ) ;
#182 = EDGE_CURVE ( 'NONE', #49, #226, #216, .T. ) ;
#183 = ORIENTED_EDGE ( 'NONE', *, *, #74, .T. ) ;
#184 = DIRECTION ( 'NONE',  ( 1.000000000000000000, 0.0000000000000000000, -0.0000000000000000000 ) ) ;
#185 =( NAMED_UNIT ( * ) SI_UNIT ( $, .STERADIAN. ) SOLID_ANGLE_UNIT ( ) );
#186 = AXIS2_PLACEMENT_3D ( 'NONE', #261, #243, #35 ) ;
#187 = VERTEX_POINT ( 'NONE', #147 ) ;
#188 = CARTESIAN_POINT ( 'NONE',  ( 0.0000000000000000000, 0.0000000000000000000, 1.500000000000000222 ) ) ;
#189 = DIRECTION ( 'NONE',  ( 0.7071067811865456854, 8.659560562354911904E-17, -0.7071067811865493491 ) ) ;
#190 = AXIS2_PLACEMENT_3D ( 'NONE', #126, #14, #220 ) ;
#191 = DIRECTION ( 'NONE',  ( -1.000000000000000000, 0.0000000000000000000, 0.0000000000000000000 ) ) ;
#192 = EDGE_CURVE ( 'NONE', #226, #252, #67, .T. ) ;
#193 = CARTESIAN_POINT ( 'NONE',  ( 0.06250000000000000000, 7.654042494670956004E-18, 1.485000000000000764 ) ) ;
#194 = EDGE_CURVE ( 'NONE', #210, #164, #16, .T. ) ;
#195 = DIRECTION ( 'NONE',  ( 0.1736481776669313859, 0.0000000000000000000, 0.9848077530122077983 ) ) ;
#196 = COLOUR_RGB ( '',0.7921568627450980005, 0.8196078431372548767, 0.9333333333333333481 ) ;
#197 = DIRECTION ( 'NONE',  ( -1.000000000000000000, 0.0000000000000000000, 1.224646799147353454E-16 ) ) ;
#198 = ORIENTED_EDGE ( 'NONE', *, *, #273, .F. ) ;
#199 = CARTESIAN_POINT ( 'NONE',  ( 0.06250000000000004163, 7.654042494670960626E-18, 0.3155965466147404586 ) ) ;
#200 = VERTEX_POINT ( 'NONE', #10 ) ;
#201 = EDGE_LOOP ( 'NONE', ( #229, #272, #20, #17 ) ) ;
#202 =( NAMED_UNIT ( * ) SI_UNIT ( $, .STERADIAN. ) SOLID_ANGLE_UNIT ( ) );
#203 = ORIENTED_EDGE ( 'NONE', *, *, #56, .T. ) ;
#204 = VECTOR ( 'NONE', #264, 39.37007874015748143 ) ;
#205 = EDGE_CURVE ( 'NONE', #140, #138, #173, .T. ) ;
#206 =( LENGTH_UNIT ( ) NAMED_UNIT ( * ) SI_UNIT ( $, .METRE. ) );
#207 = UNCERTAINTY_MEASURE_WITH_UNIT (LENGTH_MEASURE( 1.000000000000000082E-05 ), #221, 'distance_accuracy_value', 'NONE');
#208 = EDGE_LOOP ( 'NONE', ( #134, #136, #18, #256 ) ) ;
#209 = DIRECTION ( 'NONE',  ( 1.000000000000000000, 0.0000000000000000000, 0.0000000000000000000 ) ) ;
#210 = VERTEX_POINT ( 'NONE', #265 ) ;
#211 = ADVANCED_FACE ( 'NONE', ( #57 ), #102, .T. ) ;
#212 = CARTESIAN_POINT ( 'NONE',  ( -0.02342654999999998350, 2.868924947256542179E-18, 0.09400000000000001410 ) ) ;
#213 = LINE ( 'NONE', #122, #223 ) ;
#214 = AXIS2_PLACEMENT_3D ( 'NONE', #217, #148, #172 ) ;
#215 = CARTESIAN_POINT ( 'NONE',  ( 0.04750000000000064587, 5.817072295950006528E-18, 1.500000000000000222 ) ) ;
#216 = LINE ( 'NONE', #286, #204 ) ;
#217 = CARTESIAN_POINT ( 'NONE',  ( 0.0000000000000000000, 0.0000000000000000000, 1.485000000000000764 ) ) ;
#218 = ADVANCED_FACE ( 'NONE', ( #270 ), #225, .T. ) ;
#219 = FACE_OUTER_BOUND ( 'NONE', #29, .T. ) ;
#220 = DIRECTION ( 'NONE',  ( -1.000000000000000000, 0.0000000000000000000, 0.0000000000000000000 ) ) ;
#221 =( CONVERSION_BASED_UNIT ( 'INCH', #131 ) LENGTH_UNIT ( ) NAMED_UNIT ( #289 ) );
#222 = FILL_AREA_STYLE_COLOUR ( '', #196 ) ;
#223 = VECTOR ( 'NONE', #6, 39.37007874015748143 ) ;
#224 = LINE ( 'NONE', #247, #231 ) ;
#225 = CYLINDRICAL_SURFACE ( 'NONE', #42, 0.02342654999999999044 ) ;
#226 = VERTEX_POINT ( 'NONE', #155 ) ;
#227 = APPLICATION_PROTOCOL_DEFINITION ( 'draft international standard', 'automotive_design', 1998, #25 ) ;
#228 = EDGE_CURVE ( 'NONE', #252, #226, #170, .T. ) ;
#229 = ORIENTED_EDGE ( 'NONE', *, *, #98, .T. ) ;
#230 = VECTOR ( 'NONE', #189, 39.37007874015748143 ) ;
#231 = VECTOR ( 'NONE', #177, 39.37007874015748143 ) ;
#232 = ORIENTED_EDGE ( 'NONE', *, *, #287, .F. ) ;
#233 = CARTESIAN_POINT ( 'NONE',  ( -0.06250000000000000000, 0.0000000000000000000, 1.485000000000000764 ) ) ;
#234 = AXIS2_PLACEMENT_3D ( 'NONE', #51, #130, #124 ) ;
#235 = AXIS2_PLACEMENT_3D ( 'NONE', #45, #294, #181 ) ;
#236 = UNCERTAINTY_MEASURE_WITH_UNIT (LENGTH_MEASURE( 1.000000000000000082E-05 ), #114, 'distance_accuracy_value', 'NONE');
#237 = DIRECTION ( 'NONE',  ( 0.0000000000000000000, 0.0000000000000000000, 1.000000000000000000 ) ) ;
#238 = LENGTH_MEASURE_WITH_UNIT ( LENGTH_MEASURE( 0.02539999999999999897 ), #73 );
#239 = CARTESIAN_POINT ( 'NONE',  ( 3.864943006337004181E-17, 0.0000000000000000000, 0.3155965466147404586 ) ) ;
#240 = VECTOR ( 'NONE', #195, 39.37007874015748143 ) ;
#241 = DIRECTION ( 'NONE',  ( -0.1736481776669311916, 2.126576849575783316E-17, 0.9848077530122080203 ) ) ;
#242 = DIRECTION ( 'NONE',  ( -1.000000000000000000, 0.0000000000000000000, 1.224646799147353454E-16 ) ) ;
#243 = DIRECTION ( 'NONE',  ( -1.224646799147353454E-16, -0.0000000000000000000, -1.000000000000000000 ) ) ;
#244 = EDGE_CURVE ( 'NONE', #140, #200, #48, .T. ) ;
#245 = AXIS2_PLACEMENT_3D ( 'NONE', #188, #284, #293 ) ;
#246 = FACE_OUTER_BOUND ( 'NONE', #295, .T. ) ;
#247 = CARTESIAN_POINT ( 'NONE',  ( -0.04750000000000064587, 0.0000000000000000000, 1.500000000000000222 ) ) ;
#248 = ORIENTED_EDGE ( 'NONE', *, *, #76, .T. ) ;
#249 = EDGE_CURVE ( 'NONE', #138, #49, #105, .T. ) ;
#250 = SURFACE_STYLE_USAGE ( .BOTH. , #62 ) ;
#251 = AXIS2_PLACEMENT_3D ( 'NONE', #97, #237, #184 ) ;
#252 = VERTEX_POINT ( 'NONE', #199 ) ;
#253 = DIRECTION ( 'NONE',  ( -1.000000000000000000, 0.0000000000000000000, 0.0000000000000000000 ) ) ;
#254 =( NAMED_UNIT ( * ) PLANE_ANGLE_UNIT ( ) SI_UNIT ( $, .RADIAN. ) );
#255 = ORIENTED_EDGE ( 'NONE', *, *, #52, .T. ) ;
#256 = ORIENTED_EDGE ( 'NONE', *, *, #194, .F. ) ;
#257 = ORIENTED_EDGE ( 'NONE', *, *, #249, .T. ) ;
#258 = EDGE_LOOP ( 'NONE', ( #232, #203, #89, #66 ) ) ;
#259 = ORIENTED_EDGE ( 'NONE', *, *, #182, .T. ) ;
#260 = PLANE ( 'NONE',  #46 ) ;
#261 = CARTESIAN_POINT ( 'NONE',  ( 3.513419753651714367E-34, 0.0000000000000000000, 2.868924947256542179E-18 ) ) ;
#262 = AXIS2_PLACEMENT_3D ( 'NONE', #103, #288, #80 ) ;
#263 = DIRECTION ( 'NONE',  ( 1.000000000000000000, 0.0000000000000000000, 0.0000000000000000000 ) ) ;
#264 = DIRECTION ( 'NONE',  ( -0.0000000000000000000, -0.0000000000000000000, -1.000000000000000000 ) ) ;
#265 = CARTESIAN_POINT ( 'NONE',  ( 0.02342654999999999044, 2.868924947256541793E-18, 0.0000000000000000000 ) ) ;
#266 = CONICAL_SURFACE ( 'NONE', #129, 0.04750000000000064587, 0.7853981633974457255 ) ;
#267 = CARTESIAN_POINT ( 'NONE',  ( -0.02342654999999999044, 0.0000000000000000000, 2.868924947256542179E-18 ) ) ;
#268 = EDGE_CURVE ( 'NONE', #200, #140, #116, .T. ) ;
#269 = PRODUCT_RELATED_PRODUCT_CATEGORY ( 'part', '', ( #139 ) ) ;
#270 = FACE_OUTER_BOUND ( 'NONE', #161, .T. ) ;
#271 = EDGE_LOOP ( 'NONE', ( #99, #44 ) ) ;
#272 = ORIENTED_EDGE ( 'NONE', *, *, #33, .T. ) ;
#273 = EDGE_CURVE ( 'NONE', #200, #49, #224, .T. ) ;
#274 = CARTESIAN_POINT ( 'NONE',  ( 1.151167991198512393E-17, 0.0000000000000000000, 0.09400000000000001410 ) ) ;
#275 = DIRECTION ( 'NONE',  ( 1.000000000000000000, 0.0000000000000000000, 0.0000000000000000000 ) ) ;
#276 = ORIENTED_EDGE ( 'NONE', *, *, #287, .T. ) ;
#277 = AXIS2_PLACEMENT_3D ( 'NONE', #55, #81, #242 ) ;
#278 = ORIENTED_EDGE ( 'NONE', *, *, #273, .T. ) ;
#279 = CARTESIAN_POINT ( 'NONE',  ( 0.0000000000000000000, 0.0000000000000000000, 0.0000000000000000000 ) ) ;
#280 = DIRECTION ( 'NONE',  ( -1.224646799147353454E-16, -0.0000000000000000000, -1.000000000000000000 ) ) ;
#281 = CIRCLE ( 'NONE', #234, 0.02342654999999999391 ) ;
#282 = ORIENTED_EDGE ( 'NONE', *, *, #98, .F. ) ;
#283 = FACE_OUTER_BOUND ( 'NONE', #208, .T. ) ;
#284 = DIRECTION ( 'NONE',  ( -0.0000000000000000000, -0.0000000000000000000, -1.000000000000000000 ) ) ;
#285 = CONICAL_SURFACE ( 'NONE', #190, 0.04750000000000064587, 0.7853981633974457255 ) ;
#286 = CARTESIAN_POINT ( 'NONE',  ( -0.06250000000000000000, 0.0000000000000000000, 1.500000000000000222 ) ) ;
#287 = EDGE_CURVE ( 'NONE', #187, #23, #115, .T. ) ;
#288 = DIRECTION ( 'NONE',  ( -1.224646799147353454E-16, -0.0000000000000000000, -1.000000000000000000 ) ) ;
#289 = DIMENSIONAL_EXPONENTS ( 1.000000000000000000, 0.0000000000000000000, 0.0000000000000000000, 0.0000000000000000000, 0.0000000000000000000, 0.0000000000000000000, 0.0000000000000000000 ) ;
#290 = FACE_OUTER_BOUND ( 'NONE', #258, .T. ) ;
#291 = VECTOR ( 'NONE', #241, 39.37007874015747433 ) ;
#292 =( NAMED_UNIT ( * ) PLANE_ANGLE_UNIT ( ) SI_UNIT ( $, .RADIAN. ) );
#293 = DIRECTION ( 'NONE',  ( -1.000000000000000000, 0.0000000000000000000, 0.0000000000000000000 ) ) ;
#294 = DIRECTION ( 'NONE',  ( 0.0000000000000000000, 0.0000000000000000000, 1.000000000000000000 ) ) ;
#295 = EDGE_LOOP ( 'NONE', ( #297, #157, #248, #163 ) ) ;
#296 = STYLED_ITEM ( 'NONE', ( #94 ), #8 ) ;
#297 = ORIENTED_EDGE ( 'NONE', *, *, #56, .F. ) ;
#298 = PRODUCT_DEFINITION ( 'UNKNOWN', '', #166, #59 ) ;
#299 = LINE ( 'NONE', #26, #101 ) ;
ENDSEC;
END-ISO-10303-21;
