ISO-10303-21;
HEADER;
FILE_DESCRIPTION (( 'STEP AP214' ),
    '1' );
FILE_NAME ('83834.STEP',
    '2023-07-05T16:15:06',
    ( '' ),
    ( '' ),
    'SwSTEP 2.0',
    'SolidWorks 2023',
    '' );
FILE_SCHEMA (( 'AUTOMOTIVE_DESIGN' ));
ENDSEC;

DATA;
#1 =( CONVERSION_BASED_UNIT ( 'INCH', #263 ) LENGTH_UNIT ( ) NAMED_UNIT ( #120 ) );
#2 = PRESENTATION_LAYER_ASSIGNMENT (  '', '', ( #133 ) ) ;
#3 = SURFACE_SIDE_STYLE ('',( #183 ) ) ;
#4 = FACE_OUTER_BOUND ( 'NONE', #175, .T. ) ;
#5 = SURFACE_STYLE_USAGE ( .BOTH. , #28 ) ;
#6 = FACE_OUTER_BOUND ( 'NONE', #201, .T. ) ;
#7 = DIRECTION ( 'NONE',  ( -1.215909390471913142E-16, 1.000000000000000000, -0.000000000000000000 ) ) ;
#8 = DIRECTION ( 'NONE',  ( -1.000000000000000000, 0.000000000000000000, 0.000000000000000000 ) ) ;
#9 = APPLICATION_PROTOCOL_DEFINITION ( 'draft international standard', 'automotive_design', 1998, #228 ) ;
#10 =( GEOMETRIC_REPRESENTATION_CONTEXT ( 3 ) GLOBAL_UNCERTAINTY_ASSIGNED_CONTEXT ( ( #53 ) ) GLOBAL_UNIT_ASSIGNED_CONTEXT ( ( #57, #37, #39 ) ) REPRESENTATION_CONTEXT ( 'NONE', 'WORKASPACE' ) );
#11 = ORIENTED_EDGE ( 'NONE', *, *, #219, .F. ) ;
#12 =( GEOMETRIC_REPRESENTATION_CONTEXT ( 3 ) GLOBAL_UNCERTAINTY_ASSIGNED_CONTEXT ( ( #90 ) ) GLOBAL_UNIT_ASSIGNED_CONTEXT ( ( #164, #148, #42 ) ) REPRESENTATION_CONTEXT ( 'NONE', 'WORKASPACE' ) );
#13 = CARTESIAN_POINT ( 'NONE',  ( 2.859903368367275526E-16, 0.1443375672974056556, 0.000000000000000000 ) ) ;
#14 = AXIS2_PLACEMENT_3D ( 'NONE', #89, #189, #191 ) ;
#15 = EDGE_CURVE ( 'NONE', #123, #221, #249, .T. ) ;
#16 = DIRECTION ( 'NONE',  ( -1.000000000000000000, 0.000000000000000000, 0.000000000000000000 ) ) ;
#17 = DIRECTION ( 'NONE',  ( -1.000000000000000000, 5.452639220268612365E-18, 0.000000000000000000 ) ) ;
#18 = CARTESIAN_POINT ( 'NONE',  ( -0.2500000000000001110, 3.000000000000000444, 0.000000000000000000 ) ) ;
#19 = ORIENTED_EDGE ( 'NONE', *, *, #223, .F. ) ;
#20 =( CONVERSION_BASED_UNIT ( 'INCH', #160 ) LENGTH_UNIT ( ) NAMED_UNIT ( #156 ) );
#21 = SURFACE_STYLE_FILL_AREA ( #252 ) ;
#22 = DIRECTION ( 'NONE',  ( -1.000000000000000000, 0.000000000000000000, 0.000000000000000000 ) ) ;
#23 = DIRECTION ( 'NONE',  ( -1.215909390471913142E-16, 1.000000000000000000, -0.000000000000000000 ) ) ;
#24 = AXIS2_PLACEMENT_3D ( 'NONE', #224, #180, #16 ) ;
#25 = AXIS2_PLACEMENT_3D ( 'NONE', #50, #147, #47 ) ;
#26 = PRODUCT ( '83834', '83834', '', ( #27 ) ) ;
#27 = PRODUCT_CONTEXT ( 'NONE', #108, 'mechanical' ) ;
#28 = SURFACE_SIDE_STYLE ('',( #21 ) ) ;
#29 = CARTESIAN_POINT ( 'NONE',  ( 7.870206804039943619E-19, 0.1443375672974056556, 0.000000000000000000 ) ) ;
#30 = LENGTH_MEASURE_WITH_UNIT ( LENGTH_MEASURE( 0.02539999999999999897 ), #145 );
#31 = ORIENTED_EDGE ( 'NONE', *, *, #257, .T. ) ;
#32 = VECTOR ( 'NONE', #187, 39.37007874015748854 ) ;
#33 = ORIENTED_EDGE ( 'NONE', *, *, #15, .F. ) ;
#34 = PRESENTATION_STYLE_ASSIGNMENT (( #181 ) ) ;
#35 = PRESENTATION_LAYER_ASSIGNMENT (  '', '', ( #151 ) ) ;
#36 = MECHANICAL_DESIGN_GEOMETRIC_PRESENTATION_REPRESENTATION (  '', ( #85 ), #106 ) ;
#37 =( NAMED_UNIT ( * ) PLANE_ANGLE_UNIT ( ) SI_UNIT ( $, .RADIAN. ) );
#38 = FACE_OUTER_BOUND ( 'NONE', #186, .T. ) ;
#39 =( NAMED_UNIT ( * ) SI_UNIT ( $, .STERADIAN. ) SOLID_ANGLE_UNIT ( ) );
#40 =( LENGTH_UNIT ( ) NAMED_UNIT ( * ) SI_UNIT ( $, .METRE. ) );
#41 =( NAMED_UNIT ( * ) PLANE_ANGLE_UNIT ( ) SI_UNIT ( $, .RADIAN. ) );
#42 =( NAMED_UNIT ( * ) SI_UNIT ( $, .STERADIAN. ) SOLID_ANGLE_UNIT ( ) );
#43 = CARTESIAN_POINT ( 'NONE',  ( 0.2500000000000000000, 0.1443375672974056556, 3.061616997868383018E-17 ) ) ;
#44 = FILL_AREA_STYLE_COLOUR ( '', #159 ) ;
#45 = AXIS2_PLACEMENT_3D ( 'NONE', #161, #158, #92 ) ;
#46 = MECHANICAL_DESIGN_GEOMETRIC_PRESENTATION_REPRESENTATION (  '', ( #154 ), #68 ) ;
#47 = DIRECTION ( 'NONE',  ( 1.000000000000000000, 0.000000000000000000, 0.000000000000000000 ) ) ;
#48 = DIRECTION ( 'NONE',  ( -1.215909390471913142E-16, 1.000000000000000000, -0.000000000000000000 ) ) ;
#49 = ORIENTED_EDGE ( 'NONE', *, *, #204, .T. ) ;
#50 = CARTESIAN_POINT ( 'NONE',  ( 7.870206804039943619E-19, 0.1443375672974056556, 0.000000000000000000 ) ) ;
#51 = CARTESIAN_POINT ( 'NONE',  ( 2.859903368367275526E-16, 0.1443375672974054336, 0.000000000000000000 ) ) ;
#52 = PRODUCT_DEFINITION_SHAPE ( 'NONE', 'NONE',  #144 ) ;
#53 = UNCERTAINTY_MEASURE_WITH_UNIT (LENGTH_MEASURE( 1.000000000000000082E-05 ), #57, 'distance_accuracy_value', 'NONE');
#54 = VERTEX_POINT ( 'NONE', #245 ) ;
#55 = ORIENTED_EDGE ( 'NONE', *, *, #210, .T. ) ;
#56 = AXIS2_PLACEMENT_3D ( 'NONE', #84, #235, #8 ) ;
#57 =( CONVERSION_BASED_UNIT ( 'INCH', #262 ) LENGTH_UNIT ( ) NAMED_UNIT ( #100 ) );
#58 = DIRECTION ( 'NONE',  ( 5.452639220268612365E-18, 1.000000000000000000, 0.000000000000000000 ) ) ;
#59 = EDGE_LOOP ( 'NONE', ( #220, #49, #55 ) ) ;
#60 =( LENGTH_UNIT ( ) NAMED_UNIT ( * ) SI_UNIT ( $, .METRE. ) );
#61 = VECTOR ( 'NONE', #234, 39.37007874015748854 ) ;
#62 = SURFACE_STYLE_USAGE ( .BOTH. , #119 ) ;
#63 = SURFACE_SIDE_STYLE ('',( #247 ) ) ;
#64 =( NAMED_UNIT ( * ) PLANE_ANGLE_UNIT ( ) SI_UNIT ( $, .RADIAN. ) );
#65 = CARTESIAN_POINT ( 'NONE',  ( -6.123233995736772199E-17, 3.000000000000000444, 0.000000000000000000 ) ) ;
#66 = DIRECTION ( 'NONE',  ( -1.215909390471913142E-16, 1.000000000000000000, -0.000000000000000000 ) ) ;
#67 = CYLINDRICAL_SURFACE ( 'NONE', #260, 0.2499999999999998890 ) ;
#68 =( GEOMETRIC_REPRESENTATION_CONTEXT ( 3 ) GLOBAL_UNCERTAINTY_ASSIGNED_CONTEXT ( ( #200 ) ) GLOBAL_UNIT_ASSIGNED_CONTEXT ( ( #20, #64, #233 ) ) REPRESENTATION_CONTEXT ( 'NONE', 'WORKASPACE' ) );
#69 = ADVANCED_FACE ( 'NONE', ( #38 ), #125, .F. ) ;
#70 = ADVANCED_FACE ( 'NONE', ( #4 ), #80, .F. ) ;
#71 = CIRCLE ( 'NONE', #256, 0.2499999999999999722 ) ;
#72 = MECHANICAL_DESIGN_GEOMETRIC_PRESENTATION_REPRESENTATION (  '', ( #151 ), #10 ) ;
#73 = PRODUCT_DEFINITION_FORMATION_WITH_SPECIFIED_SOURCE ( 'ANY', '', #26, .NOT_KNOWN. ) ;
#74 = ORIENTED_EDGE ( 'NONE', *, *, #129, .F. ) ;
#75 =( CONVERSION_BASED_UNIT ( 'INCH', #163 ) LENGTH_UNIT ( ) NAMED_UNIT ( #140 ) );
#76 = ORIENTED_EDGE ( 'NONE', *, *, #204, .F. ) ;
#77 = ORIENTED_EDGE ( 'NONE', *, *, #116, .F. ) ;
#78 = CARTESIAN_POINT ( 'NONE',  ( 7.870206804039943619E-19, 0.1443375672974056556, 0.000000000000000000 ) ) ;
#79 = EDGE_CURVE ( 'NONE', #264, #241, #83, .T. ) ;
#80 = PLANE ( 'NONE',  #132 ) ;
#81 = FILL_AREA_STYLE ('',( #230 ) ) ;
#82 = CARTESIAN_POINT ( 'NONE',  ( 0.000000000000000000, 0.000000000000000000, 0.000000000000000000 ) ) ;
#83 = CIRCLE ( 'NONE', #239, 0.2499999999999997224 ) ;
#84 = CARTESIAN_POINT ( 'NONE',  ( -6.123233995736772199E-17, 3.000000000000000444, 0.000000000000000000 ) ) ;
#85 = STYLED_ITEM ( 'NONE', ( #98 ), #193 ) ;
#86 = FACE_OUTER_BOUND ( 'NONE', #114, .T. ) ;
#87 = DIRECTION ( 'NONE',  ( 5.452639220268612365E-18, 1.000000000000000000, 0.000000000000000000 ) ) ;
#88 = SURFACE_STYLE_USAGE ( .BOTH. , #192 ) ;
#89 = CARTESIAN_POINT ( 'NONE',  ( 0.000000000000000000, 0.000000000000000000, 0.000000000000000000 ) ) ;
#90 = UNCERTAINTY_MEASURE_WITH_UNIT (LENGTH_MEASURE( 1.000000000000000082E-05 ), #164, 'distance_accuracy_value', 'NONE');
#91 =( GEOMETRIC_REPRESENTATION_CONTEXT ( 3 ) GLOBAL_UNCERTAINTY_ASSIGNED_CONTEXT ( ( #115 ) ) GLOBAL_UNIT_ASSIGNED_CONTEXT ( ( #216, #218, #251 ) ) REPRESENTATION_CONTEXT ( 'NONE', 'WORKASPACE' ) );
#92 = DIRECTION ( 'NONE',  ( 1.000000000000000000, 1.215909390471913142E-16, 0.000000000000000000 ) ) ;
#93 = COLOUR_RGB ( '',1.000000000000000000, 0.000000000000000000, 0.000000000000000000 ) ;
#94 = DIRECTION ( 'NONE',  ( -1.000000000000000000, -1.365923996832133088E-16, 0.000000000000000000 ) ) ;
#95 = PRODUCT_RELATED_PRODUCT_CATEGORY ( 'part', '', ( #26 ) ) ;
#96 = CARTESIAN_POINT ( 'NONE',  ( 2.859903368367275526E-16, 0.1443375672974054336, 0.000000000000000000 ) ) ;
#97 = FILL_AREA_STYLE ('',( #137 ) ) ;
#98 = PRESENTATION_STYLE_ASSIGNMENT (( #88 ) ) ;
#99 = ORIENTED_EDGE ( 'NONE', *, *, #129, .T. ) ;
#100 = DIMENSIONAL_EXPONENTS ( 1.000000000000000000, 0.000000000000000000, 0.000000000000000000, 0.000000000000000000, 0.000000000000000000, 0.000000000000000000, 0.000000000000000000 ) ;
#101 = FACE_OUTER_BOUND ( 'NONE', #112, .T. ) ;
#102 =( LENGTH_UNIT ( ) NAMED_UNIT ( * ) SI_UNIT ( $, .METRE. ) );
#103 = CYLINDRICAL_SURFACE ( 'NONE', #56, 0.2499999999999998890 ) ;
#104 = APPLICATION_PROTOCOL_DEFINITION ( 'draft international standard', 'automotive_design', 1998, #108 ) ;
#105 = PRESENTATION_STYLE_ASSIGNMENT (( #5 ) ) ;
#106 =( GEOMETRIC_REPRESENTATION_CONTEXT ( 3 ) GLOBAL_UNCERTAINTY_ASSIGNED_CONTEXT ( ( #153 ) ) GLOBAL_UNIT_ASSIGNED_CONTEXT ( ( #1, #41, #122 ) ) REPRESENTATION_CONTEXT ( 'NONE', 'WORKASPACE' ) );
#107 = LINE ( 'NONE', #194, #261 ) ;
#108 = APPLICATION_CONTEXT ( 'automotive_design' ) ;
#109 = SURFACE_STYLE_FILL_AREA ( #126 ) ;
#110 = MANIFOLD_SOLID_BREP ( 'Revolve - Tool Body (Pointed)', #202 ) ;
#111 = MECHANICAL_DESIGN_GEOMETRIC_PRESENTATION_REPRESENTATION (  '', ( #133 ), #250 ) ;
#112 = EDGE_LOOP ( 'NONE', ( #134, #199 ) ) ;
#113 = PRESENTATION_LAYER_ASSIGNMENT (  '', '', ( #85 ) ) ;
#114 = EDGE_LOOP ( 'NONE', ( #135, #117, #33, #19 ) ) ;
#115 = UNCERTAINTY_MEASURE_WITH_UNIT (LENGTH_MEASURE( 1.000000000000000082E-05 ), #216, 'distance_accuracy_value', 'NONE');
#116 = EDGE_CURVE ( 'NONE', #241, #221, #182, .T. ) ;
#117 = ORIENTED_EDGE ( 'NONE', *, *, #116, .T. ) ;
#118 = COLOUR_RGB ( '',0.7921568627450980005, 0.8196078431372548767, 0.9333333333333333481 ) ;
#119 = SURFACE_SIDE_STYLE ('',( #225 ) ) ;
#120 = DIMENSIONAL_EXPONENTS ( 1.000000000000000000, 0.000000000000000000, 0.000000000000000000, 0.000000000000000000, 0.000000000000000000, 0.000000000000000000, 0.000000000000000000 ) ;
#121 = DIRECTION ( 'NONE',  ( -1.000000000000000000, -1.215909390471913142E-16, 0.000000000000000000 ) ) ;
#122 =( NAMED_UNIT ( * ) SI_UNIT ( $, .STERADIAN. ) SOLID_ANGLE_UNIT ( ) );
#123 = VERTEX_POINT ( 'NONE', #18 ) ;
#124 = COLOUR_RGB ( '',1.000000000000000000, 0.000000000000000000, 0.000000000000000000 ) ;
#125 = PLANE ( 'NONE',  #45 ) ;
#126 = FILL_AREA_STYLE ('',( #44 ) ) ;
#127 = DIRECTION ( 'NONE',  ( 5.452639220268612365E-18, 1.000000000000000000, 0.000000000000000000 ) ) ;
#128 = PRESENTATION_LAYER_ASSIGNMENT (  '', '', ( #154 ) ) ;
#129 = EDGE_CURVE ( 'NONE', #221, #123, #172, .T. ) ;
#130 = DIRECTION ( 'NONE',  ( -1.000000000000000000, -1.365923996832133088E-16, 0.000000000000000000 ) ) ;
#131 = LINE ( 'NONE', #258, #61 ) ;
#132 = AXIS2_PLACEMENT_3D ( 'NONE', #13, #162, #121 ) ;
#133 = STYLED_ITEM ( 'NONE', ( #34 ), #196 ) ;
#134 = ORIENTED_EDGE ( 'NONE', *, *, #210, .F. ) ;
#135 = ORIENTED_EDGE ( 'NONE', *, *, #79, .T. ) ;
#136 = AXIS2_PLACEMENT_3D ( 'NONE', #253, #127, #22 ) ;
#137 = FILL_AREA_STYLE_COLOUR ( '', #118 ) ;
#138 = FACE_OUTER_BOUND ( 'NONE', #59, .T. ) ;
#139 = ORIENTED_EDGE ( 'NONE', *, *, #223, .T. ) ;
#140 = DIMENSIONAL_EXPONENTS ( 1.000000000000000000, 0.000000000000000000, 0.000000000000000000, 0.000000000000000000, 0.000000000000000000, 0.000000000000000000, 0.000000000000000000 ) ;
#141 = CONICAL_SURFACE ( 'NONE', #136, 68.19097667594041923, 1.047197551196600074 ) ;
#142 = ORIENTED_EDGE ( 'NONE', *, *, #244, .T. ) ;
#143 = CIRCLE ( 'NONE', #25, 0.2499999999999999722 ) ;
#144 = PRODUCT_DEFINITION ( 'UNKNOWN', '', #73, #222 ) ;
#145 =( LENGTH_UNIT ( ) NAMED_UNIT ( * ) SI_UNIT ( $, .METRE. ) );
#146 = CARTESIAN_POINT ( 'NONE',  ( -6.123233995736772199E-17, 3.000000000000000444, 0.000000000000000000 ) ) ;
#147 = DIRECTION ( 'NONE',  ( -5.452639220268612365E-18, -1.000000000000000000, -0.000000000000000000 ) ) ;
#148 =( NAMED_UNIT ( * ) PLANE_ANGLE_UNIT ( ) SI_UNIT ( $, .RADIAN. ) );
#149 = DIRECTION ( 'NONE',  ( 1.000000000000000000, 0.000000000000000000, 0.000000000000000000 ) ) ;
#150 = CARTESIAN_POINT ( 'NONE',  ( 0.2500000000000000000, 3.000000000000000444, 3.061616997868382402E-17 ) ) ;
#151 = STYLED_ITEM ( 'NONE', ( #205 ), #110 ) ;
#152 = MECHANICAL_DESIGN_GEOMETRIC_PRESENTATION_REPRESENTATION (  '', ( #166 ), #12 ) ;
#153 = UNCERTAINTY_MEASURE_WITH_UNIT (LENGTH_MEASURE( 1.000000000000000082E-05 ), #1, 'distance_accuracy_value', 'NONE');
#154 = STYLED_ITEM ( 'NONE', ( #157 ), #197 ) ;
#155 = SURFACE_STYLE_USAGE ( .BOTH. , #63 ) ;
#156 = DIMENSIONAL_EXPONENTS ( 1.000000000000000000, 0.000000000000000000, 0.000000000000000000, 0.000000000000000000, 0.000000000000000000, 0.000000000000000000, 0.000000000000000000 ) ;
#157 = PRESENTATION_STYLE_ASSIGNMENT (( #62 ) ) ;
#158 = DIRECTION ( 'NONE',  ( 1.215909390471913142E-16, -1.000000000000000000, 0.000000000000000000 ) ) ;
#159 = COLOUR_RGB ( '',0.7921568627450980005, 0.8196078431372548767, 0.9333333333333333481 ) ;
#160 = LENGTH_MEASURE_WITH_UNIT ( LENGTH_MEASURE( 0.02539999999999999897 ), #60 );
#161 = CARTESIAN_POINT ( 'NONE',  ( 0.2500000000000000000, 3.000000000000000444, 0.000000000000000000 ) ) ;
#162 = DIRECTION ( 'NONE',  ( -1.215909390471913142E-16, 1.000000000000000000, 0.000000000000000000 ) ) ;
#163 = LENGTH_MEASURE_WITH_UNIT ( LENGTH_MEASURE( 0.02539999999999999897 ), #213 );
#164 =( CONVERSION_BASED_UNIT ( 'INCH', #167 ) LENGTH_UNIT ( ) NAMED_UNIT ( #207 ) );
#165 = DIRECTION ( 'NONE',  ( -5.452639220268612365E-18, -1.000000000000000000, -0.000000000000000000 ) ) ;
#166 = STYLED_ITEM ( 'NONE', ( #105 ), #173 ) ;
#167 = LENGTH_MEASURE_WITH_UNIT ( LENGTH_MEASURE( 0.02539999999999999897 ), #102 );
#168 = ADVANCED_FACE ( 'NONE', ( #86 ), #67, .T. ) ;
#169 = DIRECTION ( 'NONE',  ( -1.000000000000000000, 0.000000000000000000, 0.000000000000000000 ) ) ;
#170 = CARTESIAN_POINT ( 'NONE',  ( 0.2499999999999998335, 3.000000000000000444, 3.061616997868381785E-17 ) ) ;
#171 = SHAPE_DEFINITION_REPRESENTATION ( #52, #177 ) ;
#172 = CIRCLE ( 'NONE', #246, 0.2500000000000000555 ) ;
#173 = ADVANCED_FACE ( 'NONE', ( #190 ), #141, .T. ) ;
#174 = CARTESIAN_POINT ( 'NONE',  ( -0.2499999999999994449, 0.1443375672974054058, 0.000000000000000000 ) ) ;
#175 = EDGE_LOOP ( 'NONE', ( #226, #11 ) ) ;
#176 = ADVANCED_FACE ( 'NONE', ( #6 ), #103, .T. ) ;
#177 = ADVANCED_BREP_SHAPE_REPRESENTATION ( '83834', ( #193, #110, #14 ), #91 ) ;
#178 =( LENGTH_UNIT ( ) NAMED_UNIT ( * ) SI_UNIT ( $, .METRE. ) );
#179 = CLOSED_SHELL ( 'NONE', ( #173, #196, #197 ) ) ;
#180 = DIRECTION ( 'NONE',  ( -1.215909390471913142E-16, 1.000000000000000000, -0.000000000000000000 ) ) ;
#181 = SURFACE_STYLE_USAGE ( .BOTH. , #3 ) ;
#182 = LINE ( 'NONE', #170, #203 ) ;
#183 = SURFACE_STYLE_FILL_AREA ( #231 ) ;
#184 = CONICAL_SURFACE ( 'NONE', #227, 68.19097667594041923, 1.047197551196600074 ) ;
#185 = PLANE ( 'NONE',  #242 ) ;
#186 = EDGE_LOOP ( 'NONE', ( #198, #99 ) ) ;
#187 = DIRECTION ( 'NONE',  ( -0.8660254037844397068, 0.4999999999999979461, 0.000000000000000000 ) ) ;
#188 = FILL_AREA_STYLE_COLOUR ( '', #93 ) ;
#189 = DIRECTION ( 'NONE',  ( 0.000000000000000000, 0.000000000000000000, 1.000000000000000000 ) ) ;
#190 = FACE_OUTER_BOUND ( 'NONE', #243, .T. ) ;
#191 = DIRECTION ( 'NONE',  ( 1.000000000000000000, 0.000000000000000000, 0.000000000000000000 ) ) ;
#192 = SURFACE_SIDE_STYLE ('',( #109 ) ) ;
#193 = MANIFOLD_SOLID_BREP ( 'Revolve - Cutting Edge', #179 ) ;
#194 = CARTESIAN_POINT ( 'NONE',  ( -0.2499999999999999722, 3.000000000000000444, 0.000000000000000000 ) ) ;
#195 = CIRCLE ( 'NONE', #232, 0.2499999999999997224 ) ;
#196 = ADVANCED_FACE ( 'NONE', ( #101 ), #185, .T. ) ;
#197 = ADVANCED_FACE ( 'NONE', ( #138 ), #184, .T. ) ;
#198 = ORIENTED_EDGE ( 'NONE', *, *, #15, .T. ) ;
#199 = ORIENTED_EDGE ( 'NONE', *, *, #257, .F. ) ;
#200 = UNCERTAINTY_MEASURE_WITH_UNIT (LENGTH_MEASURE( 1.000000000000000082E-05 ), #20, 'distance_accuracy_value', 'NONE');
#201 = EDGE_LOOP ( 'NONE', ( #77, #209, #139, #74 ) ) ;
#202 = CLOSED_SHELL ( 'NONE', ( #168, #70, #176, #69 ) ) ;
#203 = VECTOR ( 'NONE', #214, 39.37007874015748143 ) ;
#204 = EDGE_CURVE ( 'NONE', #54, #229, #236, .T. ) ;
#205 = PRESENTATION_STYLE_ASSIGNMENT (( #155 ) ) ;
#206 = DIRECTION ( 'NONE',  ( -1.215909390471913142E-16, 1.000000000000000000, -0.000000000000000000 ) ) ;
#207 = DIMENSIONAL_EXPONENTS ( 1.000000000000000000, 0.000000000000000000, 0.000000000000000000, 0.000000000000000000, 0.000000000000000000, 0.000000000000000000, 0.000000000000000000 ) ;
#208 =( NAMED_UNIT ( * ) PLANE_ANGLE_UNIT ( ) SI_UNIT ( $, .RADIAN. ) );
#209 = ORIENTED_EDGE ( 'NONE', *, *, #219, .T. ) ;
#210 = EDGE_CURVE ( 'NONE', #229, #212, #71, .T. ) ;
#211 = CARTESIAN_POINT ( 'NONE',  ( 2.146708354436461711E-16, 39.37007874015748143, 0.000000000000000000 ) ) ;
#212 = VERTEX_POINT ( 'NONE', #43 ) ;
#213 =( LENGTH_UNIT ( ) NAMED_UNIT ( * ) SI_UNIT ( $, .METRE. ) );
#214 = DIRECTION ( 'NONE',  ( -1.215909390471913142E-16, 1.000000000000000000, -0.000000000000000000 ) ) ;
#215 = FILL_AREA_STYLE_COLOUR ( '', #240 ) ;
#216 =( CONVERSION_BASED_UNIT ( 'INCH', #30 ) LENGTH_UNIT ( ) NAMED_UNIT ( #265 ) );
#217 = DIRECTION ( 'NONE',  ( -1.000000000000000000, 0.000000000000000000, 0.000000000000000000 ) ) ;
#218 =( NAMED_UNIT ( * ) PLANE_ANGLE_UNIT ( ) SI_UNIT ( $, .RADIAN. ) );
#219 = EDGE_CURVE ( 'NONE', #241, #264, #195, .T. ) ;
#220 = ORIENTED_EDGE ( 'NONE', *, *, #244, .F. ) ;
#221 = VERTEX_POINT ( 'NONE', #150 ) ;
#222 = PRODUCT_DEFINITION_CONTEXT ( 'detailed design', #228, 'design' ) ;
#223 = EDGE_CURVE ( 'NONE', #264, #123, #107, .T. ) ;
#224 = CARTESIAN_POINT ( 'NONE',  ( -6.123233995736772199E-17, 3.000000000000000444, 0.000000000000000000 ) ) ;
#225 = SURFACE_STYLE_FILL_AREA ( #81 ) ;
#226 = ORIENTED_EDGE ( 'NONE', *, *, #79, .F. ) ;
#227 = AXIS2_PLACEMENT_3D ( 'NONE', #211, #87, #169 ) ;
#228 = APPLICATION_CONTEXT ( 'automotive_design' ) ;
#229 = VERTEX_POINT ( 'NONE', #238 ) ;
#230 = FILL_AREA_STYLE_COLOUR ( '', #124 ) ;
#231 = FILL_AREA_STYLE ('',( #215 ) ) ;
#232 = AXIS2_PLACEMENT_3D ( 'NONE', #51, #7, #130 ) ;
#233 =( NAMED_UNIT ( * ) SI_UNIT ( $, .STERADIAN. ) SOLID_ANGLE_UNIT ( ) );
#234 = DIRECTION ( 'NONE',  ( 0.8660254037844397068, 0.4999999999999979461, 1.060575238724908024E-16 ) ) ;
#235 = DIRECTION ( 'NONE',  ( -1.215909390471913142E-16, 1.000000000000000000, -0.000000000000000000 ) ) ;
#236 = LINE ( 'NONE', #82, #32 ) ;
#237 = PRESENTATION_LAYER_ASSIGNMENT (  '', '', ( #166 ) ) ;
#238 = CARTESIAN_POINT ( 'NONE',  ( -0.2500000000000000000, 0.1443375672974056556, 0.000000000000000000 ) ) ;
#239 = AXIS2_PLACEMENT_3D ( 'NONE', #96, #206, #94 ) ;
#240 = COLOUR_RGB ( '',1.000000000000000000, 0.000000000000000000, 0.000000000000000000 ) ;
#241 = VERTEX_POINT ( 'NONE', #254 ) ;
#242 = AXIS2_PLACEMENT_3D ( 'NONE', #78, #58, #17 ) ;
#243 = EDGE_LOOP ( 'NONE', ( #76, #142, #31 ) ) ;
#244 = EDGE_CURVE ( 'NONE', #54, #212, #131, .T. ) ;
#245 = CARTESIAN_POINT ( 'NONE',  ( 0.000000000000000000, 0.000000000000000000, 0.000000000000000000 ) ) ;
#246 = AXIS2_PLACEMENT_3D ( 'NONE', #146, #23, #255 ) ;
#247 = SURFACE_STYLE_FILL_AREA ( #97 ) ;
#248 =( NAMED_UNIT ( * ) SI_UNIT ( $, .STERADIAN. ) SOLID_ANGLE_UNIT ( ) );
#249 = CIRCLE ( 'NONE', #24, 0.2500000000000000555 ) ;
#250 =( GEOMETRIC_REPRESENTATION_CONTEXT ( 3 ) GLOBAL_UNCERTAINTY_ASSIGNED_CONTEXT ( ( #259 ) ) GLOBAL_UNIT_ASSIGNED_CONTEXT ( ( #75, #208, #248 ) ) REPRESENTATION_CONTEXT ( 'NONE', 'WORKASPACE' ) );
#251 =( NAMED_UNIT ( * ) SI_UNIT ( $, .STERADIAN. ) SOLID_ANGLE_UNIT ( ) );
#252 = FILL_AREA_STYLE ('',( #188 ) ) ;
#253 = CARTESIAN_POINT ( 'NONE',  ( 2.146708354436461711E-16, 39.37007874015748143, 0.000000000000000000 ) ) ;
#254 = CARTESIAN_POINT ( 'NONE',  ( 0.2500000000000000000, 0.1443375672974054613, 3.061616997868382402E-17 ) ) ;
#255 = DIRECTION ( 'NONE',  ( -1.000000000000000000, 0.000000000000000000, 0.000000000000000000 ) ) ;
#256 = AXIS2_PLACEMENT_3D ( 'NONE', #29, #165, #149 ) ;
#257 = EDGE_CURVE ( 'NONE', #212, #229, #143, .T. ) ;
#258 = CARTESIAN_POINT ( 'NONE',  ( 0.000000000000000000, 0.000000000000000000, 0.000000000000000000 ) ) ;
#259 = UNCERTAINTY_MEASURE_WITH_UNIT (LENGTH_MEASURE( 1.000000000000000082E-05 ), #75, 'distance_accuracy_value', 'NONE');
#260 = AXIS2_PLACEMENT_3D ( 'NONE', #65, #48, #217 ) ;
#261 = VECTOR ( 'NONE', #66, 39.37007874015748143 ) ;
#262 = LENGTH_MEASURE_WITH_UNIT ( LENGTH_MEASURE( 0.02539999999999999897 ), #178 );
#263 = LENGTH_MEASURE_WITH_UNIT ( LENGTH_MEASURE( 0.02539999999999999897 ), #40 );
#264 = VERTEX_POINT ( 'NONE', #174 ) ;
#265 = DIMENSIONAL_EXPONENTS ( 1.000000000000000000, 0.000000000000000000, 0.000000000000000000, 0.000000000000000000, 0.000000000000000000, 0.000000000000000000, 0.000000000000000000 ) ;
ENDSEC;
END-ISO-10303-21;
