ISO-10303-21;
HEADER;
FILE_DESCRIPTION (( 'STEP AP214' ),
    '1' );
FILE_NAME ('Micro_AEMM-250-2X.STEP',
    '2022-03-15T14:35:04',
    ( '' ),
    ( '' ),
    'SwSTEP 2.0',
    'SolidWorks 2022',
    '' );
FILE_SCHEMA (( 'AUTOMOTIVE_DESIGN' ));
ENDSEC;

DATA;
#1 = DIRECTION ( 'NONE',  ( -1.224646799147353207E-16, -0.000000000000000000, -1.000000000000000000 ) ) ;
#2 = CARTESIAN_POINT ( 'NONE',  ( 0.4921260000000002299, 6.026805306771906840E-17, 1.971294985236761610 ) ) ;
#3 = DIRECTION ( 'NONE',  ( -1.000000000000000000, 0.000000000000000000, 0.000000000000000000 ) ) ;
#4 = AXIS2_PLACEMENT_3D ( 'NONE', #249, #1, #126 ) ;
#5 = DIRECTION ( 'NONE',  ( 0.000000000000000000, 0.000000000000000000, -1.000000000000000000 ) ) ;
#6 = CARTESIAN_POINT ( 'NONE',  ( -0.4916338739999996932, 6.020778501465131698E-17, 1.968503999999999809 ) ) ;
#7 = ADVANCED_FACE ( 'NONE', ( #107 ), #106, .T. ) ;
#8 = ORIENTED_EDGE ( 'NONE', *, *, #177, .T. ) ;
#9 = CIRCLE ( 'NONE', #87, 0.4771260000000004387 ) ;
#10 = FILL_AREA_STYLE ('',( #135 ) ) ;
#11 = VERTEX_POINT ( 'NONE', #244 ) ;
#12 =( NAMED_UNIT ( * ) PLANE_ANGLE_UNIT ( ) SI_UNIT ( $, .RADIAN. ) );
#13 = EDGE_CURVE ( 'NONE', #284, #252, #172, .T. ) ;
#14 = CARTESIAN_POINT ( 'NONE',  ( -0.4921259999999997858, 0.000000000000000000, 1.971294985236761610 ) ) ;
#15 = CARTESIAN_POINT ( 'NONE',  ( 0.4916338740000002483, 0.000000000000000000, 1.968503999999999809 ) ) ;
#16 =( CONVERSION_BASED_UNIT ( 'INCH', #115 ) LENGTH_UNIT ( ) NAMED_UNIT ( #298 ) );
#17 = AXIS2_PLACEMENT_3D ( 'NONE', #169, #158, #226 ) ;
#18 = FACE_OUTER_BOUND ( 'NONE', #261, .T. ) ;
#19 = CARTESIAN_POINT ( 'NONE',  ( 0.4916338740000000262, 6.020778501465132931E-17, -6.020778501465132931E-17 ) ) ;
#20 = VERTEX_POINT ( 'NONE', #14 ) ;
#21 = FILL_AREA_STYLE_COLOUR ( '', #239 ) ;
#22 = CARTESIAN_POINT ( 'NONE',  ( 2.410722122708761257E-16, 0.000000000000000000, 1.968503999999999809 ) ) ;
#23 = FILL_AREA_STYLE ('',( #21 ) ) ;
#24 = DIRECTION ( 'NONE',  ( -0.7071067811865459074, 0.000000000000000000, -0.7071067811865491270 ) ) ;
#25 = UNCERTAINTY_MEASURE_WITH_UNIT (LENGTH_MEASURE( 1.000000000000000082E-05 ), #16, 'distance_accuracy_value', 'NONE');
#26 = FACE_OUTER_BOUND ( 'NONE', #163, .T. ) ;
#27 = AXIS2_PLACEMENT_3D ( 'NONE', #297, #125, #72 ) ;
#28 = ORIENTED_EDGE ( 'NONE', *, *, #224, .T. ) ;
#29 = ORIENTED_EDGE ( 'NONE', *, *, #66, .F. ) ;
#30 = CIRCLE ( 'NONE', #256, 0.4921260000000000634 ) ;
#31 =( GEOMETRIC_REPRESENTATION_CONTEXT ( 3 ) GLOBAL_UNCERTAINTY_ASSIGNED_CONTEXT ( ( #247 ) ) GLOBAL_UNIT_ASSIGNED_CONTEXT ( ( #213, #12, #109 ) ) REPRESENTATION_CONTEXT ( 'NONE', 'WORKASPACE' ) );
#32 = ORIENTED_EDGE ( 'NONE', *, *, #13, .T. ) ;
#33 = FACE_OUTER_BOUND ( 'NONE', #204, .T. ) ;
#34 =( NAMED_UNIT ( * ) PLANE_ANGLE_UNIT ( ) SI_UNIT ( $, .RADIAN. ) );
#35 = ORIENTED_EDGE ( 'NONE', *, *, #224, .F. ) ;
#36 = CIRCLE ( 'NONE', #276, 0.4916338740000000262 ) ;
#37 = CIRCLE ( 'NONE', #88, 0.4916338739999999707 ) ;
#38 =( CONVERSION_BASED_UNIT ( 'INCH', #178 ) LENGTH_UNIT ( ) NAMED_UNIT ( #291 ) );
#39 = CARTESIAN_POINT ( 'NONE',  ( 0.000000000000000000, 0.000000000000000000, 0.000000000000000000 ) ) ;
#40 = APPLICATION_CONTEXT ( 'automotive_design' ) ;
#41 = CARTESIAN_POINT ( 'NONE',  ( -0.4916338740000000262, 0.000000000000000000, 6.020778501465132931E-17 ) ) ;
#42 = DIRECTION ( 'NONE',  ( 1.000000000000000000, 0.000000000000000000, -0.000000000000000000 ) ) ;
#43 = ORIENTED_EDGE ( 'NONE', *, *, #241, .F. ) ;
#44 = CARTESIAN_POINT ( 'NONE',  ( 0.000000000000000000, 0.000000000000000000, 5.000000000000000000 ) ) ;
#45 = CARTESIAN_POINT ( 'NONE',  ( 0.000000000000000000, 0.000000000000000000, 5.000000000000000000 ) ) ;
#46 = CIRCLE ( 'NONE', #259, 0.4771260000000004387 ) ;
#47 = PRESENTATION_STYLE_ASSIGNMENT (( #255 ) ) ;
#48 = CARTESIAN_POINT ( 'NONE',  ( -0.4771260000000004387, 0.000000000000000000, 5.000000000000000000 ) ) ;
#49 = DIRECTION ( 'NONE',  ( 0.000000000000000000, 0.000000000000000000, 1.000000000000000000 ) ) ;
#50 = VECTOR ( 'NONE', #86, 39.37007874015748143 ) ;
#51 = VECTOR ( 'NONE', #119, 39.37007874015748143 ) ;
#52 = COLOUR_RGB ( '',0.7921568627450980005, 0.8196078431372548767, 0.9333333333333333481 ) ;
#53 = ADVANCED_FACE ( 'NONE', ( #33 ), #184, .T. ) ;
#54 = VERTEX_POINT ( 'NONE', #15 ) ;
#55 = APPLICATION_PROTOCOL_DEFINITION ( 'draft international standard', 'automotive_design', 1998, #218 ) ;
#56 = ORIENTED_EDGE ( 'NONE', *, *, #168, .F. ) ;
#57 = ORIENTED_EDGE ( 'NONE', *, *, #66, .T. ) ;
#58 = VECTOR ( 'NONE', #162, 39.37007874015748143 ) ;
#59 = PRESENTATION_LAYER_ASSIGNMENT (  '', '', ( #193 ) ) ;
#60 = AXIS2_PLACEMENT_3D ( 'NONE', #147, #5, #121 ) ;
#61 = PRODUCT_DEFINITION ( 'UNKNOWN', '', #139, #205 ) ;
#62 = ORIENTED_EDGE ( 'NONE', *, *, #264, .F. ) ;
#63 = SHAPE_DEFINITION_REPRESENTATION ( #83, #236 ) ;
#64 = ORIENTED_EDGE ( 'NONE', *, *, #153, .T. ) ;
#65 = APPLICATION_PROTOCOL_DEFINITION ( 'draft international standard', 'automotive_design', 1998, #40 ) ;
#66 = EDGE_CURVE ( 'NONE', #175, #20, #112, .T. ) ;
#67 = DIRECTION ( 'NONE',  ( -1.000000000000000000, 0.000000000000000000, 1.224646799147353454E-16 ) ) ;
#68 = FACE_OUTER_BOUND ( 'NONE', #281, .T. ) ;
#69 = DIRECTION ( 'NONE',  ( -1.000000000000000000, 0.000000000000000000, 0.000000000000000000 ) ) ;
#70 = ORIENTED_EDGE ( 'NONE', *, *, #168, .T. ) ;
#71 = DIRECTION ( 'NONE',  ( 0.000000000000000000, 0.000000000000000000, 1.000000000000000000 ) ) ;
#72 = DIRECTION ( 'NONE',  ( -1.000000000000000000, 0.000000000000000000, 0.000000000000000000 ) ) ;
#73 = DIRECTION ( 'NONE',  ( 1.000000000000000000, 0.000000000000000000, 0.000000000000000000 ) ) ;
#74 = ADVANCED_FACE ( 'NONE', ( #80 ), #103, .T. ) ;
#75 = VECTOR ( 'NONE', #105, 39.37007874015747433 ) ;
#76 = CIRCLE ( 'NONE', #270, 0.4916338740000000262 ) ;
#77 = EDGE_CURVE ( 'NONE', #11, #20, #290, .T. ) ;
#78 = SURFACE_STYLE_USAGE ( .BOTH. , #191 ) ;
#79 = AXIS2_PLACEMENT_3D ( 'NONE', #250, #220, #253 ) ;
#80 = FACE_OUTER_BOUND ( 'NONE', #260, .T. ) ;
#81 = ORIENTED_EDGE ( 'NONE', *, *, #243, .F. ) ;
#82 = ADVANCED_FACE ( 'NONE', ( #18 ), #120, .T. ) ;
#83 = PRODUCT_DEFINITION_SHAPE ( 'NONE', 'NONE',  #61 ) ;
#84 = DIRECTION ( 'NONE',  ( -1.000000000000000000, 0.000000000000000000, 0.000000000000000000 ) ) ;
#85 = DIRECTION ( 'NONE',  ( -1.224646799147353207E-16, -0.000000000000000000, -1.000000000000000000 ) ) ;
#86 = DIRECTION ( 'NONE',  ( 0.7071067811865459074, 8.659560562354913137E-17, -0.7071067811865491270 ) ) ;
#87 = AXIS2_PLACEMENT_3D ( 'NONE', #161, #228, #231 ) ;
#88 = AXIS2_PLACEMENT_3D ( 'NONE', #22, #183, #293 ) ;
#89 =( LENGTH_UNIT ( ) NAMED_UNIT ( * ) SI_UNIT ( $, .METRE. ) );
#90 = ORIENTED_EDGE ( 'NONE', *, *, #148, .T. ) ;
#91 =( NAMED_UNIT ( * ) PLANE_ANGLE_UNIT ( ) SI_UNIT ( $, .RADIAN. ) );
#92 = AXIS2_PLACEMENT_3D ( 'NONE', #101, #258, #69 ) ;
#93 = LINE ( 'NONE', #268, #160 ) ;
#94 = DIRECTION ( 'NONE',  ( -1.000000000000000000, 0.000000000000000000, 1.224646799147353454E-16 ) ) ;
#95 = CARTESIAN_POINT ( 'NONE',  ( 0.4771260000000004387, 5.934956796835854937E-17, 5.000000000000000000 ) ) ;
#96 =( GEOMETRIC_REPRESENTATION_CONTEXT ( 3 ) GLOBAL_UNCERTAINTY_ASSIGNED_CONTEXT ( ( #25 ) ) GLOBAL_UNIT_ASSIGNED_CONTEXT ( ( #16, #34, #287 ) ) REPRESENTATION_CONTEXT ( 'NONE', 'WORKASPACE' ) );
#97 = ORIENTED_EDGE ( 'NONE', *, *, #296, .T. ) ;
#98 = DIMENSIONAL_EXPONENTS ( 1.000000000000000000, 0.000000000000000000, 0.000000000000000000, 0.000000000000000000, 0.000000000000000000, 0.000000000000000000, 0.000000000000000000 ) ;
#99 = DIRECTION ( 'NONE',  ( 1.000000000000000000, 0.000000000000000000, -0.000000000000000000 ) ) ;
#100 = CYLINDRICAL_SURFACE ( 'NONE', #114, 0.4916338740000000262 ) ;
#101 = CARTESIAN_POINT ( 'NONE',  ( 0.000000000000000000, 0.000000000000000000, 5.000000000000000000 ) ) ;
#102 = CARTESIAN_POINT ( 'NONE',  ( -0.4916338739999996932, 6.023791904118517420E-17, 1.968503999999999809 ) ) ;
#103 = CONICAL_SURFACE ( 'NONE', #17, 0.4916338739999999707, 0.1745329251994338082 ) ;
#104 = DIRECTION ( 'NONE',  ( 1.000000000000000000, 0.000000000000000000, 0.000000000000000000 ) ) ;
#105 = DIRECTION ( 'NONE',  ( -0.1736481776669311083, 2.126576849575782084E-17, 0.9848077530122080203 ) ) ;
#106 = CONICAL_SURFACE ( 'NONE', #266, 0.4771260000000004387, 0.7853981633974460586 ) ;
#107 = FACE_OUTER_BOUND ( 'NONE', #130, .T. ) ;
#108 = ORIENTED_EDGE ( 'NONE', *, *, #202, .F. ) ;
#109 =( NAMED_UNIT ( * ) SI_UNIT ( $, .STERADIAN. ) SOLID_ANGLE_UNIT ( ) );
#110 = ADVANCED_FACE ( 'NONE', ( #68 ), #229, .T. ) ;
#111 = ORIENTED_EDGE ( 'NONE', *, *, #195, .F. ) ;
#112 = LINE ( 'NONE', #6, #75 ) ;
#113 = CIRCLE ( 'NONE', #132, 0.4921260000000000634 ) ;
#114 = AXIS2_PLACEMENT_3D ( 'NONE', #187, #203, #67 ) ;
#115 = LENGTH_MEASURE_WITH_UNIT ( LENGTH_MEASURE( 0.02539999999999999897 ), #89 );
#116 = AXIS2_PLACEMENT_3D ( 'NONE', #45, #277, #3 ) ;
#117 = DIRECTION ( 'NONE',  ( 0.000000000000000000, 0.000000000000000000, 1.000000000000000000 ) ) ;
#118 = CIRCLE ( 'NONE', #60, 0.4921260000000000634 ) ;
#119 = DIRECTION ( 'NONE',  ( -0.000000000000000000, -0.000000000000000000, -1.000000000000000000 ) ) ;
#120 = CYLINDRICAL_SURFACE ( 'NONE', #223, 0.4916338740000000262 ) ;
#121 = DIRECTION ( 'NONE',  ( 1.000000000000000000, 0.000000000000000000, 0.000000000000000000 ) ) ;
#122 = ORIENTED_EDGE ( 'NONE', *, *, #77, .F. ) ;
#123 = ADVANCED_FACE ( 'NONE', ( #208 ), #299, .F. ) ;
#124 = CIRCLE ( 'NONE', #4, 0.4921260000000000634 ) ;
#125 = DIRECTION ( 'NONE',  ( -1.224646799147353207E-16, -0.000000000000000000, -1.000000000000000000 ) ) ;
#126 = DIRECTION ( 'NONE',  ( 1.000000000000000000, 0.000000000000000000, 0.000000000000000000 ) ) ;
#127 = DIRECTION ( 'NONE',  ( -1.224646799147353207E-16, -0.000000000000000000, -1.000000000000000000 ) ) ;
#128 = CARTESIAN_POINT ( 'NONE',  ( 2.414140093845428801E-16, 0.000000000000000000, 1.971294985236761610 ) ) ;
#129 = CARTESIAN_POINT ( 'NONE',  ( 0.000000000000000000, 0.000000000000000000, 0.000000000000000000 ) ) ;
#130 = EDGE_LOOP ( 'NONE', ( #200, #32, #35, #217 ) ) ;
#131 = DIRECTION ( 'NONE',  ( -1.000000000000000000, 0.000000000000000000, 1.224646799147353454E-16 ) ) ;
#132 = AXIS2_PLACEMENT_3D ( 'NONE', #275, #164, #251 ) ;
#133 = PRODUCT ( 'Micro_AEMM-250-2X', 'Micro_AEMM-250-2X', '', ( #157 ) ) ;
#134 = ORIENTED_EDGE ( 'NONE', *, *, #77, .T. ) ;
#135 = FILL_AREA_STYLE_COLOUR ( '', #52 ) ;
#136 = DIRECTION ( 'NONE',  ( 1.000000000000000000, 0.000000000000000000, 0.000000000000000000 ) ) ;
#137 = EDGE_CURVE ( 'NONE', #284, #246, #46, .T. ) ;
#138 = DIRECTION ( 'NONE',  ( 0.000000000000000000, 0.000000000000000000, -1.000000000000000000 ) ) ;
#139 = PRODUCT_DEFINITION_FORMATION_WITH_SPECIFIED_SOURCE ( 'ANY', '', #133, .NOT_KNOWN. ) ;
#140 = MANIFOLD_SOLID_BREP ( 'Cut-Revolve1', #222 ) ;
#141 = DIRECTION ( 'NONE',  ( -1.224646799147353207E-16, -0.000000000000000000, -1.000000000000000000 ) ) ;
#142 = UNCERTAINTY_MEASURE_WITH_UNIT (LENGTH_MEASURE( 1.000000000000000082E-05 ), #38, 'distance_accuracy_value', 'NONE');
#143 = DIRECTION ( 'NONE',  ( -1.000000000000000000, 0.000000000000000000, 1.224646799147353454E-16 ) ) ;
#144 = EDGE_LOOP ( 'NONE', ( #151, #196 ) ) ;
#145 = DIRECTION ( 'NONE',  ( -1.224646799147353207E-16, -0.000000000000000000, -1.000000000000000000 ) ) ;
#146 = CYLINDRICAL_SURFACE ( 'NONE', #92, 0.4921260000000000634 ) ;
#147 = CARTESIAN_POINT ( 'NONE',  ( 0.000000000000000000, 0.000000000000000000, 4.985000000000000320 ) ) ;
#148 = EDGE_CURVE ( 'NONE', #252, #152, #93, .T. ) ;
#149 = PRESENTATION_LAYER_ASSIGNMENT (  '', '', ( #240 ) ) ;
#150 =( LENGTH_UNIT ( ) NAMED_UNIT ( * ) SI_UNIT ( $, .METRE. ) );
#151 = ORIENTED_EDGE ( 'NONE', *, *, #182, .T. ) ;
#152 = VERTEX_POINT ( 'NONE', #2 ) ;
#153 = EDGE_CURVE ( 'NONE', #54, #152, #225, .T. ) ;
#154 = ORIENTED_EDGE ( 'NONE', *, *, #267, .F. ) ;
#155 = ORIENTED_EDGE ( 'NONE', *, *, #241, .T. ) ;
#156 = ORIENTED_EDGE ( 'NONE', *, *, #243, .T. ) ;
#157 = PRODUCT_CONTEXT ( 'NONE', #218, 'mechanical' ) ;
#158 = DIRECTION ( 'NONE',  ( 1.224646799147353207E-16, 0.000000000000000000, 1.000000000000000000 ) ) ;
#159 = DIRECTION ( 'NONE',  ( -0.000000000000000000, -0.000000000000000000, -1.000000000000000000 ) ) ;
#160 = VECTOR ( 'NONE', #159, 39.37007874015748143 ) ;
#161 = CARTESIAN_POINT ( 'NONE',  ( 0.000000000000000000, 0.000000000000000000, 5.000000000000000000 ) ) ;
#162 = DIRECTION ( 'NONE',  ( 0.1736481776669313026, 0.000000000000000000, 0.9848077530122077983 ) ) ;
#163 = EDGE_LOOP ( 'NONE', ( #28, #90, #108, #122 ) ) ;
#164 = DIRECTION ( 'NONE',  ( 0.000000000000000000, 0.000000000000000000, -1.000000000000000000 ) ) ;
#165 = AXIS2_PLACEMENT_3D ( 'NONE', #166, #49, #42 ) ;
#166 = CARTESIAN_POINT ( 'NONE',  ( 0.000000000000000000, 0.000000000000000000, 5.000000000000000000 ) ) ;
#167 = CARTESIAN_POINT ( 'NONE',  ( -0.4771260000000004387, 0.000000000000000000, 5.000000000000000000 ) ) ;
#168 = EDGE_CURVE ( 'NONE', #152, #20, #124, .T. ) ;
#169 = CARTESIAN_POINT ( 'NONE',  ( 2.410722122708761257E-16, 0.000000000000000000, 1.968503999999999809 ) ) ;
#170 = EDGE_LOOP ( 'NONE', ( #155, #97 ) ) ;
#171 = LENGTH_MEASURE_WITH_UNIT ( LENGTH_MEASURE( 0.02539999999999999897 ), #150 );
#172 = LINE ( 'NONE', #279, #50 ) ;
#173 = VECTOR ( 'NONE', #24, 39.37007874015748143 ) ;
#174 = CARTESIAN_POINT ( 'NONE',  ( 2.410722122708761257E-16, 0.000000000000000000, 1.968503999999999809 ) ) ;
#175 = VERTEX_POINT ( 'NONE', #102 ) ;
#176 = CARTESIAN_POINT ( 'NONE',  ( 0.000000000000000000, 0.000000000000000000, 0.000000000000000000 ) ) ;
#177 = EDGE_CURVE ( 'NONE', #246, #11, #206, .T. ) ;
#178 = LENGTH_MEASURE_WITH_UNIT ( LENGTH_MEASURE( 0.02539999999999999897 ), #221 );
#179 = EDGE_CURVE ( 'NONE', #175, #242, #207, .T. ) ;
#180 = CARTESIAN_POINT ( 'NONE',  ( -0.4921260000000000634, 0.000000000000000000, 5.000000000000000000 ) ) ;
#181 = PRODUCT_RELATED_PRODUCT_CATEGORY ( 'part', '', ( #133 ) ) ;
#182 = EDGE_CURVE ( 'NONE', #246, #284, #9, .T. ) ;
#183 = DIRECTION ( 'NONE',  ( -1.224646799147353207E-16, -0.000000000000000000, -1.000000000000000000 ) ) ;
#184 = CONICAL_SURFACE ( 'NONE', #288, 0.4916338739999999707, 0.1745329251994338082 ) ;
#185 = CARTESIAN_POINT ( 'NONE',  ( 7.373327120194471968E-33, 0.000000000000000000, 6.020778501465132931E-17 ) ) ;
#186 = ORIENTED_EDGE ( 'NONE', *, *, #267, .T. ) ;
#187 = CARTESIAN_POINT ( 'NONE',  ( 0.000000000000000000, 0.000000000000000000, 0.000000000000000000 ) ) ;
#188 = SURFACE_STYLE_FILL_AREA ( #23 ) ;
#189 = CARTESIAN_POINT ( 'NONE',  ( 0.4916338740000000262, 6.020778501465132931E-17, 0.000000000000000000 ) ) ;
#190 = LINE ( 'NONE', #19, #248 ) ;
#191 = SURFACE_SIDE_STYLE ('',( #216 ) ) ;
#192 = EDGE_LOOP ( 'NONE', ( #238, #194, #134, #56 ) ) ;
#193 = STYLED_ITEM ( 'NONE', ( #47 ), #140 ) ;
#194 = ORIENTED_EDGE ( 'NONE', *, *, #264, .T. ) ;
#195 = EDGE_CURVE ( 'NONE', #54, #175, #199, .T. ) ;
#196 = ORIENTED_EDGE ( 'NONE', *, *, #137, .T. ) ;
#197 = ADVANCED_FACE ( 'NONE', ( #26 ), #146, .T. ) ;
#198 = ORIENTED_EDGE ( 'NONE', *, *, #179, .T. ) ;
#199 = CIRCLE ( 'NONE', #27, 0.4916338739999999707 ) ;
#200 = ORIENTED_EDGE ( 'NONE', *, *, #137, .F. ) ;
#201 =( NAMED_UNIT ( * ) SI_UNIT ( $, .STERADIAN. ) SOLID_ANGLE_UNIT ( ) );
#202 = EDGE_CURVE ( 'NONE', #20, #152, #30, .T. ) ;
#203 = DIRECTION ( 'NONE',  ( -1.224646799147353207E-16, -0.000000000000000000, -1.000000000000000000 ) ) ;
#204 = EDGE_LOOP ( 'NONE', ( #154, #57, #215, #237 ) ) ;
#205 = PRODUCT_DEFINITION_CONTEXT ( 'detailed design', #40, 'design' ) ;
#206 = LINE ( 'NONE', #48, #173 ) ;
#207 = LINE ( 'NONE', #41, #280 ) ;
#208 = FACE_OUTER_BOUND ( 'NONE', #170, .T. ) ;
#209 = PLANE ( 'NONE',  #165 ) ;
#210 = DIRECTION ( 'NONE',  ( -1.224646799147353207E-16, -0.000000000000000000, -1.000000000000000000 ) ) ;
#211 = DIRECTION ( 'NONE',  ( 0.000000000000000000, 0.000000000000000000, 1.000000000000000000 ) ) ;
#212 = EDGE_LOOP ( 'NONE', ( #186, #156, #43, #294 ) ) ;
#213 =( CONVERSION_BASED_UNIT ( 'INCH', #171 ) LENGTH_UNIT ( ) NAMED_UNIT ( #98 ) );
#214 = VERTEX_POINT ( 'NONE', #189 ) ;
#215 = ORIENTED_EDGE ( 'NONE', *, *, #202, .T. ) ;
#216 = SURFACE_STYLE_FILL_AREA ( #10 ) ;
#217 = ORIENTED_EDGE ( 'NONE', *, *, #177, .F. ) ;
#218 = APPLICATION_CONTEXT ( 'automotive_design' ) ;
#219 = AXIS2_PLACEMENT_3D ( 'NONE', #129, #71, #99 ) ;
#220 = DIRECTION ( 'NONE',  ( 0.000000000000000000, 0.000000000000000000, -1.000000000000000000 ) ) ;
#221 =( LENGTH_UNIT ( ) NAMED_UNIT ( * ) SI_UNIT ( $, .METRE. ) );
#222 = CLOSED_SHELL ( 'NONE', ( #282, #53, #7, #197, #235, #233, #110, #74, #82, #123 ) ) ;
#223 = AXIS2_PLACEMENT_3D ( 'NONE', #176, #292, #94 ) ;
#224 = EDGE_CURVE ( 'NONE', #11, #252, #113, .T. ) ;
#225 = LINE ( 'NONE', #273, #58 ) ;
#226 = DIRECTION ( 'NONE',  ( 1.000000000000000000, 0.000000000000000000, 0.000000000000000000 ) ) ;
#227 = CARTESIAN_POINT ( 'NONE',  ( 7.373327120194471968E-33, 0.000000000000000000, 6.020778501465132931E-17 ) ) ;
#228 = DIRECTION ( 'NONE',  ( 0.000000000000000000, 0.000000000000000000, 1.000000000000000000 ) ) ;
#229 = CONICAL_SURFACE ( 'NONE', #79, 0.4771260000000004387, 0.7853981633974460586 ) ;
#230 = CARTESIAN_POINT ( 'NONE',  ( -0.4916338740000000262, 0.000000000000000000, 1.204155700293026586E-16 ) ) ;
#231 = DIRECTION ( 'NONE',  ( 1.000000000000000000, 0.000000000000000000, 0.000000000000000000 ) ) ;
#232 = FACE_OUTER_BOUND ( 'NONE', #144, .T. ) ;
#233 = ADVANCED_FACE ( 'NONE', ( #232 ), #209, .T. ) ;
#234 =( GEOMETRIC_REPRESENTATION_CONTEXT ( 3 ) GLOBAL_UNCERTAINTY_ASSIGNED_CONTEXT ( ( #142 ) ) GLOBAL_UNIT_ASSIGNED_CONTEXT ( ( #38, #91, #201 ) ) REPRESENTATION_CONTEXT ( 'NONE', 'WORKASPACE' ) );
#235 = ADVANCED_FACE ( 'NONE', ( #257 ), #254, .T. ) ;
#236 = ADVANCED_BREP_SHAPE_REPRESENTATION ( 'Micro_AEMM-250-2X', ( #140, #289 ), #31 ) ;
#237 = ORIENTED_EDGE ( 'NONE', *, *, #153, .F. ) ;
#238 = ORIENTED_EDGE ( 'NONE', *, *, #148, .F. ) ;
#239 = COLOUR_RGB ( '',0.7921568627450980005, 0.8196078431372548767, 0.9333333333333333481 ) ;
#240 = STYLED_ITEM ( 'NONE', ( #278 ), #236 ) ;
#241 = EDGE_CURVE ( 'NONE', #242, #214, #36, .T. ) ;
#242 = VERTEX_POINT ( 'NONE', #230 ) ;
#243 = EDGE_CURVE ( 'NONE', #54, #214, #190, .T. ) ;
#244 = CARTESIAN_POINT ( 'NONE',  ( -0.4921260000000000634, 0.000000000000000000, 4.985000000000000320 ) ) ;
#245 = DIRECTION ( 'NONE',  ( 1.000000000000000000, 0.000000000000000000, 0.000000000000000000 ) ) ;
#246 = VERTEX_POINT ( 'NONE', #167 ) ;
#247 = UNCERTAINTY_MEASURE_WITH_UNIT (LENGTH_MEASURE( 1.000000000000000082E-05 ), #213, 'distance_accuracy_value', 'NONE');
#248 = VECTOR ( 'NONE', #210, 39.37007874015748143 ) ;
#249 = CARTESIAN_POINT ( 'NONE',  ( 2.414140093845428801E-16, 0.000000000000000000, 1.971294985236761610 ) ) ;
#250 = CARTESIAN_POINT ( 'NONE',  ( 0.000000000000000000, 0.000000000000000000, 5.000000000000000000 ) ) ;
#251 = DIRECTION ( 'NONE',  ( 1.000000000000000000, 0.000000000000000000, 0.000000000000000000 ) ) ;
#252 = VERTEX_POINT ( 'NONE', #271 ) ;
#253 = DIRECTION ( 'NONE',  ( -1.000000000000000000, 0.000000000000000000, 0.000000000000000000 ) ) ;
#254 = CYLINDRICAL_SURFACE ( 'NONE', #116, 0.4921260000000000634 ) ;
#255 = SURFACE_STYLE_USAGE ( .BOTH. , #274 ) ;
#256 = AXIS2_PLACEMENT_3D ( 'NONE', #128, #127, #73 ) ;
#257 = FACE_OUTER_BOUND ( 'NONE', #192, .T. ) ;
#258 = DIRECTION ( 'NONE',  ( -0.000000000000000000, -0.000000000000000000, -1.000000000000000000 ) ) ;
#259 = AXIS2_PLACEMENT_3D ( 'NONE', #44, #211, #104 ) ;
#260 = EDGE_LOOP ( 'NONE', ( #29, #111, #64, #70 ) ) ;
#261 = EDGE_LOOP ( 'NONE', ( #81, #265, #198, #272 ) ) ;
#262 = ORIENTED_EDGE ( 'NONE', *, *, #13, .F. ) ;
#263 = DIRECTION ( 'NONE',  ( 1.224646799147353207E-16, 0.000000000000000000, 1.000000000000000000 ) ) ;
#264 = EDGE_CURVE ( 'NONE', #252, #11, #118, .T. ) ;
#265 = ORIENTED_EDGE ( 'NONE', *, *, #195, .T. ) ;
#266 = AXIS2_PLACEMENT_3D ( 'NONE', #283, #138, #84 ) ;
#267 = EDGE_CURVE ( 'NONE', #175, #54, #37, .T. ) ;
#268 = CARTESIAN_POINT ( 'NONE',  ( 0.4921260000000000634, 6.026805306771904375E-17, 5.000000000000000000 ) ) ;
#269 = FACE_OUTER_BOUND ( 'NONE', #212, .T. ) ;
#270 = AXIS2_PLACEMENT_3D ( 'NONE', #185, #85, #131 ) ;
#271 = CARTESIAN_POINT ( 'NONE',  ( 0.4921260000000000634, 6.026805306771904375E-17, 4.985000000000000320 ) ) ;
#272 = ORIENTED_EDGE ( 'NONE', *, *, #296, .F. ) ;
#273 = CARTESIAN_POINT ( 'NONE',  ( 0.4916338740000002483, 0.000000000000000000, 1.968503999999999809 ) ) ;
#274 = SURFACE_SIDE_STYLE ('',( #188 ) ) ;
#275 = CARTESIAN_POINT ( 'NONE',  ( 0.000000000000000000, 0.000000000000000000, 4.985000000000000320 ) ) ;
#276 = AXIS2_PLACEMENT_3D ( 'NONE', #227, #145, #143 ) ;
#277 = DIRECTION ( 'NONE',  ( -0.000000000000000000, -0.000000000000000000, -1.000000000000000000 ) ) ;
#278 = PRESENTATION_STYLE_ASSIGNMENT (( #78 ) ) ;
#279 = CARTESIAN_POINT ( 'NONE',  ( 0.4771260000000004387, 5.843108286899805499E-17, 5.000000000000000000 ) ) ;
#280 = VECTOR ( 'NONE', #141, 39.37007874015748143 ) ;
#281 = EDGE_LOOP ( 'NONE', ( #262, #286, #8, #62 ) ) ;
#282 = ADVANCED_FACE ( 'NONE', ( #269 ), #100, .T. ) ;
#283 = CARTESIAN_POINT ( 'NONE',  ( 0.000000000000000000, 0.000000000000000000, 5.000000000000000000 ) ) ;
#284 = VERTEX_POINT ( 'NONE', #95 ) ;
#285 = MECHANICAL_DESIGN_GEOMETRIC_PRESENTATION_REPRESENTATION (  '', ( #193 ), #234 ) ;
#286 = ORIENTED_EDGE ( 'NONE', *, *, #182, .F. ) ;
#287 =( NAMED_UNIT ( * ) SI_UNIT ( $, .STERADIAN. ) SOLID_ANGLE_UNIT ( ) );
#288 = AXIS2_PLACEMENT_3D ( 'NONE', #174, #263, #136 ) ;
#289 = AXIS2_PLACEMENT_3D ( 'NONE', #39, #117, #245 ) ;
#290 = LINE ( 'NONE', #180, #51 ) ;
#291 = DIMENSIONAL_EXPONENTS ( 1.000000000000000000, 0.000000000000000000, 0.000000000000000000, 0.000000000000000000, 0.000000000000000000, 0.000000000000000000, 0.000000000000000000 ) ;
#292 = DIRECTION ( 'NONE',  ( -1.224646799147353207E-16, -0.000000000000000000, -1.000000000000000000 ) ) ;
#293 = DIRECTION ( 'NONE',  ( -1.000000000000000000, 0.000000000000000000, 0.000000000000000000 ) ) ;
#294 = ORIENTED_EDGE ( 'NONE', *, *, #179, .F. ) ;
#295 = MECHANICAL_DESIGN_GEOMETRIC_PRESENTATION_REPRESENTATION (  '', ( #240 ), #96 ) ;
#296 = EDGE_CURVE ( 'NONE', #214, #242, #76, .T. ) ;
#297 = CARTESIAN_POINT ( 'NONE',  ( 2.410722122708761257E-16, 0.000000000000000000, 1.968503999999999809 ) ) ;
#298 = DIMENSIONAL_EXPONENTS ( 1.000000000000000000, 0.000000000000000000, 0.000000000000000000, 0.000000000000000000, 0.000000000000000000, 0.000000000000000000, 0.000000000000000000 ) ;
#299 = PLANE ( 'NONE',  #219 ) ;
ENDSEC;
END-ISO-10303-21;
