ISO-10303-21;
HEADER;
FILE_DESCRIPTION (( 'STEP AP214' ),
    '1' );
FILE_NAME ('84775.STEP',
    '2023-07-05T16:24:22',
    ( '' ),
    ( '' ),
    'SwSTEP 2.0',
    'SolidWorks 2023',
    '' );
FILE_SCHEMA (( 'AUTOMOTIVE_DESIGN' ));
ENDSEC;

DATA;
#1 = PRODUCT_DEFINITION_CONTEXT ( 'detailed design', #149, 'design' ) ;
#2 = CARTESIAN_POINT ( 'NONE',  ( 0.000000000000000000, 0.000000000000000000, 0.000000000000000000 ) ) ;
#3 = DIMENSIONAL_EXPONENTS ( 1.000000000000000000, 0.000000000000000000, 0.000000000000000000, 0.000000000000000000, 0.000000000000000000, 0.000000000000000000, 0.000000000000000000 ) ;
#4 = DIRECTION ( 'NONE',  ( 1.000000000000000000, 0.000000000000000000, 0.000000000000000000 ) ) ;
#5 = FILL_AREA_STYLE ('',( #227 ) ) ;
#6 = CIRCLE ( 'NONE', #232, 0.1562499999999999445 ) ;
#7 = SURFACE_STYLE_FILL_AREA ( #26 ) ;
#8 = DIRECTION ( 'NONE',  ( -1.237930494036654098E-16, 1.000000000000000000, -0.000000000000000000 ) ) ;
#9 = APPLICATION_PROTOCOL_DEFINITION ( 'draft international standard', 'automotive_design', 1998, #234 ) ;
#10 = ORIENTED_EDGE ( 'NONE', *, *, #107, .F. ) ;
#11 = COLOUR_RGB ( '',1.000000000000000000, 0.000000000000000000, 0.000000000000000000 ) ;
#12 = ORIENTED_EDGE ( 'NONE', *, *, #116, .T. ) ;
#13 = FILL_AREA_STYLE ('',( #189 ) ) ;
#14 =( GEOMETRIC_REPRESENTATION_CONTEXT ( 3 ) GLOBAL_UNCERTAINTY_ASSIGNED_CONTEXT ( ( #55 ) ) GLOBAL_UNIT_ASSIGNED_CONTEXT ( ( #163, #64, #123 ) ) REPRESENTATION_CONTEXT ( 'NONE', 'WORKASPACE' ) );
#15 = EDGE_CURVE ( 'NONE', #109, #53, #207, .T. ) ;
#16 = COLOUR_RGB ( '',1.000000000000000000, 0.000000000000000000, 0.000000000000000000 ) ;
#17 = PRODUCT_DEFINITION_FORMATION_WITH_SPECIFIED_SOURCE ( 'ANY', '', #104, .NOT_KNOWN. ) ;
#18 = ADVANCED_BREP_SHAPE_REPRESENTATION ( '84775', ( #261, #173, #184 ), #14 ) ;
#19 = DIRECTION ( 'NONE',  ( -1.000000000000000000, -1.237930494036654098E-16, 0.000000000000000000 ) ) ;
#20 = CARTESIAN_POINT ( 'NONE',  ( 6.123233995736772199E-17, 2.500000000000000000, 0.000000000000000000 ) ) ;
#21 = SURFACE_SIDE_STYLE ('',( #221 ) ) ;
#22 = LENGTH_MEASURE_WITH_UNIT ( LENGTH_MEASURE( 0.02539999999999999897 ), #41 );
#23 = DIMENSIONAL_EXPONENTS ( 1.000000000000000000, 0.000000000000000000, 0.000000000000000000, 0.000000000000000000, 0.000000000000000000, 0.000000000000000000, 0.000000000000000000 ) ;
#24 = CARTESIAN_POINT ( 'NONE',  ( 3.372124867179324756E-16, 0.2706329386826362704, 0.000000000000000000 ) ) ;
#25 =( NAMED_UNIT ( * ) SI_UNIT ( $, .STERADIAN. ) SOLID_ANGLE_UNIT ( ) );
#26 = FILL_AREA_STYLE ('',( #202 ) ) ;
#27 = DIRECTION ( 'NONE',  ( 1.237930494036654098E-16, -1.000000000000000000, 0.000000000000000000 ) ) ;
#28 = ORIENTED_EDGE ( 'NONE', *, *, #121, .F. ) ;
#29 = PLANE ( 'NONE',  #114 ) ;
#30 = PRODUCT_DEFINITION ( 'UNKNOWN', '', #17, #1 ) ;
#31 = ORIENTED_EDGE ( 'NONE', *, *, #68, .T. ) ;
#32 = ORIENTED_EDGE ( 'NONE', *, *, #68, .F. ) ;
#33 = DIRECTION ( 'NONE',  ( -1.237930494036654098E-16, 1.000000000000000000, -0.000000000000000000 ) ) ;
#34 =( LENGTH_UNIT ( ) NAMED_UNIT ( * ) SI_UNIT ( $, .METRE. ) );
#35 = STYLED_ITEM ( 'NONE', ( #126 ), #174 ) ;
#36 = AXIS2_PLACEMENT_3D ( 'NONE', #152, #54, #236 ) ;
#37 = LINE ( 'NONE', #159, #183 ) ;
#38 = CARTESIAN_POINT ( 'NONE',  ( 0.1562499999999998612, 2.500000000000000000, 1.913510623667736998E-17 ) ) ;
#39 = SURFACE_STYLE_USAGE ( .BOTH. , #79 ) ;
#40 =( NAMED_UNIT ( * ) PLANE_ANGLE_UNIT ( ) SI_UNIT ( $, .RADIAN. ) );
#41 =( LENGTH_UNIT ( ) NAMED_UNIT ( * ) SI_UNIT ( $, .METRE. ) );
#42 = DIRECTION ( 'NONE',  ( -0.5000000000000009992, 0.8660254037844379305, 0.000000000000000000 ) ) ;
#43 = PRESENTATION_LAYER_ASSIGNMENT (  '', '', ( #35 ) ) ;
#44 = DIMENSIONAL_EXPONENTS ( 1.000000000000000000, 0.000000000000000000, 0.000000000000000000, 0.000000000000000000, 0.000000000000000000, 0.000000000000000000, 0.000000000000000000 ) ;
#45 = ORIENTED_EDGE ( 'NONE', *, *, #252, .T. ) ;
#46 = SURFACE_STYLE_FILL_AREA ( #5 ) ;
#47 = MECHANICAL_DESIGN_GEOMETRIC_PRESENTATION_REPRESENTATION (  '', ( #214 ), #154 ) ;
#48 = SURFACE_SIDE_STYLE ('',( #46 ) ) ;
#49 = ORIENTED_EDGE ( 'NONE', *, *, #252, .F. ) ;
#50 = FACE_OUTER_BOUND ( 'NONE', #52, .T. ) ;
#51 = CIRCLE ( 'NONE', #255, 0.1562499999999996669 ) ;
#52 = EDGE_LOOP ( 'NONE', ( #186, #148, #31 ) ) ;
#53 = VERTEX_POINT ( 'NONE', #231 ) ;
#54 = DIRECTION ( 'NONE',  ( -1.237930494036654098E-16, 1.000000000000000000, -0.000000000000000000 ) ) ;
#55 = UNCERTAINTY_MEASURE_WITH_UNIT (LENGTH_MEASURE( 1.000000000000000082E-05 ), #163, 'distance_accuracy_value', 'NONE');
#56 = CLOSED_SHELL ( 'NONE', ( #258, #174, #80 ) ) ;
#57 = LENGTH_MEASURE_WITH_UNIT ( LENGTH_MEASURE( 0.02539999999999999897 ), #212 );
#58 =( NAMED_UNIT ( * ) SI_UNIT ( $, .STERADIAN. ) SOLID_ANGLE_UNIT ( ) );
#59 = CARTESIAN_POINT ( 'NONE',  ( 1.574041360807988724E-18, 0.2706329386826362704, 0.000000000000000000 ) ) ;
#60 =( LENGTH_UNIT ( ) NAMED_UNIT ( * ) SI_UNIT ( $, .METRE. ) );
#61 = VECTOR ( 'NONE', #33, 39.37007874015748143 ) ;
#62 =( CONVERSION_BASED_UNIT ( 'INCH', #167 ) LENGTH_UNIT ( ) NAMED_UNIT ( #3 ) );
#63 = LINE ( 'NONE', #38, #76 ) ;
#64 =( NAMED_UNIT ( * ) PLANE_ANGLE_UNIT ( ) SI_UNIT ( $, .RADIAN. ) );
#65 = DIRECTION ( 'NONE',  ( -1.000000000000000000, 0.000000000000000000, 0.000000000000000000 ) ) ;
#66 = CARTESIAN_POINT ( 'NONE',  ( 2.289822244732220270E-16, 39.37007874015748143, 0.000000000000000000 ) ) ;
#67 = LENGTH_MEASURE_WITH_UNIT ( LENGTH_MEASURE( 0.02539999999999999897 ), #181 );
#68 = EDGE_CURVE ( 'NONE', #75, #229, #145, .T. ) ;
#69 = SURFACE_STYLE_USAGE ( .BOTH. , #88 ) ;
#70 = VERTEX_POINT ( 'NONE', #132 ) ;
#71 = STYLED_ITEM ( 'NONE', ( #151 ), #80 ) ;
#72 = PRESENTATION_LAYER_ASSIGNMENT (  '', '', ( #106 ) ) ;
#73 = EDGE_LOOP ( 'NONE', ( #170, #10 ) ) ;
#74 = DIRECTION ( 'NONE',  ( 0.000000000000000000, 0.000000000000000000, 1.000000000000000000 ) ) ;
#75 = VERTEX_POINT ( 'NONE', #169 ) ;
#76 = VECTOR ( 'NONE', #119, 39.37007874015748143 ) ;
#77 = CARTESIAN_POINT ( 'NONE',  ( -0.1562499999999997224, 2.500000000000000000, 0.000000000000000000 ) ) ;
#78 = UNCERTAINTY_MEASURE_WITH_UNIT (LENGTH_MEASURE( 1.000000000000000082E-05 ), #62, 'distance_accuracy_value', 'NONE');
#79 = SURFACE_SIDE_STYLE ('',( #262 ) ) ;
#80 = ADVANCED_FACE ( 'NONE', ( #50 ), #160, .T. ) ;
#81 = AXIS2_PLACEMENT_3D ( 'NONE', #211, #137, #65 ) ;
#82 = PRESENTATION_STYLE_ASSIGNMENT (( #39 ) ) ;
#83 =( NAMED_UNIT ( * ) PLANE_ANGLE_UNIT ( ) SI_UNIT ( $, .RADIAN. ) );
#84 =( NAMED_UNIT ( * ) SI_UNIT ( $, .STERADIAN. ) SOLID_ANGLE_UNIT ( ) );
#85 = FACE_OUTER_BOUND ( 'NONE', #246, .T. ) ;
#86 = DIMENSIONAL_EXPONENTS ( 1.000000000000000000, 0.000000000000000000, 0.000000000000000000, 0.000000000000000000, 0.000000000000000000, 0.000000000000000000, 0.000000000000000000 ) ;
#87 = COLOUR_RGB ( '',0.7921568627450980005, 0.8196078431372548767, 0.9333333333333333481 ) ;
#88 = SURFACE_SIDE_STYLE ('',( #7 ) ) ;
#89 = DIRECTION ( 'NONE',  ( 1.000000000000000000, 1.237930494036654098E-16, 0.000000000000000000 ) ) ;
#90 = ORIENTED_EDGE ( 'NONE', *, *, #230, .F. ) ;
#91 = AXIS2_PLACEMENT_3D ( 'NONE', #24, #257, #19 ) ;
#92 = DIRECTION ( 'NONE',  ( 1.000000000000000000, 0.000000000000000000, 0.000000000000000000 ) ) ;
#93 = ADVANCED_FACE ( 'NONE', ( #265 ), #118, .T. ) ;
#94 = UNCERTAINTY_MEASURE_WITH_UNIT (LENGTH_MEASURE( 1.000000000000000082E-05 ), #196, 'distance_accuracy_value', 'NONE');
#95 = SURFACE_SIDE_STYLE ('',( #129 ) ) ;
#96 = COLOUR_RGB ( '',0.7921568627450980005, 0.8196078431372548767, 0.9333333333333333481 ) ;
#97 = FACE_OUTER_BOUND ( 'NONE', #73, .T. ) ;
#98 = PRODUCT_RELATED_PRODUCT_CATEGORY ( 'part', '', ( #104 ) ) ;
#99 =( CONVERSION_BASED_UNIT ( 'INCH', #124 ) LENGTH_UNIT ( ) NAMED_UNIT ( #23 ) );
#100 = MECHANICAL_DESIGN_GEOMETRIC_PRESENTATION_REPRESENTATION (  '', ( #71 ), #226 ) ;
#101 = SURFACE_STYLE_USAGE ( .BOTH. , #21 ) ;
#102 =( CONVERSION_BASED_UNIT ( 'INCH', #22 ) LENGTH_UNIT ( ) NAMED_UNIT ( #86 ) );
#103 = CARTESIAN_POINT ( 'NONE',  ( 0.000000000000000000, 0.000000000000000000, 0.000000000000000000 ) ) ;
#104 = PRODUCT ( '84775', '84775', '', ( #244 ) ) ;
#105 = FACE_OUTER_BOUND ( 'NONE', #205, .T. ) ;
#106 = STYLED_ITEM ( 'NONE', ( #204 ), #173 ) ;
#107 = EDGE_CURVE ( 'NONE', #203, #109, #122, .T. ) ;
#108 = FACE_OUTER_BOUND ( 'NONE', #233, .T. ) ;
#109 = VERTEX_POINT ( 'NONE', #120 ) ;
#110 = CARTESIAN_POINT ( 'NONE',  ( 1.574041360807988724E-18, 0.2706329386826362704, 0.000000000000000000 ) ) ;
#111 = AXIS2_PLACEMENT_3D ( 'NONE', #66, #253, #153 ) ;
#112 = ORIENTED_EDGE ( 'NONE', *, *, #224, .F. ) ;
#113 = CARTESIAN_POINT ( 'NONE',  ( 2.289822244732220270E-16, 39.37007874015748143, 0.000000000000000000 ) ) ;
#114 = AXIS2_PLACEMENT_3D ( 'NONE', #243, #27, #89 ) ;
#115 = CARTESIAN_POINT ( 'NONE',  ( 3.372124867179325742E-16, 0.2706329386826362149, 0.000000000000000000 ) ) ;
#116 = EDGE_CURVE ( 'NONE', #248, #53, #239, .T. ) ;
#117 = CARTESIAN_POINT ( 'NONE',  ( 3.372124867179325742E-16, 0.2706329386826362149, 0.000000000000000000 ) ) ;
#118 = CYLINDRICAL_SURFACE ( 'NONE', #81, 0.1562499999999998057 ) ;
#119 = DIRECTION ( 'NONE',  ( -1.237930494036654098E-16, 1.000000000000000000, -0.000000000000000000 ) ) ;
#120 = CARTESIAN_POINT ( 'NONE',  ( -0.1562499999999993339, 0.2706329386826361594, 0.000000000000000000 ) ) ;
#121 = EDGE_CURVE ( 'NONE', #53, #248, #6, .T. ) ;
#122 = CIRCLE ( 'NONE', #194, 0.1562499999999996669 ) ;
#123 =( NAMED_UNIT ( * ) SI_UNIT ( $, .STERADIAN. ) SOLID_ANGLE_UNIT ( ) );
#124 = LENGTH_MEASURE_WITH_UNIT ( LENGTH_MEASURE( 0.02539999999999999897 ), #60 );
#125 = AXIS2_PLACEMENT_3D ( 'NONE', #113, #254, #259 ) ;
#126 = PRESENTATION_STYLE_ASSIGNMENT (( #69 ) ) ;
#127 = AXIS2_PLACEMENT_3D ( 'NONE', #110, #131, #92 ) ;
#128 = ORIENTED_EDGE ( 'NONE', *, *, #107, .T. ) ;
#129 = SURFACE_STYLE_FILL_AREA ( #13 ) ;
#130 =( GEOMETRIC_REPRESENTATION_CONTEXT ( 3 ) GLOBAL_UNCERTAINTY_ASSIGNED_CONTEXT ( ( #192 ) ) GLOBAL_UNIT_ASSIGNED_CONTEXT ( ( #225, #222, #241 ) ) REPRESENTATION_CONTEXT ( 'NONE', 'WORKASPACE' ) );
#131 = DIRECTION ( 'NONE',  ( -5.816148501619839219E-18, -1.000000000000000000, -0.000000000000000000 ) ) ;
#132 = CARTESIAN_POINT ( 'NONE',  ( 0.000000000000000000, 0.000000000000000000, 0.000000000000000000 ) ) ;
#133 =( GEOMETRIC_REPRESENTATION_CONTEXT ( 3 ) GLOBAL_UNCERTAINTY_ASSIGNED_CONTEXT ( ( #210 ) ) GLOBAL_UNIT_ASSIGNED_CONTEXT ( ( #102, #134, #58 ) ) REPRESENTATION_CONTEXT ( 'NONE', 'WORKASPACE' ) );
#134 =( NAMED_UNIT ( * ) PLANE_ANGLE_UNIT ( ) SI_UNIT ( $, .RADIAN. ) );
#135 = CARTESIAN_POINT ( 'NONE',  ( 0.1562499999999999722, 0.2706329386826362149, 1.913510623667738847E-17 ) ) ;
#136 = CARTESIAN_POINT ( 'NONE',  ( 0.1562500000000000000, 0.2706329386826362149, 1.913510623667737923E-17 ) ) ;
#137 = DIRECTION ( 'NONE',  ( -1.237930494036654098E-16, 1.000000000000000000, -0.000000000000000000 ) ) ;
#138 = FILL_AREA_STYLE ('',( #155 ) ) ;
#139 = CARTESIAN_POINT ( 'NONE',  ( 6.123233995736772199E-17, 2.500000000000000000, 0.000000000000000000 ) ) ;
#140 = ADVANCED_FACE ( 'NONE', ( #108 ), #29, .F. ) ;
#141 = DIRECTION ( 'NONE',  ( 5.816148501619839219E-18, 1.000000000000000000, 0.000000000000000000 ) ) ;
#142 = DIRECTION ( 'NONE',  ( -1.237930494036654098E-16, 1.000000000000000000, -0.000000000000000000 ) ) ;
#143 = MECHANICAL_DESIGN_GEOMETRIC_PRESENTATION_REPRESENTATION (  '', ( #199 ), #133 ) ;
#144 = FILL_AREA_STYLE_COLOUR ( '', #11 ) ;
#145 = CIRCLE ( 'NONE', #127, 0.1562500000000000000 ) ;
#146 = DIRECTION ( 'NONE',  ( -1.000000000000000000, 0.000000000000000000, 0.000000000000000000 ) ) ;
#147 = ORIENTED_EDGE ( 'NONE', *, *, #121, .T. ) ;
#148 = ORIENTED_EDGE ( 'NONE', *, *, #230, .T. ) ;
#149 = APPLICATION_CONTEXT ( 'automotive_design' ) ;
#150 = MECHANICAL_DESIGN_GEOMETRIC_PRESENTATION_REPRESENTATION (  '', ( #35 ), #209 ) ;
#151 = PRESENTATION_STYLE_ASSIGNMENT (( #250 ) ) ;
#152 = CARTESIAN_POINT ( 'NONE',  ( 6.123233995736772199E-17, 2.500000000000000000, 0.000000000000000000 ) ) ;
#153 = DIRECTION ( 'NONE',  ( -1.000000000000000000, 0.000000000000000000, 0.000000000000000000 ) ) ;
#154 =( GEOMETRIC_REPRESENTATION_CONTEXT ( 3 ) GLOBAL_UNCERTAINTY_ASSIGNED_CONTEXT ( ( #249 ) ) GLOBAL_UNIT_ASSIGNED_CONTEXT ( ( #99, #83, #25 ) ) REPRESENTATION_CONTEXT ( 'NONE', 'WORKASPACE' ) );
#155 = FILL_AREA_STYLE_COLOUR ( '', #87 ) ;
#156 = EDGE_CURVE ( 'NONE', #70, #229, #240, .T. ) ;
#157 = DIRECTION ( 'NONE',  ( -5.816148501619839219E-18, -1.000000000000000000, -0.000000000000000000 ) ) ;
#158 = DIRECTION ( 'NONE',  ( -1.000000000000000000, -2.185478394931415259E-16, 0.000000000000000000 ) ) ;
#159 = CARTESIAN_POINT ( 'NONE',  ( 0.000000000000000000, 0.000000000000000000, 0.000000000000000000 ) ) ;
#160 = CONICAL_SURFACE ( 'NONE', #125, 22.73032555864674720, 0.5235987755983001479 ) ;
#161 = DIMENSIONAL_EXPONENTS ( 1.000000000000000000, 0.000000000000000000, 0.000000000000000000, 0.000000000000000000, 0.000000000000000000, 0.000000000000000000, 0.000000000000000000 ) ;
#162 = SHAPE_DEFINITION_REPRESENTATION ( #175, #18 ) ;
#163 =( CONVERSION_BASED_UNIT ( 'INCH', #57 ) LENGTH_UNIT ( ) NAMED_UNIT ( #256 ) );
#164 = DIRECTION ( 'NONE',  ( 1.000000000000000000, 0.000000000000000000, 0.000000000000000000 ) ) ;
#165 = CARTESIAN_POINT ( 'NONE',  ( 1.574041360807988724E-18, 0.2706329386826362704, 0.000000000000000000 ) ) ;
#166 = SURFACE_STYLE_USAGE ( .BOTH. , #48 ) ;
#167 = LENGTH_MEASURE_WITH_UNIT ( LENGTH_MEASURE( 0.02539999999999999897 ), #34 );
#168 = ORIENTED_EDGE ( 'NONE', *, *, #215, .T. ) ;
#169 = CARTESIAN_POINT ( 'NONE',  ( -0.1562499999999999722, 0.2706329386826362149, 0.000000000000000000 ) ) ;
#170 = ORIENTED_EDGE ( 'NONE', *, *, #215, .F. ) ;
#171 = ORIENTED_EDGE ( 'NONE', *, *, #224, .T. ) ;
#172 = PRESENTATION_LAYER_ASSIGNMENT (  '', '', ( #199 ) ) ;
#173 = MANIFOLD_SOLID_BREP ( 'Revolve - Tool Body (Pointed)', #263 ) ;
#174 = ADVANCED_FACE ( 'NONE', ( #105 ), #182, .T. ) ;
#175 = PRODUCT_DEFINITION_SHAPE ( 'NONE', 'NONE',  #30 ) ;
#176 = AXIS2_PLACEMENT_3D ( 'NONE', #59, #141, #260 ) ;
#177 = DIRECTION ( 'NONE',  ( -1.000000000000000000, -2.185478394931415259E-16, 0.000000000000000000 ) ) ;
#178 = COLOUR_RGB ( '',1.000000000000000000, 0.000000000000000000, 0.000000000000000000 ) ;
#179 = CIRCLE ( 'NONE', #191, 0.1562500000000000000 ) ;
#180 = DIRECTION ( 'NONE',  ( -1.237930494036654098E-16, 1.000000000000000000, -0.000000000000000000 ) ) ;
#181 =( LENGTH_UNIT ( ) NAMED_UNIT ( * ) SI_UNIT ( $, .METRE. ) );
#182 = PLANE ( 'NONE',  #176 ) ;
#183 = VECTOR ( 'NONE', #42, 39.37007874015748854 ) ;
#184 = AXIS2_PLACEMENT_3D ( 'NONE', #2, #74, #164 ) ;
#185 = ORIENTED_EDGE ( 'NONE', *, *, #116, .F. ) ;
#186 = ORIENTED_EDGE ( 'NONE', *, *, #156, .F. ) ;
#187 = CONICAL_SURFACE ( 'NONE', #111, 22.73032555864674720, 0.5235987755983001479 ) ;
#188 = ORIENTED_EDGE ( 'NONE', *, *, #156, .T. ) ;
#189 = FILL_AREA_STYLE_COLOUR ( '', #178 ) ;
#190 = EDGE_LOOP ( 'NONE', ( #168, #45, #28, #242 ) ) ;
#191 = AXIS2_PLACEMENT_3D ( 'NONE', #165, #157, #4 ) ;
#192 = UNCERTAINTY_MEASURE_WITH_UNIT (LENGTH_MEASURE( 1.000000000000000082E-05 ), #225, 'distance_accuracy_value', 'NONE');
#193 = ADVANCED_FACE ( 'NONE', ( #97 ), #200, .F. ) ;
#194 = AXIS2_PLACEMENT_3D ( 'NONE', #115, #142, #158 ) ;
#195 = PRESENTATION_STYLE_ASSIGNMENT (( #101 ) ) ;
#196 =( CONVERSION_BASED_UNIT ( 'INCH', #213 ) LENGTH_UNIT ( ) NAMED_UNIT ( #161 ) );
#197 = CYLINDRICAL_SURFACE ( 'NONE', #198, 0.1562499999999998057 ) ;
#198 = AXIS2_PLACEMENT_3D ( 'NONE', #139, #201, #237 ) ;
#199 = STYLED_ITEM ( 'NONE', ( #82 ), #261 ) ;
#200 = PLANE ( 'NONE',  #91 ) ;
#201 = DIRECTION ( 'NONE',  ( -1.237930494036654098E-16, 1.000000000000000000, -0.000000000000000000 ) ) ;
#202 = FILL_AREA_STYLE_COLOUR ( '', #16 ) ;
#203 = VERTEX_POINT ( 'NONE', #136 ) ;
#204 = PRESENTATION_STYLE_ASSIGNMENT (( #166 ) ) ;
#205 = EDGE_LOOP ( 'NONE', ( #32, #112 ) ) ;
#206 = VECTOR ( 'NONE', #223, 39.37007874015748854 ) ;
#207 = LINE ( 'NONE', #77, #61 ) ;
#208 = PRESENTATION_LAYER_ASSIGNMENT (  '', '', ( #71 ) ) ;
#209 =( GEOMETRIC_REPRESENTATION_CONTEXT ( 3 ) GLOBAL_UNCERTAINTY_ASSIGNED_CONTEXT ( ( #94 ) ) GLOBAL_UNIT_ASSIGNED_CONTEXT ( ( #196, #40, #219 ) ) REPRESENTATION_CONTEXT ( 'NONE', 'WORKASPACE' ) );
#210 = UNCERTAINTY_MEASURE_WITH_UNIT (LENGTH_MEASURE( 1.000000000000000082E-05 ), #102, 'distance_accuracy_value', 'NONE');
#211 = CARTESIAN_POINT ( 'NONE',  ( 6.123233995736772199E-17, 2.500000000000000000, 0.000000000000000000 ) ) ;
#212 =( LENGTH_UNIT ( ) NAMED_UNIT ( * ) SI_UNIT ( $, .METRE. ) );
#213 = LENGTH_MEASURE_WITH_UNIT ( LENGTH_MEASURE( 0.02539999999999999897 ), #238 );
#214 = STYLED_ITEM ( 'NONE', ( #195 ), #258 ) ;
#215 = EDGE_CURVE ( 'NONE', #109, #203, #51, .T. ) ;
#216 = CARTESIAN_POINT ( 'NONE',  ( 0.1562500000000000000, 2.500000000000000000, 1.913510623667737923E-17 ) ) ;
#217 = APPLICATION_PROTOCOL_DEFINITION ( 'draft international standard', 'automotive_design', 1998, #149 ) ;
#218 = FILL_AREA_STYLE ('',( #144 ) ) ;
#219 =( NAMED_UNIT ( * ) SI_UNIT ( $, .STERADIAN. ) SOLID_ANGLE_UNIT ( ) );
#220 =( NAMED_UNIT ( * ) PLANE_ANGLE_UNIT ( ) SI_UNIT ( $, .RADIAN. ) );
#221 = SURFACE_STYLE_FILL_AREA ( #218 ) ;
#222 =( NAMED_UNIT ( * ) PLANE_ANGLE_UNIT ( ) SI_UNIT ( $, .RADIAN. ) );
#223 = DIRECTION ( 'NONE',  ( 0.5000000000000009992, 0.8660254037844379305, 6.123233995736778362E-17 ) ) ;
#224 = EDGE_CURVE ( 'NONE', #229, #75, #179, .T. ) ;
#225 =( CONVERSION_BASED_UNIT ( 'INCH', #67 ) LENGTH_UNIT ( ) NAMED_UNIT ( #44 ) );
#226 =( GEOMETRIC_REPRESENTATION_CONTEXT ( 3 ) GLOBAL_UNCERTAINTY_ASSIGNED_CONTEXT ( ( #78 ) ) GLOBAL_UNIT_ASSIGNED_CONTEXT ( ( #62, #220, #84 ) ) REPRESENTATION_CONTEXT ( 'NONE', 'WORKASPACE' ) );
#227 = FILL_AREA_STYLE_COLOUR ( '', #96 ) ;
#228 = ORIENTED_EDGE ( 'NONE', *, *, #15, .T. ) ;
#229 = VERTEX_POINT ( 'NONE', #135 ) ;
#230 = EDGE_CURVE ( 'NONE', #70, #75, #37, .T. ) ;
#231 = CARTESIAN_POINT ( 'NONE',  ( -0.1562499999999998612, 2.500000000000000000, 0.000000000000000000 ) ) ;
#232 = AXIS2_PLACEMENT_3D ( 'NONE', #20, #8, #146 ) ;
#233 = EDGE_LOOP ( 'NONE', ( #147, #12 ) ) ;
#234 = APPLICATION_CONTEXT ( 'automotive_design' ) ;
#235 = FACE_OUTER_BOUND ( 'NONE', #245, .T. ) ;
#236 = DIRECTION ( 'NONE',  ( -1.000000000000000000, 0.000000000000000000, 0.000000000000000000 ) ) ;
#237 = DIRECTION ( 'NONE',  ( -1.000000000000000000, 0.000000000000000000, 0.000000000000000000 ) ) ;
#238 =( LENGTH_UNIT ( ) NAMED_UNIT ( * ) SI_UNIT ( $, .METRE. ) );
#239 = CIRCLE ( 'NONE', #36, 0.1562499999999999445 ) ;
#240 = LINE ( 'NONE', #103, #206 ) ;
#241 =( NAMED_UNIT ( * ) SI_UNIT ( $, .STERADIAN. ) SOLID_ANGLE_UNIT ( ) );
#242 = ORIENTED_EDGE ( 'NONE', *, *, #15, .F. ) ;
#243 = CARTESIAN_POINT ( 'NONE',  ( 0.1562500000000000000, 2.500000000000000000, 0.000000000000000000 ) ) ;
#244 = PRODUCT_CONTEXT ( 'NONE', #234, 'mechanical' ) ;
#245 = EDGE_LOOP ( 'NONE', ( #49, #128, #228, #185 ) ) ;
#246 = EDGE_LOOP ( 'NONE', ( #90, #188, #171 ) ) ;
#247 = ADVANCED_FACE ( 'NONE', ( #235 ), #197, .T. ) ;
#248 = VERTEX_POINT ( 'NONE', #216 ) ;
#249 = UNCERTAINTY_MEASURE_WITH_UNIT (LENGTH_MEASURE( 1.000000000000000082E-05 ), #99, 'distance_accuracy_value', 'NONE');
#250 = SURFACE_STYLE_USAGE ( .BOTH. , #95 ) ;
#251 = PRESENTATION_LAYER_ASSIGNMENT (  '', '', ( #214 ) ) ;
#252 = EDGE_CURVE ( 'NONE', #203, #248, #63, .T. ) ;
#253 = DIRECTION ( 'NONE',  ( 5.816148501619839219E-18, 1.000000000000000000, 0.000000000000000000 ) ) ;
#254 = DIRECTION ( 'NONE',  ( 5.816148501619839219E-18, 1.000000000000000000, 0.000000000000000000 ) ) ;
#255 = AXIS2_PLACEMENT_3D ( 'NONE', #117, #180, #177 ) ;
#256 = DIMENSIONAL_EXPONENTS ( 1.000000000000000000, 0.000000000000000000, 0.000000000000000000, 0.000000000000000000, 0.000000000000000000, 0.000000000000000000, 0.000000000000000000 ) ;
#257 = DIRECTION ( 'NONE',  ( -1.237930494036654098E-16, 1.000000000000000000, 0.000000000000000000 ) ) ;
#258 = ADVANCED_FACE ( 'NONE', ( #85 ), #187, .T. ) ;
#259 = DIRECTION ( 'NONE',  ( -1.000000000000000000, 0.000000000000000000, 0.000000000000000000 ) ) ;
#260 = DIRECTION ( 'NONE',  ( -1.000000000000000000, 5.816148501619839219E-18, 0.000000000000000000 ) ) ;
#261 = MANIFOLD_SOLID_BREP ( 'Revolve - Cutting Edge', #56 ) ;
#262 = SURFACE_STYLE_FILL_AREA ( #138 ) ;
#263 = CLOSED_SHELL ( 'NONE', ( #93, #193, #247, #140 ) ) ;
#264 = MECHANICAL_DESIGN_GEOMETRIC_PRESENTATION_REPRESENTATION (  '', ( #106 ), #130 ) ;
#265 = FACE_OUTER_BOUND ( 'NONE', #190, .T. ) ;
ENDSEC;
END-ISO-10303-21;
