ISO-10303-21;
HEADER;
FILE_DESCRIPTION (( 'STEP AP214' ),
    '1' );
FILE_NAME ('17465.STEP',
    '2023-06-30T21:54:06',
    ( '' ),
    ( '' ),
    'SwSTEP 2.0',
    'SolidWorks 2023',
    '' );
FILE_SCHEMA (( 'AUTOMOTIVE_DESIGN' ));
ENDSEC;

DATA;
#1 = SURFACE_STYLE_FILL_AREA ( #57 ) ;
#2 = UNCERTAINTY_MEASURE_WITH_UNIT (LENGTH_MEASURE( 1.000000000000000082E-05 ), #204, 'distance_accuracy_value', 'NONE');
#3 = SURFACE_STYLE_USAGE ( .BOTH. , #285 ) ;
#4 = PLANE ( 'NONE',  #63 ) ;
#5 = EDGE_CURVE ( 'NONE', #114, #197, #269, .T. ) ;
#6 =( LENGTH_UNIT ( ) NAMED_UNIT ( * ) SI_UNIT ( $, .METRE. ) );
#7 = LENGTH_MEASURE_WITH_UNIT ( LENGTH_MEASURE( 0.02539999999999999897 ), #238 );
#8 = SURFACE_SIDE_STYLE ('',( #156 ) ) ;
#9 = SURFACE_STYLE_FILL_AREA ( #273 ) ;
#10 =( CONVERSION_BASED_UNIT ( 'INCH', #190 ) LENGTH_UNIT ( ) NAMED_UNIT ( #219 ) );
#11 = DIRECTION ( 'NONE',  ( -1.000000000000000000, 0.000000000000000000, 0.000000000000000000 ) ) ;
#12 = AXIS2_PLACEMENT_3D ( 'NONE', #159, #15, #257 ) ;
#13 = EDGE_CURVE ( 'NONE', #168, #164, #39, .T. ) ;
#14 = ORIENTED_EDGE ( 'NONE', *, *, #250, .F. ) ;
#15 = DIRECTION ( 'NONE',  ( -1.224646799147353454E-16, 1.000000000000000000, -0.000000000000000000 ) ) ;
#16 = DIRECTION ( 'NONE',  ( -0.000000000000000000, -1.000000000000000000, -0.000000000000000000 ) ) ;
#17 = ORIENTED_EDGE ( 'NONE', *, *, #206, .T. ) ;
#18 = DIRECTION ( 'NONE',  ( 0.000000000000000000, 0.000000000000000000, -1.000000000000000000 ) ) ;
#19 = PRODUCT_DEFINITION_CONTEXT ( 'detailed design', #362, 'design' ) ;
#20 = ORIENTED_EDGE ( 'NONE', *, *, #353, .F. ) ;
#21 = AXIS2_PLACEMENT_3D ( 'NONE', #215, #334, #101 ) ;
#22 = DIMENSIONAL_EXPONENTS ( 1.000000000000000000, 0.000000000000000000, 0.000000000000000000, 0.000000000000000000, 0.000000000000000000, 0.000000000000000000, 0.000000000000000000 ) ;
#23 = MANIFOLD_SOLID_BREP ( 'Revolve - Cutting Edge', #208 ) ;
#24 = PRODUCT_RELATED_PRODUCT_CATEGORY ( 'part', '', ( #184 ) ) ;
#25 = ORIENTED_EDGE ( 'NONE', *, *, #250, .T. ) ;
#26 = VERTEX_POINT ( 'NONE', #211 ) ;
#27 = DIRECTION ( 'NONE',  ( 1.000000000000000000, 0.000000000000000000, -1.224646799147353207E-16 ) ) ;
#28 = LENGTH_MEASURE_WITH_UNIT ( LENGTH_MEASURE( 0.02539999999999999897 ), #227 );
#29 = EDGE_CURVE ( 'NONE', #247, #168, #300, .T. ) ;
#30 = STYLED_ITEM ( 'NONE', ( #42 ), #327 ) ;
#31 = CARTESIAN_POINT ( 'NONE',  ( 0.000000000000000000, 1.250000000000000000, 0.000000000000000000 ) ) ;
#32 = FACE_OUTER_BOUND ( 'NONE', #49, .T. ) ;
#33 = AXIS2_PLACEMENT_3D ( 'NONE', #365, #106, #278 ) ;
#34 = LENGTH_MEASURE_WITH_UNIT ( LENGTH_MEASURE( 0.02539999999999999897 ), #6 );
#35 =( NAMED_UNIT ( * ) PLANE_ANGLE_UNIT ( ) SI_UNIT ( $, .RADIAN. ) );
#36 = DIRECTION ( 'NONE',  ( 0.000000000000000000, 0.000000000000000000, 1.000000000000000000 ) ) ;
#37 = DIRECTION ( 'NONE',  ( -1.224646799147353454E-16, 1.000000000000000000, -0.000000000000000000 ) ) ;
#38 = ADVANCED_FACE ( 'NONE', ( #32 ), #61, .F. ) ;
#39 = CIRCLE ( 'NONE', #108, 0.2500000000000000000 ) ;
#40 = AXIS2_PLACEMENT_3D ( 'NONE', #90, #36, #337 ) ;
#41 = DIRECTION ( 'NONE',  ( 0.000000000000000000, 0.000000000000000000, 1.000000000000000000 ) ) ;
#42 = PRESENTATION_STYLE_ASSIGNMENT (( #95 ) ) ;
#43 = FILL_AREA_STYLE_COLOUR ( '', #138 ) ;
#44 = UNCERTAINTY_MEASURE_WITH_UNIT (LENGTH_MEASURE( 1.000000000000000082E-05 ), #294, 'distance_accuracy_value', 'NONE');
#45 = DIRECTION ( 'NONE',  ( -0.000000000000000000, -1.000000000000000000, -0.000000000000000000 ) ) ;
#46 = PRESENTATION_LAYER_ASSIGNMENT (  '', '', ( #157 ) ) ;
#47 = AXIS2_PLACEMENT_3D ( 'NONE', #68, #301, #124 ) ;
#48 = DIRECTION ( 'NONE',  ( 0.000000000000000000, 0.000000000000000000, -1.000000000000000000 ) ) ;
#49 = EDGE_LOOP ( 'NONE', ( #281, #363 ) ) ;
#50 = ORIENTED_EDGE ( 'NONE', *, *, #5, .T. ) ;
#51 = PRESENTATION_LAYER_ASSIGNMENT (  '', '', ( #243 ) ) ;
#52 = ORIENTED_EDGE ( 'NONE', *, *, #339, .T. ) ;
#53 = COLOUR_RGB ( '',1.000000000000000000, 0.000000000000000000, 0.000000000000000000 ) ;
#54 = SURFACE_STYLE_FILL_AREA ( #74 ) ;
#55 = PRODUCT_DEFINITION ( 'UNKNOWN', '', #182, #19 ) ;
#56 = CARTESIAN_POINT ( 'NONE',  ( 0.000000000000000000, 0.2500000000000000000, 0.000000000000000000 ) ) ;
#57 = FILL_AREA_STYLE ('',( #263 ) ) ;
#58 = CLOSED_SHELL ( 'NONE', ( #373, #72, #259, #38 ) ) ;
#59 = DIRECTION ( 'NONE',  ( -1.000000000000000000, 0.000000000000000000, 0.000000000000000000 ) ) ;
#60 = CARTESIAN_POINT ( 'NONE',  ( -3.061616997868383018E-17, 0.2500000000000000000, 0.000000000000000000 ) ) ;
#61 = PLANE ( 'NONE',  #313 ) ;
#62 = EDGE_CURVE ( 'NONE', #197, #114, #145, .T. ) ;
#63 = AXIS2_PLACEMENT_3D ( 'NONE', #233, #231, #178 ) ;
#64 = VECTOR ( 'NONE', #105, 39.37007874015748143 ) ;
#65 = DIRECTION ( 'NONE',  ( -0.000000000000000000, -1.000000000000000000, -0.000000000000000000 ) ) ;
#66 = PRODUCT_DEFINITION_SHAPE ( 'NONE', 'NONE',  #55 ) ;
#67 =( LENGTH_UNIT ( ) NAMED_UNIT ( * ) SI_UNIT ( $, .METRE. ) );
#68 = CARTESIAN_POINT ( 'NONE',  ( 0.000000000000000000, 1.250000000000000000, 0.000000000000000000 ) ) ;
#69 = COLOUR_RGB ( '',1.000000000000000000, 0.000000000000000000, 0.000000000000000000 ) ;
#70 = AXIS2_PLACEMENT_3D ( 'NONE', #309, #16, #48 ) ;
#71 = SPHERICAL_SURFACE ( 'NONE', #167, 0.2500000000000000000 ) ;
#72 = ADVANCED_FACE ( 'NONE', ( #230 ), #4, .F. ) ;
#73 = FILL_AREA_STYLE_COLOUR ( '', #69 ) ;
#74 = FILL_AREA_STYLE ('',( #318 ) ) ;
#75 = VERTEX_POINT ( 'NONE', #288 ) ;
#76 = ORIENTED_EDGE ( 'NONE', *, *, #339, .F. ) ;
#77 = EDGE_LOOP ( 'NONE', ( #225, #256, #133, #344 ) ) ;
#78 = ORIENTED_EDGE ( 'NONE', *, *, #254, .T. ) ;
#79 = CIRCLE ( 'NONE', #291, 0.2499999999999999167 ) ;
#80 = LENGTH_MEASURE_WITH_UNIT ( LENGTH_MEASURE( 0.02539999999999999897 ), #86 );
#81 = CARTESIAN_POINT ( 'NONE',  ( 0.2500000000000000000, 0.2500000000000000000, 0.000000000000000000 ) ) ;
#82 = DIRECTION ( 'NONE',  ( -0.000000000000000000, -1.000000000000000000, -0.000000000000000000 ) ) ;
#83 = CARTESIAN_POINT ( 'NONE',  ( -0.2500000000000000000, 3.000000000000000444, 0.000000000000000000 ) ) ;
#84 = CARTESIAN_POINT ( 'NONE',  ( 0.000000000000000000, 1.250000000000000000, 0.000000000000000000 ) ) ;
#85 = APPLICATION_PROTOCOL_DEFINITION ( 'draft international standard', 'automotive_design', 1998, #326 ) ;
#86 =( LENGTH_UNIT ( ) NAMED_UNIT ( * ) SI_UNIT ( $, .METRE. ) );
#87 = DIRECTION ( 'NONE',  ( 1.000000000000000000, 0.000000000000000000, 0.000000000000000000 ) ) ;
#88 =( NAMED_UNIT ( * ) SI_UNIT ( $, .STERADIAN. ) SOLID_ANGLE_UNIT ( ) );
#89 = CARTESIAN_POINT ( 'NONE',  ( -3.061616997868383018E-17, 0.2500000000000000000, 0.000000000000000000 ) ) ;
#90 = CARTESIAN_POINT ( 'NONE',  ( -3.061616997868383018E-17, 0.2500000000000000000, 0.000000000000000000 ) ) ;
#91 = PRESENTATION_LAYER_ASSIGNMENT (  '', '', ( #174 ) ) ;
#92 = AXIS2_PLACEMENT_3D ( 'NONE', #357, #65, #298 ) ;
#93 =( NAMED_UNIT ( * ) SI_UNIT ( $, .STERADIAN. ) SOLID_ANGLE_UNIT ( ) );
#94 = CARTESIAN_POINT ( 'NONE',  ( 0.000000000000000000, 1.250000000000000000, -0.2499999999999998612 ) ) ;
#95 = SURFACE_STYLE_USAGE ( .BOTH. , #8 ) ;
#96 = SURFACE_STYLE_USAGE ( .BOTH. , #125 ) ;
#97 = CARTESIAN_POINT ( 'NONE',  ( 0.2499999999999998612, 3.000000000000000444, 3.061616997868381785E-17 ) ) ;
#98 = AXIS2_PLACEMENT_3D ( 'NONE', #56, #142, #325 ) ;
#99 = AXIS2_PLACEMENT_3D ( 'NONE', #308, #45, #199 ) ;
#100 = CIRCLE ( 'NONE', #92, 0.2500000000000000000 ) ;
#101 = DIRECTION ( 'NONE',  ( 0.000000000000000000, 0.000000000000000000, -1.000000000000000000 ) ) ;
#102 = DIMENSIONAL_EXPONENTS ( 1.000000000000000000, 0.000000000000000000, 0.000000000000000000, 0.000000000000000000, 0.000000000000000000, 0.000000000000000000, 0.000000000000000000 ) ;
#103 = LINE ( 'NONE', #220, #351 ) ;
#104 = ORIENTED_EDGE ( 'NONE', *, *, #194, .T. ) ;
#105 = DIRECTION ( 'NONE',  ( -0.000000000000000000, -1.000000000000000000, -0.000000000000000000 ) ) ;
#106 = DIRECTION ( 'NONE',  ( -1.224646799147353454E-16, 1.000000000000000000, -0.000000000000000000 ) ) ;
#107 = ADVANCED_FACE ( 'NONE', ( #170 ), #143, .T. ) ;
#108 = AXIS2_PLACEMENT_3D ( 'NONE', #60, #324, #319 ) ;
#109 = ADVANCED_FACE ( 'NONE', ( #155 ), #71, .T. ) ;
#110 = AXIS2_PLACEMENT_3D ( 'NONE', #232, #350, #193 ) ;
#111 = VERTEX_POINT ( 'NONE', #151 ) ;
#112 = FACE_OUTER_BOUND ( 'NONE', #195, .T. ) ;
#113 = ORIENTED_EDGE ( 'NONE', *, *, #13, .F. ) ;
#114 = VERTEX_POINT ( 'NONE', #94 ) ;
#115 = EDGE_CURVE ( 'NONE', #75, #247, #229, .T. ) ;
#116 = PRESENTATION_STYLE_ASSIGNMENT (( #3 ) ) ;
#117 =( GEOMETRIC_REPRESENTATION_CONTEXT ( 3 ) GLOBAL_UNCERTAINTY_ASSIGNED_CONTEXT ( ( #323 ) ) GLOBAL_UNIT_ASSIGNED_CONTEXT ( ( #295, #123, #356 ) ) REPRESENTATION_CONTEXT ( 'NONE', 'WORKASPACE' ) );
#118 = DIRECTION ( 'NONE',  ( 1.000000000000000000, 1.224646799147353454E-16, 0.000000000000000000 ) ) ;
#119 = CARTESIAN_POINT ( 'NONE',  ( 0.000000000000000000, 0.000000000000000000, 0.000000000000000000 ) ) ;
#120 =( NAMED_UNIT ( * ) SI_UNIT ( $, .STERADIAN. ) SOLID_ANGLE_UNIT ( ) );
#121 = ADVANCED_FACE ( 'NONE', ( #330 ), #198, .T. ) ;
#122 = LENGTH_MEASURE_WITH_UNIT ( LENGTH_MEASURE( 0.02539999999999999897 ), #67 );
#123 =( NAMED_UNIT ( * ) PLANE_ANGLE_UNIT ( ) SI_UNIT ( $, .RADIAN. ) );
#124 = DIRECTION ( 'NONE',  ( 0.000000000000000000, -0.000000000000000000, 1.000000000000000000 ) ) ;
#125 = SURFACE_SIDE_STYLE ('',( #9 ) ) ;
#126 = FILL_AREA_STYLE_COLOUR ( '', #158 ) ;
#127 = STYLED_ITEM ( 'NONE', ( #270 ), #109 ) ;
#128 = LINE ( 'NONE', #245, #64 ) ;
#129 = DIRECTION ( 'NONE',  ( -0.000000000000000000, -1.000000000000000000, -0.000000000000000000 ) ) ;
#130 = DIRECTION ( 'NONE',  ( -1.224646799147353454E-16, 1.000000000000000000, -0.000000000000000000 ) ) ;
#131 = ORIENTED_EDGE ( 'NONE', *, *, #13, .T. ) ;
#132 = EDGE_LOOP ( 'NONE', ( #52, #78, #113, #224 ) ) ;
#133 = ORIENTED_EDGE ( 'NONE', *, *, #335, .T. ) ;
#134 = ORIENTED_EDGE ( 'NONE', *, *, #335, .F. ) ;
#135 = DIRECTION ( 'NONE',  ( 0.000000000000000000, 0.000000000000000000, -1.000000000000000000 ) ) ;
#136 = SURFACE_SIDE_STYLE ('',( #54 ) ) ;
#137 = AXIS2_PLACEMENT_3D ( 'NONE', #31, #180, #372 ) ;
#138 = COLOUR_RGB ( '',1.000000000000000000, 0.000000000000000000, 0.000000000000000000 ) ;
#139 = AXIS2_PLACEMENT_3D ( 'NONE', #338, #370, #27 ) ;
#140 =( NAMED_UNIT ( * ) PLANE_ANGLE_UNIT ( ) SI_UNIT ( $, .RADIAN. ) );
#141 = ADVANCED_FACE ( 'NONE', ( #112 ), #332, .T. ) ;
#142 = DIRECTION ( 'NONE',  ( -0.000000000000000000, -1.000000000000000000, -0.000000000000000000 ) ) ;
#143 = PLANE ( 'NONE',  #47 ) ;
#144 = DIRECTION ( 'NONE',  ( 1.224646799147353454E-16, -1.000000000000000000, 0.000000000000000000 ) ) ;
#145 = CIRCLE ( 'NONE', #228, 0.2499999999999998612 ) ;
#146 = MECHANICAL_DESIGN_GEOMETRIC_PRESENTATION_REPRESENTATION (  '', ( #286 ), #359 ) ;
#147 = MANIFOLD_SOLID_BREP ( 'Revolve - Tool Body (Straight Shanked)', #58 ) ;
#148 =( CONVERSION_BASED_UNIT ( 'INCH', #34 ) LENGTH_UNIT ( ) NAMED_UNIT ( #185 ) );
#149 = FILL_AREA_STYLE ('',( #73 ) ) ;
#150 = SURFACE_SIDE_STYLE ('',( #358 ) ) ;
#151 = CARTESIAN_POINT ( 'NONE',  ( 0.2499999999999998612, 1.250000000000000000, 3.061616997868381785E-17 ) ) ;
#152 = CARTESIAN_POINT ( 'NONE',  ( 0.2499999999999997502, 3.000000000000000444, 3.061616997868380553E-17 ) ) ;
#153 = EDGE_CURVE ( 'NONE', #111, #26, #244, .T. ) ;
#154 = SURFACE_STYLE_FILL_AREA ( #149 ) ;
#155 = FACE_OUTER_BOUND ( 'NONE', #202, .T. ) ;
#156 = SURFACE_STYLE_FILL_AREA ( #272 ) ;
#157 = STYLED_ITEM ( 'NONE', ( #116 ), #107 ) ;
#158 = COLOUR_RGB ( '',1.000000000000000000, 0.000000000000000000, 0.000000000000000000 ) ;
#159 = CARTESIAN_POINT ( 'NONE',  ( 1.530808498934191571E-16, 1.250000000000000000, 0.000000000000000000 ) ) ;
#160 = LINE ( 'NONE', #276, #302 ) ;
#161 = UNCERTAINTY_MEASURE_WITH_UNIT (LENGTH_MEASURE( 1.000000000000000082E-05 ), #216, 'distance_accuracy_value', 'NONE');
#162 = ORIENTED_EDGE ( 'NONE', *, *, #29, .T. ) ;
#163 = DIRECTION ( 'NONE',  ( -0.000000000000000000, -1.000000000000000000, -0.000000000000000000 ) ) ;
#164 = VERTEX_POINT ( 'NONE', #348 ) ;
#165 = UNCERTAINTY_MEASURE_WITH_UNIT (LENGTH_MEASURE( 1.000000000000000082E-05 ), #260, 'distance_accuracy_value', 'NONE');
#166 = ORIENTED_EDGE ( 'NONE', *, *, #265, .T. ) ;
#167 = AXIS2_PLACEMENT_3D ( 'NONE', #89, #41, #297 ) ;
#168 = VERTEX_POINT ( 'NONE', #81 ) ;
#169 = VERTEX_POINT ( 'NONE', #83 ) ;
#170 = FACE_OUTER_BOUND ( 'NONE', #249, .T. ) ;
#171 =( NAMED_UNIT ( * ) SI_UNIT ( $, .STERADIAN. ) SOLID_ANGLE_UNIT ( ) );
#172 = SURFACE_STYLE_USAGE ( .BOTH. , #136 ) ;
#173 = EDGE_CURVE ( 'NONE', #317, #169, #355, .T. ) ;
#174 = STYLED_ITEM ( 'NONE', ( #307 ), #141 ) ;
#175 = ORIENTED_EDGE ( 'NONE', *, *, #5, .F. ) ;
#176 = AXIS2_PLACEMENT_3D ( 'NONE', #119, #179, #87 ) ;
#177 = CARTESIAN_POINT ( 'NONE',  ( -6.123233995736772199E-17, 3.000000000000000444, 0.000000000000000000 ) ) ;
#178 = DIRECTION ( 'NONE',  ( -1.000000000000000000, -1.224646799147353454E-16, 0.000000000000000000 ) ) ;
#179 = DIRECTION ( 'NONE',  ( 0.000000000000000000, 0.000000000000000000, 1.000000000000000000 ) ) ;
#180 = DIRECTION ( 'NONE',  ( -0.000000000000000000, -1.000000000000000000, -0.000000000000000000 ) ) ;
#181 = AXIS2_PLACEMENT_3D ( 'NONE', #205, #207, #59 ) ;
#182 = PRODUCT_DEFINITION_FORMATION_WITH_SPECIFIED_SOURCE ( 'ANY', '', #184, .NOT_KNOWN. ) ;
#183 =( LENGTH_UNIT ( ) NAMED_UNIT ( * ) SI_UNIT ( $, .METRE. ) );
#184 = PRODUCT ( '17465', '17465', '', ( #236 ) ) ;
#185 = DIMENSIONAL_EXPONENTS ( 1.000000000000000000, 0.000000000000000000, 0.000000000000000000, 0.000000000000000000, 0.000000000000000000, 0.000000000000000000, 0.000000000000000000 ) ;
#186 =( NAMED_UNIT ( * ) PLANE_ANGLE_UNIT ( ) SI_UNIT ( $, .RADIAN. ) );
#187 = FACE_OUTER_BOUND ( 'NONE', #221, .T. ) ;
#188 = EDGE_CURVE ( 'NONE', #169, #317, #79, .T. ) ;
#189 = AXIS2_PLACEMENT_3D ( 'NONE', #296, #241, #11 ) ;
#190 = LENGTH_MEASURE_WITH_UNIT ( LENGTH_MEASURE( 0.02539999999999999897 ), #237 );
#191 = LINE ( 'NONE', #152, #310 ) ;
#192 =( NAMED_UNIT ( * ) PLANE_ANGLE_UNIT ( ) SI_UNIT ( $, .RADIAN. ) );
#193 = DIRECTION ( 'NONE',  ( -1.000000000000000000, 0.000000000000000000, 0.000000000000000000 ) ) ;
#194 = EDGE_CURVE ( 'NONE', #26, #111, #346, .T. ) ;
#195 = EDGE_LOOP ( 'NONE', ( #14, #312, #17, #367, #76 ) ) ;
#196 =( LENGTH_UNIT ( ) NAMED_UNIT ( * ) SI_UNIT ( $, .METRE. ) );
#197 = VERTEX_POINT ( 'NONE', #361 ) ;
#198 = SPHERICAL_SURFACE ( 'NONE', #40, 0.2500000000000000000 ) ;
#199 = DIRECTION ( 'NONE',  ( 0.000000000000000000, 0.000000000000000000, -1.000000000000000000 ) ) ;
#200 = MECHANICAL_DESIGN_GEOMETRIC_PRESENTATION_REPRESENTATION (  '', ( #243 ), #266 ) ;
#201 =( GEOMETRIC_REPRESENTATION_CONTEXT ( 3 ) GLOBAL_UNCERTAINTY_ASSIGNED_CONTEXT ( ( #44 ) ) GLOBAL_UNIT_ASSIGNED_CONTEXT ( ( #294, #35, #304 ) ) REPRESENTATION_CONTEXT ( 'NONE', 'WORKASPACE' ) );
#202 = EDGE_LOOP ( 'NONE', ( #345, #226, #162, #131 ) ) ;
#203 = UNCERTAINTY_MEASURE_WITH_UNIT (LENGTH_MEASURE( 1.000000000000000082E-05 ), #10, 'distance_accuracy_value', 'NONE');
#204 =( CONVERSION_BASED_UNIT ( 'INCH', #80 ) LENGTH_UNIT ( ) NAMED_UNIT ( #102 ) );
#205 = CARTESIAN_POINT ( 'NONE',  ( -6.123233995736772199E-17, 3.000000000000000444, 0.000000000000000000 ) ) ;
#206 = EDGE_CURVE ( 'NONE', #114, #247, #128, .T. ) ;
#207 = DIRECTION ( 'NONE',  ( -1.224646799147353454E-16, 1.000000000000000000, -0.000000000000000000 ) ) ;
#208 = CLOSED_SHELL ( 'NONE', ( #121, #327, #107, #141, #109 ) ) ;
#209 =( NAMED_UNIT ( * ) PLANE_ANGLE_UNIT ( ) SI_UNIT ( $, .RADIAN. ) );
#210 = APPLICATION_PROTOCOL_DEFINITION ( 'draft international standard', 'automotive_design', 1998, #362 ) ;
#211 = CARTESIAN_POINT ( 'NONE',  ( -0.2499999999999995837, 1.250000000000000000, 0.000000000000000000 ) ) ;
#212 = SHAPE_DEFINITION_REPRESENTATION ( #66, #316 ) ;
#213 =( CONVERSION_BASED_UNIT ( 'INCH', #293 ) LENGTH_UNIT ( ) NAMED_UNIT ( #274 ) );
#214 = DIMENSIONAL_EXPONENTS ( 1.000000000000000000, 0.000000000000000000, 0.000000000000000000, 0.000000000000000000, 0.000000000000000000, 0.000000000000000000, 0.000000000000000000 ) ;
#215 = CARTESIAN_POINT ( 'NONE',  ( 0.000000000000000000, 0.2500000000000000000, 0.000000000000000000 ) ) ;
#216 =( CONVERSION_BASED_UNIT ( 'INCH', #218 ) LENGTH_UNIT ( ) NAMED_UNIT ( #22 ) );
#217 = PRESENTATION_STYLE_ASSIGNMENT (( #96 ) ) ;
#218 = LENGTH_MEASURE_WITH_UNIT ( LENGTH_MEASURE( 0.02539999999999999897 ), #183 );
#219 = DIMENSIONAL_EXPONENTS ( 1.000000000000000000, 0.000000000000000000, 0.000000000000000000, 0.000000000000000000, 0.000000000000000000, 0.000000000000000000, 0.000000000000000000 ) ;
#220 = CARTESIAN_POINT ( 'NONE',  ( 3.061616997868382402E-17, 0.000000000000000000, 0.2499999999999999167 ) ) ;
#221 = EDGE_LOOP ( 'NONE', ( #50, #25, #20, #279, #255 ) ) ;
#222 = CARTESIAN_POINT ( 'NONE',  ( 0.000000000000000000, 0.2500000000000000000, -0.2500000000000000000 ) ) ;
#223 = FACE_OUTER_BOUND ( 'NONE', #282, .T. ) ;
#224 = ORIENTED_EDGE ( 'NONE', *, *, #353, .T. ) ;
#225 = ORIENTED_EDGE ( 'NONE', *, *, #265, .F. ) ;
#226 = ORIENTED_EDGE ( 'NONE', *, *, #115, .T. ) ;
#227 =( LENGTH_UNIT ( ) NAMED_UNIT ( * ) SI_UNIT ( $, .METRE. ) );
#228 = AXIS2_PLACEMENT_3D ( 'NONE', #84, #82, #135 ) ;
#229 = CIRCLE ( 'NONE', #21, 0.2500000000000000000 ) ;
#230 = FACE_OUTER_BOUND ( 'NONE', #251, .T. ) ;
#231 = DIRECTION ( 'NONE',  ( -1.224646799147353454E-16, 1.000000000000000000, 0.000000000000000000 ) ) ;
#232 = CARTESIAN_POINT ( 'NONE',  ( 1.530808498934191571E-16, 1.250000000000000000, 0.000000000000000000 ) ) ;
#233 = CARTESIAN_POINT ( 'NONE',  ( 1.530808498934191571E-16, 1.250000000000000000, 0.000000000000000000 ) ) ;
#234 = MECHANICAL_DESIGN_GEOMETRIC_PRESENTATION_REPRESENTATION (  '', ( #253 ), #321 ) ;
#235 = AXIS2_PLACEMENT_3D ( 'NONE', #303, #163, #18 ) ;
#236 = PRODUCT_CONTEXT ( 'NONE', #326, 'mechanical' ) ;
#237 =( LENGTH_UNIT ( ) NAMED_UNIT ( * ) SI_UNIT ( $, .METRE. ) );
#238 =( LENGTH_UNIT ( ) NAMED_UNIT ( * ) SI_UNIT ( $, .METRE. ) );
#239 = SURFACE_SIDE_STYLE ('',( #154 ) ) ;
#240 = PRESENTATION_LAYER_ASSIGNMENT (  '', '', ( #127 ) ) ;
#241 = DIRECTION ( 'NONE',  ( -1.224646799147353454E-16, 1.000000000000000000, -0.000000000000000000 ) ) ;
#242 = FILL_AREA_STYLE ('',( #305 ) ) ;
#243 = STYLED_ITEM ( 'NONE', ( #322 ), #23 ) ;
#244 = CIRCLE ( 'NONE', #110, 0.2499999999999997224 ) ;
#245 = CARTESIAN_POINT ( 'NONE',  ( 0.000000000000000000, 0.000000000000000000, -0.2499999999999999167 ) ) ;
#246 = DIMENSIONAL_EXPONENTS ( 1.000000000000000000, 0.000000000000000000, 0.000000000000000000, 0.000000000000000000, 0.000000000000000000, 0.000000000000000000, 0.000000000000000000 ) ;
#247 = VERTEX_POINT ( 'NONE', #222 ) ;
#248 = UNCERTAINTY_MEASURE_WITH_UNIT (LENGTH_MEASURE( 1.000000000000000082E-05 ), #213, 'distance_accuracy_value', 'NONE');
#249 = EDGE_LOOP ( 'NONE', ( #175, #366 ) ) ;
#250 = EDGE_CURVE ( 'NONE', #197, #277, #103, .T. ) ;
#251 = EDGE_LOOP ( 'NONE', ( #369, #342 ) ) ;
#252 = COLOUR_RGB ( '',0.7921568627450980005, 0.8196078431372548767, 0.9333333333333333481 ) ;
#253 = STYLED_ITEM ( 'NONE', ( #217 ), #121 ) ;
#254 = EDGE_CURVE ( 'NONE', #75, #164, #329, .T. ) ;
#255 = ORIENTED_EDGE ( 'NONE', *, *, #206, .F. ) ;
#256 = ORIENTED_EDGE ( 'NONE', *, *, #153, .T. ) ;
#257 = DIRECTION ( 'NONE',  ( -1.000000000000000000, 0.000000000000000000, 0.000000000000000000 ) ) ;
#258 = FILL_AREA_STYLE ('',( #264 ) ) ;
#259 = ADVANCED_FACE ( 'NONE', ( #331 ), #320, .T. ) ;
#260 =( CONVERSION_BASED_UNIT ( 'INCH', #28 ) LENGTH_UNIT ( ) NAMED_UNIT ( #246 ) );
#261 = MECHANICAL_DESIGN_GEOMETRIC_PRESENTATION_REPRESENTATION (  '', ( #157 ), #354 ) ;
#262 = MECHANICAL_DESIGN_GEOMETRIC_PRESENTATION_REPRESENTATION (  '', ( #127 ), #117 ) ;
#263 = FILL_AREA_STYLE_COLOUR ( '', #252 ) ;
#264 = FILL_AREA_STYLE_COLOUR ( '', #328 ) ;
#265 = EDGE_CURVE ( 'NONE', #111, #317, #191, .T. ) ;
#266 =( GEOMETRIC_REPRESENTATION_CONTEXT ( 3 ) GLOBAL_UNCERTAINTY_ASSIGNED_CONTEXT ( ( #2 ) ) GLOBAL_UNIT_ASSIGNED_CONTEXT ( ( #204, #209, #88 ) ) REPRESENTATION_CONTEXT ( 'NONE', 'WORKASPACE' ) );
#267 = PRESENTATION_LAYER_ASSIGNMENT (  '', '', ( #253 ) ) ;
#268 = UNCERTAINTY_MEASURE_WITH_UNIT (LENGTH_MEASURE( 1.000000000000000082E-05 ), #148, 'distance_accuracy_value', 'NONE');
#269 = CIRCLE ( 'NONE', #137, 0.2499999999999998612 ) ;
#270 = PRESENTATION_STYLE_ASSIGNMENT (( #333 ) ) ;
#271 =( GEOMETRIC_REPRESENTATION_CONTEXT ( 3 ) GLOBAL_UNCERTAINTY_ASSIGNED_CONTEXT ( ( #161 ) ) GLOBAL_UNIT_ASSIGNED_CONTEXT ( ( #216, #192, #93 ) ) REPRESENTATION_CONTEXT ( 'NONE', 'WORKASPACE' ) );
#272 = FILL_AREA_STYLE ('',( #43 ) ) ;
#273 = FILL_AREA_STYLE ('',( #126 ) ) ;
#274 = DIMENSIONAL_EXPONENTS ( 1.000000000000000000, 0.000000000000000000, 0.000000000000000000, 0.000000000000000000, 0.000000000000000000, 0.000000000000000000, 0.000000000000000000 ) ;
#275 = MECHANICAL_DESIGN_GEOMETRIC_PRESENTATION_REPRESENTATION (  '', ( #174 ), #201 ) ;
#276 = CARTESIAN_POINT ( 'NONE',  ( -0.2499999999999998890, 3.000000000000000444, 0.000000000000000000 ) ) ;
#277 = VERTEX_POINT ( 'NONE', #306 ) ;
#278 = DIRECTION ( 'NONE',  ( -1.000000000000000000, 0.000000000000000000, 0.000000000000000000 ) ) ;
#279 = ORIENTED_EDGE ( 'NONE', *, *, #29, .F. ) ;
#280 = DIMENSIONAL_EXPONENTS ( 1.000000000000000000, 0.000000000000000000, 0.000000000000000000, 0.000000000000000000, 0.000000000000000000, 0.000000000000000000, 0.000000000000000000 ) ;
#281 = ORIENTED_EDGE ( 'NONE', *, *, #188, .T. ) ;
#282 = EDGE_LOOP ( 'NONE', ( #104, #166, #284, #134 ) ) ;
#283 =( NAMED_UNIT ( * ) SI_UNIT ( $, .STERADIAN. ) SOLID_ANGLE_UNIT ( ) );
#284 = ORIENTED_EDGE ( 'NONE', *, *, #188, .F. ) ;
#285 = SURFACE_SIDE_STYLE ('',( #347 ) ) ;
#286 = STYLED_ITEM ( 'NONE', ( #364 ), #147 ) ;
#287 = DIRECTION ( 'NONE',  ( -1.224646799147353454E-16, 1.000000000000000000, -0.000000000000000000 ) ) ;
#288 = CARTESIAN_POINT ( 'NONE',  ( -0.2500000000000000000, 0.2500000000000000000, 3.061616997868382402E-17 ) ) ;
#289 =( NAMED_UNIT ( * ) PLANE_ANGLE_UNIT ( ) SI_UNIT ( $, .RADIAN. ) );
#290 =( NAMED_UNIT ( * ) SI_UNIT ( $, .STERADIAN. ) SOLID_ANGLE_UNIT ( ) );
#291 = AXIS2_PLACEMENT_3D ( 'NONE', #177, #287, #314 ) ;
#292 =( GEOMETRIC_REPRESENTATION_CONTEXT ( 3 ) GLOBAL_UNCERTAINTY_ASSIGNED_CONTEXT ( ( #248 ) ) GLOBAL_UNIT_ASSIGNED_CONTEXT ( ( #213, #289, #290 ) ) REPRESENTATION_CONTEXT ( 'NONE', 'WORKASPACE' ) );
#293 = LENGTH_MEASURE_WITH_UNIT ( LENGTH_MEASURE( 0.02539999999999999897 ), #196 );
#294 =( CONVERSION_BASED_UNIT ( 'INCH', #122 ) LENGTH_UNIT ( ) NAMED_UNIT ( #214 ) );
#295 =( CONVERSION_BASED_UNIT ( 'INCH', #7 ) LENGTH_UNIT ( ) NAMED_UNIT ( #280 ) );
#296 = CARTESIAN_POINT ( 'NONE',  ( -6.123233995736772199E-17, 3.000000000000000444, 0.000000000000000000 ) ) ;
#297 = DIRECTION ( 'NONE',  ( 1.000000000000000000, 0.000000000000000000, 0.000000000000000000 ) ) ;
#298 = DIRECTION ( 'NONE',  ( 0.000000000000000000, 0.000000000000000000, -1.000000000000000000 ) ) ;
#299 = SURFACE_STYLE_USAGE ( .BOTH. , #239 ) ;
#300 = CIRCLE ( 'NONE', #98, 0.2500000000000000000 ) ;
#301 = DIRECTION ( 'NONE',  ( 0.000000000000000000, 1.000000000000000000, 0.000000000000000000 ) ) ;
#302 = VECTOR ( 'NONE', #130, 39.37007874015748143 ) ;
#303 = CARTESIAN_POINT ( 'NONE',  ( 0.000000000000000000, 0.2500000000000000000, 0.000000000000000000 ) ) ;
#304 =( NAMED_UNIT ( * ) SI_UNIT ( $, .STERADIAN. ) SOLID_ANGLE_UNIT ( ) );
#305 = FILL_AREA_STYLE_COLOUR ( '', #53 ) ;
#306 = CARTESIAN_POINT ( 'NONE',  ( 3.061616997868383018E-17, 0.2500000000000000000, 0.2500000000000000000 ) ) ;
#307 = PRESENTATION_STYLE_ASSIGNMENT (( #299 ) ) ;
#308 = CARTESIAN_POINT ( 'NONE',  ( 0.000000000000000000, 0.000000000000000000, 0.000000000000000000 ) ) ;
#309 = CARTESIAN_POINT ( 'NONE',  ( 0.000000000000000000, 0.000000000000000000, 0.000000000000000000 ) ) ;
#310 = VECTOR ( 'NONE', #37, 39.37007874015748143 ) ;
#311 = CIRCLE ( 'NONE', #235, 0.2500000000000000000 ) ;
#312 = ORIENTED_EDGE ( 'NONE', *, *, #62, .T. ) ;
#313 = AXIS2_PLACEMENT_3D ( 'NONE', #349, #144, #118 ) ;
#314 = DIRECTION ( 'NONE',  ( -1.000000000000000000, 0.000000000000000000, 0.000000000000000000 ) ) ;
#315 = PRESENTATION_LAYER_ASSIGNMENT (  '', '', ( #286 ) ) ;
#316 = ADVANCED_BREP_SHAPE_REPRESENTATION ( '17465', ( #23, #147, #176 ), #292 ) ;
#317 = VERTEX_POINT ( 'NONE', #97 ) ;
#318 = FILL_AREA_STYLE_COLOUR ( '', #336 ) ;
#319 = DIRECTION ( 'NONE',  ( -1.000000000000000000, 0.000000000000000000, 0.000000000000000000 ) ) ;
#320 = CYLINDRICAL_SURFACE ( 'NONE', #189, 0.2499999999999998335 ) ;
#321 =( GEOMETRIC_REPRESENTATION_CONTEXT ( 3 ) GLOBAL_UNCERTAINTY_ASSIGNED_CONTEXT ( ( #268 ) ) GLOBAL_UNIT_ASSIGNED_CONTEXT ( ( #148, #343, #171 ) ) REPRESENTATION_CONTEXT ( 'NONE', 'WORKASPACE' ) );
#322 = PRESENTATION_STYLE_ASSIGNMENT (( #371 ) ) ;
#323 = UNCERTAINTY_MEASURE_WITH_UNIT (LENGTH_MEASURE( 1.000000000000000082E-05 ), #295, 'distance_accuracy_value', 'NONE');
#324 = DIRECTION ( 'NONE',  ( 0.000000000000000000, 0.000000000000000000, -1.000000000000000000 ) ) ;
#325 = DIRECTION ( 'NONE',  ( 0.000000000000000000, 0.000000000000000000, -1.000000000000000000 ) ) ;
#326 = APPLICATION_CONTEXT ( 'automotive_design' ) ;
#327 = ADVANCED_FACE ( 'NONE', ( #187 ), #360, .T. ) ;
#328 = COLOUR_RGB ( '',1.000000000000000000, 0.000000000000000000, 0.000000000000000000 ) ;
#329 = CIRCLE ( 'NONE', #139, 0.2500000000000000000 ) ;
#330 = FACE_OUTER_BOUND ( 'NONE', #132, .T. ) ;
#331 = FACE_OUTER_BOUND ( 'NONE', #77, .T. ) ;
#332 = CYLINDRICAL_SURFACE ( 'NONE', #99, 0.2499999999999999167 ) ;
#333 = SURFACE_STYLE_USAGE ( .BOTH. , #150 ) ;
#334 = DIRECTION ( 'NONE',  ( -0.000000000000000000, -1.000000000000000000, -0.000000000000000000 ) ) ;
#335 = EDGE_CURVE ( 'NONE', #26, #169, #160, .T. ) ;
#336 = COLOUR_RGB ( '',0.7921568627450980005, 0.8196078431372548767, 0.9333333333333333481 ) ;
#337 = DIRECTION ( 'NONE',  ( 1.000000000000000000, 0.000000000000000000, 0.000000000000000000 ) ) ;
#338 = CARTESIAN_POINT ( 'NONE',  ( -3.061616997868383018E-17, 0.2500000000000000000, 0.000000000000000000 ) ) ;
#339 = EDGE_CURVE ( 'NONE', #277, #75, #100, .T. ) ;
#340 = CYLINDRICAL_SURFACE ( 'NONE', #33, 0.2499999999999998335 ) ;
#341 = MECHANICAL_DESIGN_GEOMETRIC_PRESENTATION_REPRESENTATION (  '', ( #30 ), #271 ) ;
#342 = ORIENTED_EDGE ( 'NONE', *, *, #153, .F. ) ;
#343 =( NAMED_UNIT ( * ) PLANE_ANGLE_UNIT ( ) SI_UNIT ( $, .RADIAN. ) );
#344 = ORIENTED_EDGE ( 'NONE', *, *, #173, .F. ) ;
#345 = ORIENTED_EDGE ( 'NONE', *, *, #254, .F. ) ;
#346 = CIRCLE ( 'NONE', #12, 0.2499999999999997224 ) ;
#347 = SURFACE_STYLE_FILL_AREA ( #258 ) ;
#348 = CARTESIAN_POINT ( 'NONE',  ( -1.530808498934191509E-17, 0.000000000000000000, 0.000000000000000000 ) ) ;
#349 = CARTESIAN_POINT ( 'NONE',  ( 0.2499999999999998612, 3.000000000000000444, 0.000000000000000000 ) ) ;
#350 = DIRECTION ( 'NONE',  ( -1.224646799147353454E-16, 1.000000000000000000, -0.000000000000000000 ) ) ;
#351 = VECTOR ( 'NONE', #129, 39.37007874015748143 ) ;
#352 = SURFACE_SIDE_STYLE ('',( #1 ) ) ;
#353 = EDGE_CURVE ( 'NONE', #168, #277, #311, .T. ) ;
#354 =( GEOMETRIC_REPRESENTATION_CONTEXT ( 3 ) GLOBAL_UNCERTAINTY_ASSIGNED_CONTEXT ( ( #203 ) ) GLOBAL_UNIT_ASSIGNED_CONTEXT ( ( #10, #186, #120 ) ) REPRESENTATION_CONTEXT ( 'NONE', 'WORKASPACE' ) );
#355 = CIRCLE ( 'NONE', #181, 0.2499999999999999167 ) ;
#356 =( NAMED_UNIT ( * ) SI_UNIT ( $, .STERADIAN. ) SOLID_ANGLE_UNIT ( ) );
#357 = CARTESIAN_POINT ( 'NONE',  ( 0.000000000000000000, 0.2500000000000000000, 0.000000000000000000 ) ) ;
#358 = SURFACE_STYLE_FILL_AREA ( #242 ) ;
#359 =( GEOMETRIC_REPRESENTATION_CONTEXT ( 3 ) GLOBAL_UNCERTAINTY_ASSIGNED_CONTEXT ( ( #165 ) ) GLOBAL_UNIT_ASSIGNED_CONTEXT ( ( #260, #140, #283 ) ) REPRESENTATION_CONTEXT ( 'NONE', 'WORKASPACE' ) );
#360 = CYLINDRICAL_SURFACE ( 'NONE', #70, 0.2499999999999999167 ) ;
#361 = CARTESIAN_POINT ( 'NONE',  ( 3.061616997868381785E-17, 1.250000000000000000, 0.2499999999999998612 ) ) ;
#362 = APPLICATION_CONTEXT ( 'automotive_design' ) ;
#363 = ORIENTED_EDGE ( 'NONE', *, *, #173, .T. ) ;
#364 = PRESENTATION_STYLE_ASSIGNMENT (( #172 ) ) ;
#365 = CARTESIAN_POINT ( 'NONE',  ( -6.123233995736772199E-17, 3.000000000000000444, 0.000000000000000000 ) ) ;
#366 = ORIENTED_EDGE ( 'NONE', *, *, #62, .F. ) ;
#367 = ORIENTED_EDGE ( 'NONE', *, *, #115, .F. ) ;
#368 = PRESENTATION_LAYER_ASSIGNMENT (  '', '', ( #30 ) ) ;
#369 = ORIENTED_EDGE ( 'NONE', *, *, #194, .F. ) ;
#370 = DIRECTION ( 'NONE',  ( 1.224646799147353207E-16, -0.000000000000000000, 1.000000000000000000 ) ) ;
#371 = SURFACE_STYLE_USAGE ( .BOTH. , #352 ) ;
#372 = DIRECTION ( 'NONE',  ( 0.000000000000000000, 0.000000000000000000, -1.000000000000000000 ) ) ;
#373 = ADVANCED_FACE ( 'NONE', ( #223 ), #340, .T. ) ;
ENDSEC;
END-ISO-10303-21;
