ISO-10303-21;
HEADER;
FILE_DESCRIPTION (( 'STEP AP214' ),
    '1' );
FILE_NAME ('82395.STEP',
    '2023-06-23T05:40:27',
    ( '' ),
    ( '' ),
    'SwSTEP 2.0',
    'SolidWorks 2023',
    '' );
FILE_SCHEMA (( 'AUTOMOTIVE_DESIGN' ));
ENDSEC;

DATA;
#1 = ADVANCED_FACE ( 'NONE', ( #212 ), #164, .F. ) ;
#2 =( NAMED_UNIT ( * ) PLANE_ANGLE_UNIT ( ) SI_UNIT ( $, .RADIAN. ) );
#3 = COLOUR_RGB ( '',1.000000000000000000, 0.000000000000000000, 0.000000000000000000 ) ;
#4 = DIRECTION ( 'NONE',  ( -1.000000000000000000, 0.000000000000000000, 0.000000000000000000 ) ) ;
#5 = DIRECTION ( 'NONE',  ( 0.000000000000000000, 0.000000000000000000, -1.000000000000000000 ) ) ;
#6 = APPLICATION_CONTEXT ( 'automotive_design' ) ;
#7 = FILL_AREA_STYLE ('',( #104 ) ) ;
#8 = ADVANCED_FACE ( 'NONE', ( #142 ), #297, .T. ) ;
#9 = PRESENTATION_STYLE_ASSIGNMENT (( #199 ) ) ;
#10 = FILL_AREA_STYLE ('',( #206 ) ) ;
#11 = AXIS2_PLACEMENT_3D ( 'NONE', #187, #216, #190 ) ;
#12 = EDGE_CURVE ( 'NONE', #64, #135, #148, .T. ) ;
#13 =( CONVERSION_BASED_UNIT ( 'INCH', #107 ) LENGTH_UNIT ( ) NAMED_UNIT ( #55 ) );
#14 = ORIENTED_EDGE ( 'NONE', *, *, #26, .T. ) ;
#15 = CIRCLE ( 'NONE', #228, 0.1875000000000000278 ) ;
#16 = VERTEX_POINT ( 'NONE', #250 ) ;
#17 = EDGE_CURVE ( 'NONE', #64, #117, #115, .T. ) ;
#18 =( CONVERSION_BASED_UNIT ( 'INCH', #283 ) LENGTH_UNIT ( ) NAMED_UNIT ( #28 ) );
#19 = ORIENTED_EDGE ( 'NONE', *, *, #17, .T. ) ;
#20 = SURFACE_STYLE_USAGE ( .BOTH. , #89 ) ;
#21 =( GEOMETRIC_REPRESENTATION_CONTEXT ( 3 ) GLOBAL_UNCERTAINTY_ASSIGNED_CONTEXT ( ( #238 ) ) GLOBAL_UNIT_ASSIGNED_CONTEXT ( ( #141, #306, #188 ) ) REPRESENTATION_CONTEXT ( 'NONE', 'WORKASPACE' ) );
#22 = CARTESIAN_POINT ( 'NONE',  ( -0.1875000000000002776, 4.000000000000000000, 0.000000000000000000 ) ) ;
#23 = DIRECTION ( 'NONE',  ( -0.000000000000000000, -1.000000000000000000, -0.000000000000000000 ) ) ;
#24 = FILL_AREA_STYLE ('',( #123 ) ) ;
#25 = DIRECTION ( 'NONE',  ( 1.000000000000000000, 0.000000000000000000, 0.000000000000000000 ) ) ;
#26 = EDGE_CURVE ( 'NONE', #117, #90, #244, .T. ) ;
#27 = DIRECTION ( 'NONE',  ( -0.000000000000000000, -1.000000000000000000, -0.000000000000000000 ) ) ;
#28 = DIMENSIONAL_EXPONENTS ( 1.000000000000000000, 0.000000000000000000, 0.000000000000000000, 0.000000000000000000, 0.000000000000000000, 0.000000000000000000, 0.000000000000000000 ) ;
#29 =( NAMED_UNIT ( * ) SI_UNIT ( $, .STERADIAN. ) SOLID_ANGLE_UNIT ( ) );
#30 = DIRECTION ( 'NONE',  ( -1.000000000000000000, 0.000000000000000000, 0.000000000000000000 ) ) ;
#31 = EDGE_CURVE ( 'NONE', #16, #60, #145, .T. ) ;
#32 = CARTESIAN_POINT ( 'NONE',  ( 0.000000000000000000, 0.000000000000000000, 0.000000000000000000 ) ) ;
#33 = FILL_AREA_STYLE_COLOUR ( '', #34 ) ;
#34 = COLOUR_RGB ( '',0.7921568627450980005, 0.8196078431372548767, 0.9333333333333333481 ) ;
#35 = EDGE_CURVE ( 'NONE', #90, #135, #207, .T. ) ;
#36 =( NAMED_UNIT ( * ) PLANE_ANGLE_UNIT ( ) SI_UNIT ( $, .RADIAN. ) );
#37 = COLOUR_RGB ( '',1.000000000000000000, 0.000000000000000000, 0.000000000000000000 ) ;
#38 = SURFACE_SIDE_STYLE ('',( #80 ) ) ;
#39 = EDGE_LOOP ( 'NONE', ( #87, #41 ) ) ;
#40 =( CONVERSION_BASED_UNIT ( 'INCH', #261 ) LENGTH_UNIT ( ) NAMED_UNIT ( #290 ) );
#41 = ORIENTED_EDGE ( 'NONE', *, *, #35, .T. ) ;
#42 =( GEOMETRIC_REPRESENTATION_CONTEXT ( 3 ) GLOBAL_UNCERTAINTY_ASSIGNED_CONTEXT ( ( #198 ) ) GLOBAL_UNIT_ASSIGNED_CONTEXT ( ( #40, #138, #85 ) ) REPRESENTATION_CONTEXT ( 'NONE', 'WORKASPACE' ) );
#43 = EDGE_LOOP ( 'NONE', ( #114, #255, #182, #110 ) ) ;
#44 = UNCERTAINTY_MEASURE_WITH_UNIT (LENGTH_MEASURE( 1.000000000000000082E-05 ), #13, 'distance_accuracy_value', 'NONE');
#45 = DIRECTION ( 'NONE',  ( -1.000000000000000000, -6.123233995736763571E-17, 0.000000000000000000 ) ) ;
#46 = PRESENTATION_LAYER_ASSIGNMENT (  '', '', ( #62 ) ) ;
#47 = DIMENSIONAL_EXPONENTS ( 1.000000000000000000, 0.000000000000000000, 0.000000000000000000, 0.000000000000000000, 0.000000000000000000, 0.000000000000000000, 0.000000000000000000 ) ;
#48 = CARTESIAN_POINT ( 'NONE',  ( 0.000000000000000000, 0.000000000000000000, 0.000000000000000000 ) ) ;
#49 = DIRECTION ( 'NONE',  ( -6.123233995736763571E-17, 1.000000000000000000, -0.000000000000000000 ) ) ;
#50 = EDGE_CURVE ( 'NONE', #160, #60, #266, .T. ) ;
#51 = FILL_AREA_STYLE ('',( #102 ) ) ;
#52 = AXIS2_PLACEMENT_3D ( 'NONE', #79, #264, #45 ) ;
#53 = FACE_OUTER_BOUND ( 'NONE', #140, .T. ) ;
#54 = SURFACE_STYLE_USAGE ( .BOTH. , #126 ) ;
#55 = DIMENSIONAL_EXPONENTS ( 1.000000000000000000, 0.000000000000000000, 0.000000000000000000, 0.000000000000000000, 0.000000000000000000, 0.000000000000000000, 0.000000000000000000 ) ;
#56 = SURFACE_STYLE_FILL_AREA ( #10 ) ;
#57 = SURFACE_STYLE_USAGE ( .BOTH. , #156 ) ;
#58 =( NAMED_UNIT ( * ) PLANE_ANGLE_UNIT ( ) SI_UNIT ( $, .RADIAN. ) );
#59 = MECHANICAL_DESIGN_GEOMETRIC_PRESENTATION_REPRESENTATION (  '', ( #143 ), #130 ) ;
#60 = VERTEX_POINT ( 'NONE', #98 ) ;
#61 = ORIENTED_EDGE ( 'NONE', *, *, #12, .F. ) ;
#62 = STYLED_ITEM ( 'NONE', ( #237 ), #105 ) ;
#63 = DIRECTION ( 'NONE',  ( 0.000000000000000000, 0.000000000000000000, -1.000000000000000000 ) ) ;
#64 = VERTEX_POINT ( 'NONE', #196 ) ;
#65 = PRODUCT ( '82395', '82395', '', ( #225 ) ) ;
#66 = COLOUR_RGB ( '',1.000000000000000000, 0.000000000000000000, 0.000000000000000000 ) ;
#67 = CLOSED_SHELL ( 'NONE', ( #185, #1, #8, #236 ) ) ;
#68 = DIRECTION ( 'NONE',  ( -6.123233995736763571E-17, 1.000000000000000000, -0.000000000000000000 ) ) ;
#69 = LENGTH_MEASURE_WITH_UNIT ( LENGTH_MEASURE( 0.02539999999999999897 ), #249 );
#70 = DIRECTION ( 'NONE',  ( -6.123233995736763571E-17, 1.000000000000000000, -0.000000000000000000 ) ) ;
#71 = PLANE ( 'NONE',  #192 ) ;
#72 = EDGE_CURVE ( 'NONE', #16, #137, #15, .T. ) ;
#73 = DIRECTION ( 'NONE',  ( 6.123233995736763571E-17, -1.000000000000000000, 0.000000000000000000 ) ) ;
#74 = AXIS2_PLACEMENT_3D ( 'NONE', #32, #27, #170 ) ;
#75 = PRESENTATION_STYLE_ASSIGNMENT (( #57 ) ) ;
#76 = CARTESIAN_POINT ( 'NONE',  ( -0.1875000000000002220, 4.000000000000000000, 0.000000000000000000 ) ) ;
#77 =( GEOMETRIC_REPRESENTATION_CONTEXT ( 3 ) GLOBAL_UNCERTAINTY_ASSIGNED_CONTEXT ( ( #193 ) ) GLOBAL_UNIT_ASSIGNED_CONTEXT ( ( #172, #2, #231 ) ) REPRESENTATION_CONTEXT ( 'NONE', 'WORKASPACE' ) );
#78 = VECTOR ( 'NONE', #276, 39.37007874015748143 ) ;
#79 = CARTESIAN_POINT ( 'NONE',  ( 3.515061990613726630E-34, 2.000000000000000000, 0.000000000000000000 ) ) ;
#80 = SURFACE_STYLE_FILL_AREA ( #233 ) ;
#81 = MANIFOLD_SOLID_BREP ( 'Revolve - Tool Body (Straight Shanked)', #67 ) ;
#82 = ORIENTED_EDGE ( 'NONE', *, *, #197, .T. ) ;
#83 = STYLED_ITEM ( 'NONE', ( #9 ), #262 ) ;
#84 = EDGE_LOOP ( 'NONE', ( #139, #304 ) ) ;
#85 =( NAMED_UNIT ( * ) SI_UNIT ( $, .STERADIAN. ) SOLID_ANGLE_UNIT ( ) );
#86 = CARTESIAN_POINT ( 'NONE',  ( -0.1875000000000000278, 2.000000000000000000, 0.000000000000000000 ) ) ;
#87 = ORIENTED_EDGE ( 'NONE', *, *, #153, .T. ) ;
#88 = AXIS2_PLACEMENT_3D ( 'NONE', #96, #127, #166 ) ;
#89 = SURFACE_SIDE_STYLE ('',( #288 ) ) ;
#90 = VERTEX_POINT ( 'NONE', #267 ) ;
#91 = ADVANCED_FACE ( 'NONE', ( #222 ), #177, .T. ) ;
#92 = PRESENTATION_LAYER_ASSIGNMENT (  '', '', ( #83 ) ) ;
#93 = MANIFOLD_SOLID_BREP ( 'Revolve - Cutting Edge', #155 ) ;
#94 = PRESENTATION_LAYER_ASSIGNMENT (  '', '', ( #282 ) ) ;
#95 = CARTESIAN_POINT ( 'NONE',  ( -1.224646799147352714E-16, 4.000000000000000000, 0.000000000000000000 ) ) ;
#96 = CARTESIAN_POINT ( 'NONE',  ( 0.000000000000000000, 2.000000000000000000, 0.000000000000000000 ) ) ;
#97 = DIRECTION ( 'NONE',  ( -6.123233995736763571E-17, 1.000000000000000000, -0.000000000000000000 ) ) ;
#98 = CARTESIAN_POINT ( 'NONE',  ( 0.1875000000000000278, 4.000000000000000000, 2.296212748401288650E-17 ) ) ;
#99 =( CONVERSION_BASED_UNIT ( 'INCH', #174 ) LENGTH_UNIT ( ) NAMED_UNIT ( #47 ) );
#100 = UNCERTAINTY_MEASURE_WITH_UNIT (LENGTH_MEASURE( 1.000000000000000082E-05 ), #18, 'distance_accuracy_value', 'NONE');
#101 = DIMENSIONAL_EXPONENTS ( 1.000000000000000000, 0.000000000000000000, 0.000000000000000000, 0.000000000000000000, 0.000000000000000000, 0.000000000000000000, 0.000000000000000000 ) ;
#102 = FILL_AREA_STYLE_COLOUR ( '', #37 ) ;
#103 = PRODUCT_DEFINITION_FORMATION_WITH_SPECIFIED_SOURCE ( 'ANY', '', #65, .NOT_KNOWN. ) ;
#104 = FILL_AREA_STYLE_COLOUR ( '', #66 ) ;
#105 = ADVANCED_FACE ( 'NONE', ( #211 ), #144, .T. ) ;
#106 =( GEOMETRIC_REPRESENTATION_CONTEXT ( 3 ) GLOBAL_UNCERTAINTY_ASSIGNED_CONTEXT ( ( #44 ) ) GLOBAL_UNIT_ASSIGNED_CONTEXT ( ( #13, #58, #298 ) ) REPRESENTATION_CONTEXT ( 'NONE', 'WORKASPACE' ) );
#107 = LENGTH_MEASURE_WITH_UNIT ( LENGTH_MEASURE( 0.02539999999999999897 ), #158 );
#108 = SURFACE_STYLE_USAGE ( .BOTH. , #132 ) ;
#109 = CARTESIAN_POINT ( 'NONE',  ( 0.000000000000000000, 2.000000000000000000, 0.000000000000000000 ) ) ;
#110 = ORIENTED_EDGE ( 'NONE', *, *, #35, .F. ) ;
#111 = DIRECTION ( 'NONE',  ( 0.000000000000000000, 1.000000000000000000, 0.000000000000000000 ) ) ;
#112 = AXIS2_PLACEMENT_3D ( 'NONE', #239, #111, #146 ) ;
#113 = ORIENTED_EDGE ( 'NONE', *, *, #72, .T. ) ;
#114 = ORIENTED_EDGE ( 'NONE', *, *, #26, .F. ) ;
#115 = CIRCLE ( 'NONE', #88, 0.1875000000000000278 ) ;
#116 = LENGTH_MEASURE_WITH_UNIT ( LENGTH_MEASURE( 0.02539999999999999897 ), #263 );
#117 = VERTEX_POINT ( 'NONE', #147 ) ;
#118 = FACE_OUTER_BOUND ( 'NONE', #209, .T. ) ;
#119 = CYLINDRICAL_SURFACE ( 'NONE', #11, 0.1875000000000000833 ) ;
#120 =( NAMED_UNIT ( * ) SI_UNIT ( $, .STERADIAN. ) SOLID_ANGLE_UNIT ( ) );
#121 = CARTESIAN_POINT ( 'NONE',  ( 0.000000000000000000, 0.000000000000000000, -0.1875000000000000278 ) ) ;
#122 = MECHANICAL_DESIGN_GEOMETRIC_PRESENTATION_REPRESENTATION (  '', ( #204 ), #165 ) ;
#123 = FILL_AREA_STYLE_COLOUR ( '', #3 ) ;
#124 = DIRECTION ( 'NONE',  ( -6.123233995736763571E-17, 1.000000000000000000, -0.000000000000000000 ) ) ;
#125 = SHAPE_DEFINITION_REPRESENTATION ( #285, #152 ) ;
#126 = SURFACE_SIDE_STYLE ('',( #128 ) ) ;
#127 = DIRECTION ( 'NONE',  ( -0.000000000000000000, -1.000000000000000000, -0.000000000000000000 ) ) ;
#128 = SURFACE_STYLE_FILL_AREA ( #7 ) ;
#129 = DIRECTION ( 'NONE',  ( 1.000000000000000000, 6.123233995736763571E-17, 0.000000000000000000 ) ) ;
#130 =( GEOMETRIC_REPRESENTATION_CONTEXT ( 3 ) GLOBAL_UNCERTAINTY_ASSIGNED_CONTEXT ( ( #100 ) ) GLOBAL_UNIT_ASSIGNED_CONTEXT ( ( #18, #36, #120 ) ) REPRESENTATION_CONTEXT ( 'NONE', 'WORKASPACE' ) );
#131 =( LENGTH_UNIT ( ) NAMED_UNIT ( * ) SI_UNIT ( $, .METRE. ) );
#132 = SURFACE_SIDE_STYLE ('',( #201 ) ) ;
#133 = MECHANICAL_DESIGN_GEOMETRIC_PRESENTATION_REPRESENTATION (  '', ( #235 ), #77 ) ;
#134 = PRESENTATION_STYLE_ASSIGNMENT (( #181 ) ) ;
#135 = VERTEX_POINT ( 'NONE', #243 ) ;
#136 = FILL_AREA_STYLE ('',( #180 ) ) ;
#137 = VERTEX_POINT ( 'NONE', #86 ) ;
#138 =( NAMED_UNIT ( * ) PLANE_ANGLE_UNIT ( ) SI_UNIT ( $, .RADIAN. ) );
#139 = ORIENTED_EDGE ( 'NONE', *, *, #17, .F. ) ;
#140 = EDGE_LOOP ( 'NONE', ( #19, #14, #159, #61 ) ) ;
#141 =( CONVERSION_BASED_UNIT ( 'INCH', #116 ) LENGTH_UNIT ( ) NAMED_UNIT ( #189 ) );
#142 = FACE_OUTER_BOUND ( 'NONE', #286, .T. ) ;
#143 = STYLED_ITEM ( 'NONE', ( #301 ), #81 ) ;
#144 = CYLINDRICAL_SURFACE ( 'NONE', #220, 0.1875000000000000278 ) ;
#145 = LINE ( 'NONE', #218, #259 ) ;
#146 = DIRECTION ( 'NONE',  ( 0.000000000000000000, -0.000000000000000000, 1.000000000000000000 ) ) ;
#147 = CARTESIAN_POINT ( 'NONE',  ( 2.296212748401287726E-17, 2.000000000000000000, 0.1875000000000000278 ) ) ;
#148 = LINE ( 'NONE', #121, #299 ) ;
#149 = DIRECTION ( 'NONE',  ( -1.000000000000000000, 0.000000000000000000, 0.000000000000000000 ) ) ;
#150 = CIRCLE ( 'NONE', #242, 0.1875000000000000278 ) ;
#151 = FACE_OUTER_BOUND ( 'NONE', #39, .T. ) ;
#152 = ADVANCED_BREP_SHAPE_REPRESENTATION ( '82395', ( #93, #81, #248 ), #42 ) ;
#153 = EDGE_CURVE ( 'NONE', #135, #90, #254, .T. ) ;
#154 = SURFACE_SIDE_STYLE ('',( #173 ) ) ;
#155 = CLOSED_SHELL ( 'NONE', ( #262, #91, #105, #272 ) ) ;
#156 = SURFACE_SIDE_STYLE ('',( #56 ) ) ;
#157 = CARTESIAN_POINT ( 'NONE',  ( 0.000000000000000000, 0.000000000000000000, 0.000000000000000000 ) ) ;
#158 =( LENGTH_UNIT ( ) NAMED_UNIT ( * ) SI_UNIT ( $, .METRE. ) );
#159 = ORIENTED_EDGE ( 'NONE', *, *, #153, .F. ) ;
#160 = VERTEX_POINT ( 'NONE', #22 ) ;
#161 = DIRECTION ( 'NONE',  ( -0.000000000000000000, -1.000000000000000000, -0.000000000000000000 ) ) ;
#162 = EDGE_LOOP ( 'NONE', ( #280, #260 ) ) ;
#163 =( LENGTH_UNIT ( ) NAMED_UNIT ( * ) SI_UNIT ( $, .METRE. ) );
#164 = PLANE ( 'NONE',  #52 ) ;
#165 =( GEOMETRIC_REPRESENTATION_CONTEXT ( 3 ) GLOBAL_UNCERTAINTY_ASSIGNED_CONTEXT ( ( #289 ) ) GLOBAL_UNIT_ASSIGNED_CONTEXT ( ( #99, #230, #200 ) ) REPRESENTATION_CONTEXT ( 'NONE', 'WORKASPACE' ) );
#166 = DIRECTION ( 'NONE',  ( 0.000000000000000000, 0.000000000000000000, -1.000000000000000000 ) ) ;
#167 = COLOUR_RGB ( '',1.000000000000000000, 0.000000000000000000, 0.000000000000000000 ) ;
#168 = CARTESIAN_POINT ( 'NONE',  ( -1.224646799147352714E-16, 4.000000000000000000, 0.000000000000000000 ) ) ;
#169 = CARTESIAN_POINT ( 'NONE',  ( 1.516480271171051896E-32, 2.000000000000000000, 0.000000000000000000 ) ) ;
#170 = DIRECTION ( 'NONE',  ( 0.000000000000000000, 0.000000000000000000, -1.000000000000000000 ) ) ;
#171 = DIRECTION ( 'NONE',  ( -0.000000000000000000, -1.000000000000000000, -0.000000000000000000 ) ) ;
#172 =( CONVERSION_BASED_UNIT ( 'INCH', #294 ) LENGTH_UNIT ( ) NAMED_UNIT ( #219 ) );
#173 = SURFACE_STYLE_FILL_AREA ( #51 ) ;
#174 = LENGTH_MEASURE_WITH_UNIT ( LENGTH_MEASURE( 0.02539999999999999897 ), #269 );
#175 = DIRECTION ( 'NONE',  ( -6.123233995736763571E-17, 1.000000000000000000, -0.000000000000000000 ) ) ;
#176 = MECHANICAL_DESIGN_GEOMETRIC_PRESENTATION_REPRESENTATION (  '', ( #62 ), #21 ) ;
#177 = PLANE ( 'NONE',  #112 ) ;
#178 = AXIS2_PLACEMENT_3D ( 'NONE', #191, #124, #293 ) ;
#179 = ORIENTED_EDGE ( 'NONE', *, *, #50, .F. ) ;
#180 = FILL_AREA_STYLE_COLOUR ( '', #268 ) ;
#181 = SURFACE_STYLE_USAGE ( .BOTH. , #38 ) ;
#182 = ORIENTED_EDGE ( 'NONE', *, *, #12, .T. ) ;
#183 =( LENGTH_UNIT ( ) NAMED_UNIT ( * ) SI_UNIT ( $, .METRE. ) );
#184 = EDGE_LOOP ( 'NONE', ( #284, #208 ) ) ;
#185 = ADVANCED_FACE ( 'NONE', ( #118 ), #119, .T. ) ;
#186 = AXIS2_PLACEMENT_3D ( 'NONE', #214, #281, #63 ) ;
#187 = CARTESIAN_POINT ( 'NONE',  ( -1.224646799147352714E-16, 4.000000000000000000, 0.000000000000000000 ) ) ;
#188 =( NAMED_UNIT ( * ) SI_UNIT ( $, .STERADIAN. ) SOLID_ANGLE_UNIT ( ) );
#189 = DIMENSIONAL_EXPONENTS ( 1.000000000000000000, 0.000000000000000000, 0.000000000000000000, 0.000000000000000000, 0.000000000000000000, 0.000000000000000000, 0.000000000000000000 ) ;
#190 = DIRECTION ( 'NONE',  ( -1.000000000000000000, 0.000000000000000000, 0.000000000000000000 ) ) ;
#191 = CARTESIAN_POINT ( 'NONE',  ( -1.224646799147352714E-16, 4.000000000000000000, 0.000000000000000000 ) ) ;
#192 = AXIS2_PLACEMENT_3D ( 'NONE', #157, #279, #253 ) ;
#193 = UNCERTAINTY_MEASURE_WITH_UNIT (LENGTH_MEASURE( 1.000000000000000082E-05 ), #172, 'distance_accuracy_value', 'NONE');
#194 = CARTESIAN_POINT ( 'NONE',  ( 0.000000000000000000, 0.000000000000000000, 0.000000000000000000 ) ) ;
#195 = LINE ( 'NONE', #76, #78 ) ;
#196 = CARTESIAN_POINT ( 'NONE',  ( 0.000000000000000000, 2.000000000000000000, -0.1875000000000000278 ) ) ;
#197 = EDGE_CURVE ( 'NONE', #137, #16, #150, .T. ) ;
#198 = UNCERTAINTY_MEASURE_WITH_UNIT (LENGTH_MEASURE( 1.000000000000000082E-05 ), #40, 'distance_accuracy_value', 'NONE');
#199 = SURFACE_STYLE_USAGE ( .BOTH. , #154 ) ;
#200 =( NAMED_UNIT ( * ) SI_UNIT ( $, .STERADIAN. ) SOLID_ANGLE_UNIT ( ) );
#201 = SURFACE_STYLE_FILL_AREA ( #136 ) ;
#202 = AXIS2_PLACEMENT_3D ( 'NONE', #168, #49, #149 ) ;
#203 = EDGE_CURVE ( 'NONE', #60, #160, #223, .T. ) ;
#204 = STYLED_ITEM ( 'NONE', ( #221 ), #272 ) ;
#205 = CIRCLE ( 'NONE', #258, 0.1875000000000000278 ) ;
#206 = FILL_AREA_STYLE_COLOUR ( '', #167 ) ;
#207 = CIRCLE ( 'NONE', #234, 0.1875000000000000278 ) ;
#208 = ORIENTED_EDGE ( 'NONE', *, *, #72, .F. ) ;
#209 = EDGE_LOOP ( 'NONE', ( #82, #278, #179, #256 ) ) ;
#210 = ORIENTED_EDGE ( 'NONE', *, *, #31, .F. ) ;
#211 = FACE_OUTER_BOUND ( 'NONE', #43, .T. ) ;
#212 = FACE_OUTER_BOUND ( 'NONE', #184, .T. ) ;
#213 = APPLICATION_PROTOCOL_DEFINITION ( 'draft international standard', 'automotive_design', 1998, #245 ) ;
#214 = CARTESIAN_POINT ( 'NONE',  ( 0.000000000000000000, 0.000000000000000000, 0.000000000000000000 ) ) ;
#215 = EDGE_CURVE ( 'NONE', #137, #160, #195, .T. ) ;
#216 = DIRECTION ( 'NONE',  ( -6.123233995736763571E-17, 1.000000000000000000, -0.000000000000000000 ) ) ;
#217 = DIRECTION ( 'NONE',  ( -1.000000000000000000, 0.000000000000000000, 0.000000000000000000 ) ) ;
#218 = CARTESIAN_POINT ( 'NONE',  ( 0.1874999999999999445, 4.000000000000000000, 2.296212748401288342E-17 ) ) ;
#219 = DIMENSIONAL_EXPONENTS ( 1.000000000000000000, 0.000000000000000000, 0.000000000000000000, 0.000000000000000000, 0.000000000000000000, 0.000000000000000000, 0.000000000000000000 ) ;
#220 = AXIS2_PLACEMENT_3D ( 'NONE', #48, #303, #241 ) ;
#221 = PRESENTATION_STYLE_ASSIGNMENT (( #54 ) ) ;
#222 = FACE_OUTER_BOUND ( 'NONE', #84, .T. ) ;
#223 = CIRCLE ( 'NONE', #270, 0.1875000000000001388 ) ;
#224 = DIRECTION ( 'NONE',  ( -0.000000000000000000, -1.000000000000000000, -0.000000000000000000 ) ) ;
#225 = PRODUCT_CONTEXT ( 'NONE', #245, 'mechanical' ) ;
#226 = CYLINDRICAL_SURFACE ( 'NONE', #74, 0.1875000000000000278 ) ;
#227 = PLANE ( 'NONE',  #271 ) ;
#228 = AXIS2_PLACEMENT_3D ( 'NONE', #169, #175, #30 ) ;
#229 = APPLICATION_PROTOCOL_DEFINITION ( 'draft international standard', 'automotive_design', 1998, #6 ) ;
#230 =( NAMED_UNIT ( * ) PLANE_ANGLE_UNIT ( ) SI_UNIT ( $, .RADIAN. ) );
#231 =( NAMED_UNIT ( * ) SI_UNIT ( $, .STERADIAN. ) SOLID_ANGLE_UNIT ( ) );
#232 = MECHANICAL_DESIGN_GEOMETRIC_PRESENTATION_REPRESENTATION (  '', ( #83 ), #308 ) ;
#233 = FILL_AREA_STYLE ('',( #33 ) ) ;
#234 = AXIS2_PLACEMENT_3D ( 'NONE', #194, #224, #5 ) ;
#235 = STYLED_ITEM ( 'NONE', ( #75 ), #91 ) ;
#236 = ADVANCED_FACE ( 'NONE', ( #291 ), #227, .F. ) ;
#237 = PRESENTATION_STYLE_ASSIGNMENT (( #20 ) ) ;
#238 = UNCERTAINTY_MEASURE_WITH_UNIT (LENGTH_MEASURE( 1.000000000000000082E-05 ), #141, 'distance_accuracy_value', 'NONE');
#239 = CARTESIAN_POINT ( 'NONE',  ( 0.000000000000000000, 2.000000000000000000, 0.000000000000000000 ) ) ;
#240 = PRODUCT_DEFINITION ( 'UNKNOWN', '', #103, #246 ) ;
#241 = DIRECTION ( 'NONE',  ( 0.000000000000000000, 0.000000000000000000, -1.000000000000000000 ) ) ;
#242 = AXIS2_PLACEMENT_3D ( 'NONE', #287, #68, #217 ) ;
#243 = CARTESIAN_POINT ( 'NONE',  ( 0.000000000000000000, 0.000000000000000000, -0.1875000000000000278 ) ) ;
#244 = LINE ( 'NONE', #265, #277 ) ;
#245 = APPLICATION_CONTEXT ( 'automotive_design' ) ;
#246 = PRODUCT_DEFINITION_CONTEXT ( 'detailed design', #6, 'design' ) ;
#247 = CARTESIAN_POINT ( 'NONE',  ( 0.000000000000000000, 0.000000000000000000, 0.000000000000000000 ) ) ;
#248 = AXIS2_PLACEMENT_3D ( 'NONE', #247, #292, #25 ) ;
#249 =( LENGTH_UNIT ( ) NAMED_UNIT ( * ) SI_UNIT ( $, .METRE. ) );
#250 = CARTESIAN_POINT ( 'NONE',  ( 0.1875000000000000278, 2.000000000000000000, 2.296212748401288650E-17 ) ) ;
#251 = PRESENTATION_LAYER_ASSIGNMENT (  '', '', ( #235 ) ) ;
#252 =( CONVERSION_BASED_UNIT ( 'INCH', #69 ) LENGTH_UNIT ( ) NAMED_UNIT ( #101 ) );
#253 = DIRECTION ( 'NONE',  ( 0.000000000000000000, 0.000000000000000000, -1.000000000000000000 ) ) ;
#254 = CIRCLE ( 'NONE', #186, 0.1875000000000000278 ) ;
#255 = ORIENTED_EDGE ( 'NONE', *, *, #295, .T. ) ;
#256 = ORIENTED_EDGE ( 'NONE', *, *, #215, .F. ) ;
#257 = PRODUCT_RELATED_PRODUCT_CATEGORY ( 'part', '', ( #65 ) ) ;
#258 = AXIS2_PLACEMENT_3D ( 'NONE', #109, #161, #307 ) ;
#259 = VECTOR ( 'NONE', #70, 39.37007874015748143 ) ;
#260 = ORIENTED_EDGE ( 'NONE', *, *, #203, .T. ) ;
#261 = LENGTH_MEASURE_WITH_UNIT ( LENGTH_MEASURE( 0.02539999999999999897 ), #163 );
#262 = ADVANCED_FACE ( 'NONE', ( #53 ), #226, .T. ) ;
#263 =( LENGTH_UNIT ( ) NAMED_UNIT ( * ) SI_UNIT ( $, .METRE. ) );
#264 = DIRECTION ( 'NONE',  ( -6.123233995736763571E-17, 1.000000000000000000, 0.000000000000000000 ) ) ;
#265 = CARTESIAN_POINT ( 'NONE',  ( 2.296212748401287726E-17, 0.000000000000000000, 0.1875000000000000278 ) ) ;
#266 = CIRCLE ( 'NONE', #202, 0.1875000000000001388 ) ;
#267 = CARTESIAN_POINT ( 'NONE',  ( 2.296212748401287726E-17, 0.000000000000000000, 0.1875000000000000278 ) ) ;
#268 = COLOUR_RGB ( '',0.7921568627450980005, 0.8196078431372548767, 0.9333333333333333481 ) ;
#269 =( LENGTH_UNIT ( ) NAMED_UNIT ( * ) SI_UNIT ( $, .METRE. ) );
#270 = AXIS2_PLACEMENT_3D ( 'NONE', #95, #97, #4 ) ;
#271 = AXIS2_PLACEMENT_3D ( 'NONE', #273, #73, #129 ) ;
#272 = ADVANCED_FACE ( 'NONE', ( #151 ), #71, .T. ) ;
#273 = CARTESIAN_POINT ( 'NONE',  ( 0.1875000000000000278, 4.000000000000000000, 0.000000000000000000 ) ) ;
#274 =( NAMED_UNIT ( * ) PLANE_ANGLE_UNIT ( ) SI_UNIT ( $, .RADIAN. ) );
#275 = PRESENTATION_LAYER_ASSIGNMENT (  '', '', ( #143 ) ) ;
#276 = DIRECTION ( 'NONE',  ( -6.123233995736763571E-17, 1.000000000000000000, -0.000000000000000000 ) ) ;
#277 = VECTOR ( 'NONE', #23, 39.37007874015748143 ) ;
#278 = ORIENTED_EDGE ( 'NONE', *, *, #31, .T. ) ;
#279 = DIRECTION ( 'NONE',  ( 0.000000000000000000, -1.000000000000000000, -0.000000000000000000 ) ) ;
#280 = ORIENTED_EDGE ( 'NONE', *, *, #50, .T. ) ;
#281 = DIRECTION ( 'NONE',  ( -0.000000000000000000, -1.000000000000000000, -0.000000000000000000 ) ) ;
#282 = STYLED_ITEM ( 'NONE', ( #134 ), #93 ) ;
#283 = LENGTH_MEASURE_WITH_UNIT ( LENGTH_MEASURE( 0.02539999999999999897 ), #183 );
#284 = ORIENTED_EDGE ( 'NONE', *, *, #197, .F. ) ;
#285 = PRODUCT_DEFINITION_SHAPE ( 'NONE', 'NONE',  #240 ) ;
#286 = EDGE_LOOP ( 'NONE', ( #210, #113, #302, #300 ) ) ;
#287 = CARTESIAN_POINT ( 'NONE',  ( 1.516480271171051896E-32, 2.000000000000000000, 0.000000000000000000 ) ) ;
#288 = SURFACE_STYLE_FILL_AREA ( #24 ) ;
#289 = UNCERTAINTY_MEASURE_WITH_UNIT (LENGTH_MEASURE( 1.000000000000000082E-05 ), #99, 'distance_accuracy_value', 'NONE');
#290 = DIMENSIONAL_EXPONENTS ( 1.000000000000000000, 0.000000000000000000, 0.000000000000000000, 0.000000000000000000, 0.000000000000000000, 0.000000000000000000, 0.000000000000000000 ) ;
#291 = FACE_OUTER_BOUND ( 'NONE', #162, .T. ) ;
#292 = DIRECTION ( 'NONE',  ( 0.000000000000000000, 0.000000000000000000, 1.000000000000000000 ) ) ;
#293 = DIRECTION ( 'NONE',  ( -1.000000000000000000, 0.000000000000000000, 0.000000000000000000 ) ) ;
#294 = LENGTH_MEASURE_WITH_UNIT ( LENGTH_MEASURE( 0.02539999999999999897 ), #131 );
#295 = EDGE_CURVE ( 'NONE', #117, #64, #205, .T. ) ;
#296 = MECHANICAL_DESIGN_GEOMETRIC_PRESENTATION_REPRESENTATION (  '', ( #282 ), #106 ) ;
#297 = CYLINDRICAL_SURFACE ( 'NONE', #178, 0.1875000000000000833 ) ;
#298 =( NAMED_UNIT ( * ) SI_UNIT ( $, .STERADIAN. ) SOLID_ANGLE_UNIT ( ) );
#299 = VECTOR ( 'NONE', #171, 39.37007874015748143 ) ;
#300 = ORIENTED_EDGE ( 'NONE', *, *, #203, .F. ) ;
#301 = PRESENTATION_STYLE_ASSIGNMENT (( #108 ) ) ;
#302 = ORIENTED_EDGE ( 'NONE', *, *, #215, .T. ) ;
#303 = DIRECTION ( 'NONE',  ( -0.000000000000000000, -1.000000000000000000, -0.000000000000000000 ) ) ;
#304 = ORIENTED_EDGE ( 'NONE', *, *, #295, .F. ) ;
#305 = PRESENTATION_LAYER_ASSIGNMENT (  '', '', ( #204 ) ) ;
#306 =( NAMED_UNIT ( * ) PLANE_ANGLE_UNIT ( ) SI_UNIT ( $, .RADIAN. ) );
#307 = DIRECTION ( 'NONE',  ( 0.000000000000000000, 0.000000000000000000, -1.000000000000000000 ) ) ;
#308 =( GEOMETRIC_REPRESENTATION_CONTEXT ( 3 ) GLOBAL_UNCERTAINTY_ASSIGNED_CONTEXT ( ( #309 ) ) GLOBAL_UNIT_ASSIGNED_CONTEXT ( ( #252, #274, #29 ) ) REPRESENTATION_CONTEXT ( 'NONE', 'WORKASPACE' ) );
#309 = UNCERTAINTY_MEASURE_WITH_UNIT (LENGTH_MEASURE( 1.000000000000000082E-05 ), #252, 'distance_accuracy_value', 'NONE');
ENDSEC;
END-ISO-10303-21;
