ISO-10303-21;
HEADER;
FILE_DESCRIPTION (( 'STEP AP214' ),
    '1' );
FILE_NAME ('81466.STEP',
    '2023-06-30T22:29:47',
    ( '' ),
    ( '' ),
    'SwSTEP 2.0',
    'SolidWorks 2023',
    '' );
FILE_SCHEMA (( 'AUTOMOTIVE_DESIGN' ));
ENDSEC;

DATA;
#1 =( CONVERSION_BASED_UNIT ( 'INCH', #250 ) LENGTH_UNIT ( ) NAMED_UNIT ( #235 ) );
#2 = SURFACE_SIDE_STYLE ('',( #285 ) ) ;
#3 = UNCERTAINTY_MEASURE_WITH_UNIT (LENGTH_MEASURE( 1.000000000000000082E-05 ), #114, 'distance_accuracy_value', 'NONE');
#4 = CIRCLE ( 'NONE', #195, 0.1874999999999999167 ) ;
#5 = EDGE_LOOP ( 'NONE', ( #359, #244, #92, #90 ) ) ;
#6 = PRODUCT ( '81466', '81466', '', ( #307 ) ) ;
#7 = MANIFOLD_SOLID_BREP ( 'Revolve - Tool Body (Straight Shanked)', #20 ) ;
#8 = DIRECTION ( 'NONE',  ( -1.000000000000000000, 0.000000000000000000, 0.000000000000000000 ) ) ;
#9 = ADVANCED_FACE ( 'NONE', ( #19 ), #138, .F. ) ;
#10 = DIMENSIONAL_EXPONENTS ( 1.000000000000000000, 0.000000000000000000, 0.000000000000000000, 0.000000000000000000, 0.000000000000000000, 0.000000000000000000, 0.000000000000000000 ) ;
#11 = PRESENTATION_LAYER_ASSIGNMENT (  '', '', ( #354 ) ) ;
#12 = EDGE_LOOP ( 'NONE', ( #323, #294 ) ) ;
#13 =( NAMED_UNIT ( * ) PLANE_ANGLE_UNIT ( ) SI_UNIT ( $, .RADIAN. ) );
#14 = LENGTH_MEASURE_WITH_UNIT ( LENGTH_MEASURE( 0.02539999999999999897 ), #36 );
#15 = FACE_OUTER_BOUND ( 'NONE', #213, .T. ) ;
#16 = EDGE_CURVE ( 'NONE', #152, #317, #337, .T. ) ;
#17 = CARTESIAN_POINT ( 'NONE',  ( 0.000000000000000000, 1.250000000000000000, 0.000000000000000000 ) ) ;
#18 = DIRECTION ( 'NONE',  ( 0.000000000000000000, 0.000000000000000000, 1.000000000000000000 ) ) ;
#19 = FACE_OUTER_BOUND ( 'NONE', #324, .T. ) ;
#20 = CLOSED_SHELL ( 'NONE', ( #223, #9, #113, #48 ) ) ;
#21 =( NAMED_UNIT ( * ) SI_UNIT ( $, .STERADIAN. ) SOLID_ANGLE_UNIT ( ) );
#22 = CIRCLE ( 'NONE', #247, 0.1874999999999998335 ) ;
#23 = DIRECTION ( 'NONE',  ( -1.224646799147353454E-16, 1.000000000000000000, -0.000000000000000000 ) ) ;
#24 = DIRECTION ( 'NONE',  ( -1.000000000000000000, 0.000000000000000000, 0.000000000000000000 ) ) ;
#25 = DIRECTION ( 'NONE',  ( 1.000000000000000000, 0.000000000000000000, 0.000000000000000000 ) ) ;
#26 =( NAMED_UNIT ( * ) SI_UNIT ( $, .STERADIAN. ) SOLID_ANGLE_UNIT ( ) );
#27 = FACE_OUTER_BOUND ( 'NONE', #5, .T. ) ;
#28 = FACE_OUTER_BOUND ( 'NONE', #30, .T. ) ;
#29 = CYLINDRICAL_SURFACE ( 'NONE', #265, 0.1874999999999998057 ) ;
#30 = EDGE_LOOP ( 'NONE', ( #356, #297, #81, #122 ) ) ;
#31 =( NAMED_UNIT ( * ) SI_UNIT ( $, .STERADIAN. ) SOLID_ANGLE_UNIT ( ) );
#32 = SURFACE_STYLE_FILL_AREA ( #51 ) ;
#33 = COLOUR_RGB ( '',0.7921568627450980005, 0.8196078431372548767, 0.9333333333333333481 ) ;
#34 = CIRCLE ( 'NONE', #254, 0.1875000000000000278 ) ;
#35 = DIRECTION ( 'NONE',  ( 0.000000000000000000, 0.000000000000000000, -1.000000000000000000 ) ) ;
#36 =( LENGTH_UNIT ( ) NAMED_UNIT ( * ) SI_UNIT ( $, .METRE. ) );
#37 = PRESENTATION_STYLE_ASSIGNMENT (( #205 ) ) ;
#38 = ORIENTED_EDGE ( 'NONE', *, *, #41, .F. ) ;
#39 =( GEOMETRIC_REPRESENTATION_CONTEXT ( 3 ) GLOBAL_UNCERTAINTY_ASSIGNED_CONTEXT ( ( #101 ) ) GLOBAL_UNIT_ASSIGNED_CONTEXT ( ( #103, #106, #82 ) ) REPRESENTATION_CONTEXT ( 'NONE', 'WORKASPACE' ) );
#40 = ORIENTED_EDGE ( 'NONE', *, *, #145, .F. ) ;
#41 = EDGE_CURVE ( 'NONE', #152, #262, #62, .T. ) ;
#42 = PRODUCT_DEFINITION_CONTEXT ( 'detailed design', #280, 'design' ) ;
#43 = SURFACE_STYLE_USAGE ( .BOTH. , #129 ) ;
#44 = MECHANICAL_DESIGN_GEOMETRIC_PRESENTATION_REPRESENTATION (  '', ( #206 ), #117 ) ;
#45 = AXIS2_PLACEMENT_3D ( 'NONE', #334, #73, #188 ) ;
#46 = DIRECTION ( 'NONE',  ( -1.224646799147353454E-16, 1.000000000000000000, -0.000000000000000000 ) ) ;
#47 = DIRECTION ( 'NONE',  ( -1.000000000000000000, 0.000000000000000000, 0.000000000000000000 ) ) ;
#48 = ADVANCED_FACE ( 'NONE', ( #249 ), #66, .F. ) ;
#49 = DIRECTION ( 'NONE',  ( -0.000000000000000000, -1.000000000000000000, -0.000000000000000000 ) ) ;
#50 = VERTEX_POINT ( 'NONE', #303 ) ;
#51 = FILL_AREA_STYLE ('',( #107 ) ) ;
#52 = AXIS2_PLACEMENT_3D ( 'NONE', #142, #196, #283 ) ;
#53 = ORIENTED_EDGE ( 'NONE', *, *, #282, .F. ) ;
#54 = DIRECTION ( 'NONE',  ( -0.000000000000000000, -1.000000000000000000, -0.000000000000000000 ) ) ;
#55 = CLOSED_SHELL ( 'NONE', ( #369, #298, #102, #275, #132 ) ) ;
#56 = AXIS2_PLACEMENT_3D ( 'NONE', #325, #54, #204 ) ;
#57 = VERTEX_POINT ( 'NONE', #165 ) ;
#58 = FACE_OUTER_BOUND ( 'NONE', #182, .T. ) ;
#59 =( CONVERSION_BASED_UNIT ( 'INCH', #120 ) LENGTH_UNIT ( ) NAMED_UNIT ( #124 ) );
#60 = PRESENTATION_STYLE_ASSIGNMENT (( #209 ) ) ;
#61 = VERTEX_POINT ( 'NONE', #296 ) ;
#62 = CIRCLE ( 'NONE', #139, 0.1874999999999998335 ) ;
#63 = ORIENTED_EDGE ( 'NONE', *, *, #259, .F. ) ;
#64 = EDGE_CURVE ( 'NONE', #61, #199, #233, .T. ) ;
#65 = DIRECTION ( 'NONE',  ( 1.000000000000000000, 0.000000000000000000, -1.224646799147353207E-16 ) ) ;
#66 = PLANE ( 'NONE',  #45 ) ;
#67 = DIRECTION ( 'NONE',  ( 0.000000000000000000, 0.000000000000000000, 1.000000000000000000 ) ) ;
#68 = ADVANCED_BREP_SHAPE_REPRESENTATION ( '81466', ( #258, #7, #190 ), #207 ) ;
#69 = DIRECTION ( 'NONE',  ( 0.000000000000000000, 0.000000000000000000, -1.000000000000000000 ) ) ;
#70 =( NAMED_UNIT ( * ) PLANE_ANGLE_UNIT ( ) SI_UNIT ( $, .RADIAN. ) );
#71 = CIRCLE ( 'NONE', #215, 0.1874999999999999722 ) ;
#72 = UNCERTAINTY_MEASURE_WITH_UNIT (LENGTH_MEASURE( 1.000000000000000082E-05 ), #185, 'distance_accuracy_value', 'NONE');
#73 = DIRECTION ( 'NONE',  ( 1.224646799147353454E-16, -1.000000000000000000, 0.000000000000000000 ) ) ;
#74 =( LENGTH_UNIT ( ) NAMED_UNIT ( * ) SI_UNIT ( $, .METRE. ) );
#75 = DIRECTION ( 'NONE',  ( -1.224646799147353454E-16, 1.000000000000000000, -0.000000000000000000 ) ) ;
#76 = CARTESIAN_POINT ( 'NONE',  ( -2.296212748401287726E-17, 0.1875000000000000278, 0.000000000000000000 ) ) ;
#77 = VERTEX_POINT ( 'NONE', #99 ) ;
#78 = MECHANICAL_DESIGN_GEOMETRIC_PRESENTATION_REPRESENTATION (  '', ( #360 ), #219 ) ;
#79 = DIRECTION ( 'NONE',  ( -1.224646799147353454E-16, 1.000000000000000000, -0.000000000000000000 ) ) ;
#80 = FACE_OUTER_BOUND ( 'NONE', #116, .T. ) ;
#81 = ORIENTED_EDGE ( 'NONE', *, *, #252, .F. ) ;
#82 =( NAMED_UNIT ( * ) SI_UNIT ( $, .STERADIAN. ) SOLID_ANGLE_UNIT ( ) );
#83 = SPHERICAL_SURFACE ( 'NONE', #272, 0.1875000000000000278 ) ;
#84 = VECTOR ( 'NONE', #79, 39.37007874015748143 ) ;
#85 = SURFACE_SIDE_STYLE ('',( #318 ) ) ;
#86 = SURFACE_STYLE_FILL_AREA ( #211 ) ;
#87 = ORIENTED_EDGE ( 'NONE', *, *, #227, .T. ) ;
#88 = DIRECTION ( 'NONE',  ( -0.000000000000000000, -1.000000000000000000, -0.000000000000000000 ) ) ;
#89 = SURFACE_SIDE_STYLE ('',( #361 ) ) ;
#90 = ORIENTED_EDGE ( 'NONE', *, *, #64, .F. ) ;
#91 = DIRECTION ( 'NONE',  ( 1.224646799147353207E-16, -0.000000000000000000, 1.000000000000000000 ) ) ;
#92 = ORIENTED_EDGE ( 'NONE', *, *, #203, .T. ) ;
#93 = UNCERTAINTY_MEASURE_WITH_UNIT (LENGTH_MEASURE( 1.000000000000000082E-05 ), #59, 'distance_accuracy_value', 'NONE');
#94 = VECTOR ( 'NONE', #49, 39.37007874015748143 ) ;
#95 = CIRCLE ( 'NONE', #56, 0.1874999999999999722 ) ;
#96 = APPLICATION_CONTEXT ( 'automotive_design' ) ;
#97 =( CONVERSION_BASED_UNIT ( 'INCH', #163 ) LENGTH_UNIT ( ) NAMED_UNIT ( #329 ) );
#98 = DIRECTION ( 'NONE',  ( -0.000000000000000000, -1.000000000000000000, -0.000000000000000000 ) ) ;
#99 = CARTESIAN_POINT ( 'NONE',  ( -0.1875000000000000278, 0.1875000000000000555, 2.296212748401287109E-17 ) ) ;
#100 = SPHERICAL_SURFACE ( 'NONE', #171, 0.1875000000000000278 ) ;
#101 = UNCERTAINTY_MEASURE_WITH_UNIT (LENGTH_MEASURE( 1.000000000000000082E-05 ), #103, 'distance_accuracy_value', 'NONE');
#102 = ADVANCED_FACE ( 'NONE', ( #162 ), #133, .T. ) ;
#103 =( CONVERSION_BASED_UNIT ( 'INCH', #251 ) LENGTH_UNIT ( ) NAMED_UNIT ( #187 ) );
#104 = STYLED_ITEM ( 'NONE', ( #60 ), #369 ) ;
#105 = PRESENTATION_STYLE_ASSIGNMENT (( #372 ) ) ;
#106 =( NAMED_UNIT ( * ) PLANE_ANGLE_UNIT ( ) SI_UNIT ( $, .RADIAN. ) );
#107 = FILL_AREA_STYLE_COLOUR ( '', #287 ) ;
#108 = CARTESIAN_POINT ( 'NONE',  ( 0.000000000000000000, 1.250000000000000000, 0.000000000000000000 ) ) ;
#109 = CYLINDRICAL_SURFACE ( 'NONE', #128, 0.1874999999999998057 ) ;
#110 = FILL_AREA_STYLE_COLOUR ( '', #343 ) ;
#111 = CIRCLE ( 'NONE', #320, 0.1874999999999996947 ) ;
#112 = COLOUR_RGB ( '',1.000000000000000000, 0.000000000000000000, 0.000000000000000000 ) ;
#113 = ADVANCED_FACE ( 'NONE', ( #27 ), #29, .T. ) ;
#114 =( CONVERSION_BASED_UNIT ( 'INCH', #14 ) LENGTH_UNIT ( ) NAMED_UNIT ( #290 ) );
#115 = ORIENTED_EDGE ( 'NONE', *, *, #227, .F. ) ;
#116 = EDGE_LOOP ( 'NONE', ( #53, #147, #333, #328 ) ) ;
#117 =( GEOMETRIC_REPRESENTATION_CONTEXT ( 3 ) GLOBAL_UNCERTAINTY_ASSIGNED_CONTEXT ( ( #93 ) ) GLOBAL_UNIT_ASSIGNED_CONTEXT ( ( #59, #295, #305 ) ) REPRESENTATION_CONTEXT ( 'NONE', 'WORKASPACE' ) );
#118 = PRESENTATION_LAYER_ASSIGNMENT (  '', '', ( #191 ) ) ;
#119 = ORIENTED_EDGE ( 'NONE', *, *, #16, .F. ) ;
#120 = LENGTH_MEASURE_WITH_UNIT ( LENGTH_MEASURE( 0.02539999999999999897 ), #146 );
#121 = DIRECTION ( 'NONE',  ( -0.000000000000000000, -1.000000000000000000, -0.000000000000000000 ) ) ;
#122 = ORIENTED_EDGE ( 'NONE', *, *, #203, .F. ) ;
#123 = MECHANICAL_DESIGN_GEOMETRIC_PRESENTATION_REPRESENTATION (  '', ( #240 ), #370 ) ;
#124 = DIMENSIONAL_EXPONENTS ( 1.000000000000000000, 0.000000000000000000, 0.000000000000000000, 0.000000000000000000, 0.000000000000000000, 0.000000000000000000, 0.000000000000000000 ) ;
#125 = CARTESIAN_POINT ( 'NONE',  ( -6.123233995736772199E-17, 3.000000000000000444, 0.000000000000000000 ) ) ;
#126 =( NAMED_UNIT ( * ) PLANE_ANGLE_UNIT ( ) SI_UNIT ( $, .RADIAN. ) );
#127 = SHAPE_DEFINITION_REPRESENTATION ( #149, #68 ) ;
#128 = AXIS2_PLACEMENT_3D ( 'NONE', #253, #23, #279 ) ;
#129 = SURFACE_SIDE_STYLE ('',( #276 ) ) ;
#130 = CIRCLE ( 'NONE', #302, 0.1875000000000000278 ) ;
#131 = CARTESIAN_POINT ( 'NONE',  ( -2.296212748401287726E-17, 0.1875000000000000278, 0.000000000000000000 ) ) ;
#132 = ADVANCED_FACE ( 'NONE', ( #80 ), #83, .T. ) ;
#133 = PLANE ( 'NONE',  #52 ) ;
#134 =( NAMED_UNIT ( * ) SI_UNIT ( $, .STERADIAN. ) SOLID_ANGLE_UNIT ( ) );
#135 = FILL_AREA_STYLE_COLOUR ( '', #330 ) ;
#136 = ORIENTED_EDGE ( 'NONE', *, *, #282, .T. ) ;
#137 = COLOUR_RGB ( '',1.000000000000000000, 0.000000000000000000, 0.000000000000000000 ) ;
#138 = PLANE ( 'NONE',  #214 ) ;
#139 = AXIS2_PLACEMENT_3D ( 'NONE', #17, #98, #69 ) ;
#140 = EDGE_CURVE ( 'NONE', #262, #152, #22, .T. ) ;
#141 =( GEOMETRIC_REPRESENTATION_CONTEXT ( 3 ) GLOBAL_UNCERTAINTY_ASSIGNED_CONTEXT ( ( #198 ) ) GLOBAL_UNIT_ASSIGNED_CONTEXT ( ( #193, #221, #21 ) ) REPRESENTATION_CONTEXT ( 'NONE', 'WORKASPACE' ) );
#142 = CARTESIAN_POINT ( 'NONE',  ( 0.000000000000000000, 1.250000000000000000, 0.000000000000000000 ) ) ;
#143 = ORIENTED_EDGE ( 'NONE', *, *, #326, .T. ) ;
#144 = MECHANICAL_DESIGN_GEOMETRIC_PRESENTATION_REPRESENTATION (  '', ( #354 ), #371 ) ;
#145 = EDGE_CURVE ( 'NONE', #262, #150, #174, .T. ) ;
#146 =( LENGTH_UNIT ( ) NAMED_UNIT ( * ) SI_UNIT ( $, .METRE. ) );
#147 = ORIENTED_EDGE ( 'NONE', *, *, #269, .T. ) ;
#148 = CARTESIAN_POINT ( 'NONE',  ( 0.000000000000000000, 0.000000000000000000, 0.000000000000000000 ) ) ;
#149 = PRODUCT_DEFINITION_SHAPE ( 'NONE', 'NONE',  #175 ) ;
#150 = VERTEX_POINT ( 'NONE', #169 ) ;
#151 = CARTESIAN_POINT ( 'NONE',  ( 1.530808498934191571E-16, 1.250000000000000000, 0.000000000000000000 ) ) ;
#152 = VERTEX_POINT ( 'NONE', #264 ) ;
#153 = EDGE_CURVE ( 'NONE', #292, #61, #229, .T. ) ;
#154 = MECHANICAL_DESIGN_GEOMETRIC_PRESENTATION_REPRESENTATION (  '', ( #164 ), #39 ) ;
#155 =( LENGTH_UNIT ( ) NAMED_UNIT ( * ) SI_UNIT ( $, .METRE. ) );
#156 = CARTESIAN_POINT ( 'NONE',  ( -2.296212748401287726E-17, 0.1875000000000000278, 0.000000000000000000 ) ) ;
#157 = DIMENSIONAL_EXPONENTS ( 1.000000000000000000, 0.000000000000000000, 0.000000000000000000, 0.000000000000000000, 0.000000000000000000, 0.000000000000000000, 0.000000000000000000 ) ;
#158 = PRESENTATION_LAYER_ASSIGNMENT (  '', '', ( #240 ) ) ;
#159 =( GEOMETRIC_REPRESENTATION_CONTEXT ( 3 ) GLOBAL_UNCERTAINTY_ASSIGNED_CONTEXT ( ( #194 ) ) GLOBAL_UNIT_ASSIGNED_CONTEXT ( ( #97, #13, #26 ) ) REPRESENTATION_CONTEXT ( 'NONE', 'WORKASPACE' ) );
#160 = PRESENTATION_STYLE_ASSIGNMENT (( #43 ) ) ;
#161 = LENGTH_MEASURE_WITH_UNIT ( LENGTH_MEASURE( 0.02539999999999999897 ), #335 );
#162 = FACE_OUTER_BOUND ( 'NONE', #284, .T. ) ;
#163 = LENGTH_MEASURE_WITH_UNIT ( LENGTH_MEASURE( 0.02539999999999999897 ), #155 );
#164 = STYLED_ITEM ( 'NONE', ( #202 ), #132 ) ;
#165 = CARTESIAN_POINT ( 'NONE',  ( 0.1874999999999999722, 0.1875000000000000555, 0.000000000000000000 ) ) ;
#166 = DIRECTION ( 'NONE',  ( -0.000000000000000000, -1.000000000000000000, -0.000000000000000000 ) ) ;
#167 = SURFACE_SIDE_STYLE ('',( #86 ) ) ;
#168 = FILL_AREA_STYLE ('',( #313 ) ) ;
#169 = CARTESIAN_POINT ( 'NONE',  ( 2.296212748401287109E-17, 0.1875000000000000555, 0.1874999999999999722 ) ) ;
#170 =( NAMED_UNIT ( * ) SI_UNIT ( $, .STERADIAN. ) SOLID_ANGLE_UNIT ( ) );
#171 = AXIS2_PLACEMENT_3D ( 'NONE', #156, #67, #25 ) ;
#172 = SURFACE_STYLE_USAGE ( .BOTH. , #167 ) ;
#173 = CARTESIAN_POINT ( 'NONE',  ( 1.530808498934191571E-16, 1.250000000000000000, 0.000000000000000000 ) ) ;
#174 = LINE ( 'NONE', #314, #94 ) ;
#175 = PRODUCT_DEFINITION ( 'UNKNOWN', '', #331, #42 ) ;
#176 = PRESENTATION_LAYER_ASSIGNMENT (  '', '', ( #104 ) ) ;
#177 = CARTESIAN_POINT ( 'NONE',  ( -2.296212748401287726E-17, 0.1875000000000000278, 0.000000000000000000 ) ) ;
#178 = ORIENTED_EDGE ( 'NONE', *, *, #145, .T. ) ;
#179 = CYLINDRICAL_SURFACE ( 'NONE', #309, 0.1874999999999999167 ) ;
#180 = ORIENTED_EDGE ( 'NONE', *, *, #339, .F. ) ;
#181 = MECHANICAL_DESIGN_GEOMETRIC_PRESENTATION_REPRESENTATION (  '', ( #104 ), #141 ) ;
#182 = EDGE_LOOP ( 'NONE', ( #40, #366, #210, #200, #238 ) ) ;
#183 = UNCERTAINTY_MEASURE_WITH_UNIT (LENGTH_MEASURE( 1.000000000000000082E-05 ), #1, 'distance_accuracy_value', 'NONE');
#184 = FILL_AREA_STYLE_COLOUR ( '', #137 ) ;
#185 =( CONVERSION_BASED_UNIT ( 'INCH', #271 ) LENGTH_UNIT ( ) NAMED_UNIT ( #10 ) );
#186 = ORIENTED_EDGE ( 'NONE', *, *, #41, .T. ) ;
#187 = DIMENSIONAL_EXPONENTS ( 1.000000000000000000, 0.000000000000000000, 0.000000000000000000, 0.000000000000000000, 0.000000000000000000, 0.000000000000000000, 0.000000000000000000 ) ;
#188 = DIRECTION ( 'NONE',  ( 1.000000000000000000, 1.224646799147353454E-16, 0.000000000000000000 ) ) ;
#189 = PRESENTATION_LAYER_ASSIGNMENT (  '', '', ( #360 ) ) ;
#190 = AXIS2_PLACEMENT_3D ( 'NONE', #338, #18, #367 ) ;
#191 = STYLED_ITEM ( 'NONE', ( #242 ), #275 ) ;
#192 = DIRECTION ( 'NONE',  ( -1.224646799147353454E-16, 1.000000000000000000, 0.000000000000000000 ) ) ;
#193 =( CONVERSION_BASED_UNIT ( 'INCH', #217 ) LENGTH_UNIT ( ) NAMED_UNIT ( #243 ) );
#194 = UNCERTAINTY_MEASURE_WITH_UNIT (LENGTH_MEASURE( 1.000000000000000082E-05 ), #97, 'distance_accuracy_value', 'NONE');
#195 = AXIS2_PLACEMENT_3D ( 'NONE', #315, #288, #47 ) ;
#196 = DIRECTION ( 'NONE',  ( 0.000000000000000000, 1.000000000000000000, 0.000000000000000000 ) ) ;
#197 = DIRECTION ( 'NONE',  ( 0.000000000000000000, 0.000000000000000000, -1.000000000000000000 ) ) ;
#198 = UNCERTAINTY_MEASURE_WITH_UNIT (LENGTH_MEASURE( 1.000000000000000082E-05 ), #193, 'distance_accuracy_value', 'NONE');
#199 = VERTEX_POINT ( 'NONE', #347 ) ;
#200 = ORIENTED_EDGE ( 'NONE', *, *, #269, .F. ) ;
#201 = CARTESIAN_POINT ( 'NONE',  ( -6.123233995736772199E-17, 3.000000000000000444, 0.000000000000000000 ) ) ;
#202 = PRESENTATION_STYLE_ASSIGNMENT (( #350 ) ) ;
#203 = EDGE_CURVE ( 'NONE', #50, #199, #225, .T. ) ;
#204 = DIRECTION ( 'NONE',  ( 0.000000000000000000, 0.000000000000000000, -1.000000000000000000 ) ) ;
#205 = SURFACE_STYLE_USAGE ( .BOTH. , #260 ) ;
#206 = STYLED_ITEM ( 'NONE', ( #37 ), #7 ) ;
#207 =( GEOMETRIC_REPRESENTATION_CONTEXT ( 3 ) GLOBAL_UNCERTAINTY_ASSIGNED_CONTEXT ( ( #72 ) ) GLOBAL_UNIT_ASSIGNED_CONTEXT ( ( #185, #70, #134 ) ) REPRESENTATION_CONTEXT ( 'NONE', 'WORKASPACE' ) );
#208 = FILL_AREA_STYLE_COLOUR ( '', #112 ) ;
#209 = SURFACE_STYLE_USAGE ( .BOTH. , #89 ) ;
#210 = ORIENTED_EDGE ( 'NONE', *, *, #16, .T. ) ;
#211 = FILL_AREA_STYLE ('',( #248 ) ) ;
#212 =( LENGTH_UNIT ( ) NAMED_UNIT ( * ) SI_UNIT ( $, .METRE. ) );
#213 = EDGE_LOOP ( 'NONE', ( #186, #178, #115, #63, #119 ) ) ;
#214 = AXIS2_PLACEMENT_3D ( 'NONE', #220, #192, #222 ) ;
#215 = AXIS2_PLACEMENT_3D ( 'NONE', #266, #322, #327 ) ;
#216 = DIRECTION ( 'NONE',  ( -0.000000000000000000, -1.000000000000000000, -0.000000000000000000 ) ) ;
#217 = LENGTH_MEASURE_WITH_UNIT ( LENGTH_MEASURE( 0.02539999999999999897 ), #212 );
#218 = FILL_AREA_STYLE ('',( #184 ) ) ;
#219 =( GEOMETRIC_REPRESENTATION_CONTEXT ( 3 ) GLOBAL_UNCERTAINTY_ASSIGNED_CONTEXT ( ( #246 ) ) GLOBAL_UNIT_ASSIGNED_CONTEXT ( ( #306, #126, #31 ) ) REPRESENTATION_CONTEXT ( 'NONE', 'WORKASPACE' ) );
#220 = CARTESIAN_POINT ( 'NONE',  ( 1.530808498934191571E-16, 1.250000000000000000, 0.000000000000000000 ) ) ;
#221 =( NAMED_UNIT ( * ) PLANE_ANGLE_UNIT ( ) SI_UNIT ( $, .RADIAN. ) );
#222 = DIRECTION ( 'NONE',  ( -1.000000000000000000, -1.224646799147353454E-16, 0.000000000000000000 ) ) ;
#223 = ADVANCED_FACE ( 'NONE', ( #28 ), #109, .T. ) ;
#224 = SURFACE_STYLE_FILL_AREA ( #373 ) ;
#225 = LINE ( 'NONE', #310, #84 ) ;
#226 = DIRECTION ( 'NONE',  ( 1.000000000000000000, 0.000000000000000000, 0.000000000000000000 ) ) ;
#227 = EDGE_CURVE ( 'NONE', #57, #150, #353, .T. ) ;
#228 = CIRCLE ( 'NONE', #241, 0.1874999999999996947 ) ;
#229 = LINE ( 'NONE', #340, #308 ) ;
#230 =( NAMED_UNIT ( * ) PLANE_ANGLE_UNIT ( ) SI_UNIT ( $, .RADIAN. ) );
#231 = ORIENTED_EDGE ( 'NONE', *, *, #140, .F. ) ;
#232 = PRODUCT_RELATED_PRODUCT_CATEGORY ( 'part', '', ( #6 ) ) ;
#233 = CIRCLE ( 'NONE', #257, 0.1874999999999999167 ) ;
#234 = FACE_OUTER_BOUND ( 'NONE', #267, .T. ) ;
#235 = DIMENSIONAL_EXPONENTS ( 1.000000000000000000, 0.000000000000000000, 0.000000000000000000, 0.000000000000000000, 0.000000000000000000, 0.000000000000000000, 0.000000000000000000 ) ;
#236 = AXIS2_PLACEMENT_3D ( 'NONE', #148, #121, #239 ) ;
#237 = FILL_AREA_STYLE ('',( #208 ) ) ;
#238 = ORIENTED_EDGE ( 'NONE', *, *, #326, .F. ) ;
#239 = DIRECTION ( 'NONE',  ( 0.000000000000000000, 0.000000000000000000, -1.000000000000000000 ) ) ;
#240 = STYLED_ITEM ( 'NONE', ( #105 ), #258 ) ;
#241 = AXIS2_PLACEMENT_3D ( 'NONE', #151, #261, #358 ) ;
#242 = PRESENTATION_STYLE_ASSIGNMENT (( #342 ) ) ;
#243 = DIMENSIONAL_EXPONENTS ( 1.000000000000000000, 0.000000000000000000, 0.000000000000000000, 0.000000000000000000, 0.000000000000000000, 0.000000000000000000, 0.000000000000000000 ) ;
#244 = ORIENTED_EDGE ( 'NONE', *, *, #319, .T. ) ;
#245 = EDGE_CURVE ( 'NONE', #50, #292, #111, .T. ) ;
#246 = UNCERTAINTY_MEASURE_WITH_UNIT (LENGTH_MEASURE( 1.000000000000000082E-05 ), #306, 'distance_accuracy_value', 'NONE');
#247 = AXIS2_PLACEMENT_3D ( 'NONE', #108, #355, #345 ) ;
#248 = FILL_AREA_STYLE_COLOUR ( '', #273 ) ;
#249 = FACE_OUTER_BOUND ( 'NONE', #12, .T. ) ;
#250 = LENGTH_MEASURE_WITH_UNIT ( LENGTH_MEASURE( 0.02539999999999999897 ), #352 );
#251 = LENGTH_MEASURE_WITH_UNIT ( LENGTH_MEASURE( 0.02539999999999999897 ), #311 );
#252 = EDGE_CURVE ( 'NONE', #199, #61, #4, .T. ) ;
#253 = CARTESIAN_POINT ( 'NONE',  ( -6.123233995736772199E-17, 3.000000000000000444, 0.000000000000000000 ) ) ;
#254 = AXIS2_PLACEMENT_3D ( 'NONE', #131, #91, #65 ) ;
#255 = CARTESIAN_POINT ( 'NONE',  ( 0.000000000000000000, 0.1875000000000000555, 0.000000000000000000 ) ) ;
#256 = DIRECTION ( 'NONE',  ( 0.000000000000000000, 0.000000000000000000, 1.000000000000000000 ) ) ;
#257 = AXIS2_PLACEMENT_3D ( 'NONE', #125, #299, #24 ) ;
#258 = MANIFOLD_SOLID_BREP ( 'Revolve - Cutting Edge', #55 ) ;
#259 = EDGE_CURVE ( 'NONE', #317, #57, #278, .T. ) ;
#260 = SURFACE_SIDE_STYLE ('',( #32 ) ) ;
#261 = DIRECTION ( 'NONE',  ( -1.224646799147353454E-16, 1.000000000000000000, -0.000000000000000000 ) ) ;
#262 = VERTEX_POINT ( 'NONE', #289 ) ;
#263 = CARTESIAN_POINT ( 'NONE',  ( 0.000000000000000000, 0.1875000000000000555, -0.1874999999999999722 ) ) ;
#264 = CARTESIAN_POINT ( 'NONE',  ( 0.000000000000000000, 1.250000000000000000, -0.1874999999999998335 ) ) ;
#265 = AXIS2_PLACEMENT_3D ( 'NONE', #201, #46, #341 ) ;
#266 = CARTESIAN_POINT ( 'NONE',  ( 0.000000000000000000, 0.1875000000000000555, 0.000000000000000000 ) ) ;
#267 = EDGE_LOOP ( 'NONE', ( #143, #136, #180, #87 ) ) ;
#268 = CYLINDRICAL_SURFACE ( 'NONE', #236, 0.1874999999999999167 ) ;
#269 = EDGE_CURVE ( 'NONE', #77, #317, #95, .T. ) ;
#270 = CARTESIAN_POINT ( 'NONE',  ( 0.1874999999999998335, 1.250000000000000000, 2.296212748401286185E-17 ) ) ;
#271 = LENGTH_MEASURE_WITH_UNIT ( LENGTH_MEASURE( 0.02539999999999999897 ), #74 );
#272 = AXIS2_PLACEMENT_3D ( 'NONE', #76, #256, #226 ) ;
#273 = COLOUR_RGB ( '',1.000000000000000000, 0.000000000000000000, 0.000000000000000000 ) ;
#274 = CARTESIAN_POINT ( 'NONE',  ( 0.000000000000000000, 0.000000000000000000, -0.1874999999999999167 ) ) ;
#275 = ADVANCED_FACE ( 'NONE', ( #58 ), #179, .T. ) ;
#276 = SURFACE_STYLE_FILL_AREA ( #218 ) ;
#277 = AXIS2_PLACEMENT_3D ( 'NONE', #349, #166, #197 ) ;
#278 = CIRCLE ( 'NONE', #321, 0.1874999999999999722 ) ;
#279 = DIRECTION ( 'NONE',  ( -1.000000000000000000, 0.000000000000000000, 0.000000000000000000 ) ) ;
#280 = APPLICATION_CONTEXT ( 'automotive_design' ) ;
#281 = DIRECTION ( 'NONE',  ( -1.000000000000000000, 0.000000000000000000, 0.000000000000000000 ) ) ;
#282 = EDGE_CURVE ( 'NONE', #77, #362, #34, .T. ) ;
#283 = DIRECTION ( 'NONE',  ( 0.000000000000000000, -0.000000000000000000, 1.000000000000000000 ) ) ;
#284 = EDGE_LOOP ( 'NONE', ( #38, #231 ) ) ;
#285 = SURFACE_STYLE_FILL_AREA ( #168 ) ;
#286 =( NAMED_UNIT ( * ) PLANE_ANGLE_UNIT ( ) SI_UNIT ( $, .RADIAN. ) );
#287 = COLOUR_RGB ( '',0.7921568627450980005, 0.8196078431372548767, 0.9333333333333333481 ) ;
#288 = DIRECTION ( 'NONE',  ( -1.224646799147353454E-16, 1.000000000000000000, -0.000000000000000000 ) ) ;
#289 = CARTESIAN_POINT ( 'NONE',  ( 2.296212748401285877E-17, 1.250000000000000000, 0.1874999999999998335 ) ) ;
#290 = DIMENSIONAL_EXPONENTS ( 1.000000000000000000, 0.000000000000000000, 0.000000000000000000, 0.000000000000000000, 0.000000000000000000, 0.000000000000000000, 0.000000000000000000 ) ;
#291 = DIRECTION ( 'NONE',  ( 0.000000000000000000, 0.000000000000000000, -1.000000000000000000 ) ) ;
#292 = VERTEX_POINT ( 'NONE', #270 ) ;
#293 = CARTESIAN_POINT ( 'NONE',  ( -1.148106374200643863E-17, 0.000000000000000000, 0.000000000000000000 ) ) ;
#294 = ORIENTED_EDGE ( 'NONE', *, *, #64, .T. ) ;
#295 =( NAMED_UNIT ( * ) PLANE_ANGLE_UNIT ( ) SI_UNIT ( $, .RADIAN. ) );
#296 = CARTESIAN_POINT ( 'NONE',  ( 0.1874999999999998335, 3.000000000000000444, 2.296212748401286185E-17 ) ) ;
#297 = ORIENTED_EDGE ( 'NONE', *, *, #153, .T. ) ;
#298 = ADVANCED_FACE ( 'NONE', ( #15 ), #268, .T. ) ;
#299 = DIRECTION ( 'NONE',  ( -1.224646799147353454E-16, 1.000000000000000000, -0.000000000000000000 ) ) ;
#300 = APPLICATION_PROTOCOL_DEFINITION ( 'draft international standard', 'automotive_design', 1998, #280 ) ;
#301 = PRESENTATION_LAYER_ASSIGNMENT (  '', '', ( #206 ) ) ;
#302 = AXIS2_PLACEMENT_3D ( 'NONE', #177, #291, #8 ) ;
#303 = CARTESIAN_POINT ( 'NONE',  ( -0.1874999999999995837, 1.250000000000000000, 0.000000000000000000 ) ) ;
#304 = APPLICATION_PROTOCOL_DEFINITION ( 'draft international standard', 'automotive_design', 1998, #96 ) ;
#305 =( NAMED_UNIT ( * ) SI_UNIT ( $, .STERADIAN. ) SOLID_ANGLE_UNIT ( ) );
#306 =( CONVERSION_BASED_UNIT ( 'INCH', #161 ) LENGTH_UNIT ( ) NAMED_UNIT ( #157 ) );
#307 = PRODUCT_CONTEXT ( 'NONE', #96, 'mechanical' ) ;
#308 = VECTOR ( 'NONE', #75, 39.37007874015748143 ) ;
#309 = AXIS2_PLACEMENT_3D ( 'NONE', #365, #216, #312 ) ;
#310 = CARTESIAN_POINT ( 'NONE',  ( -0.1874999999999998890, 3.000000000000000444, 0.000000000000000000 ) ) ;
#311 =( LENGTH_UNIT ( ) NAMED_UNIT ( * ) SI_UNIT ( $, .METRE. ) );
#312 = DIRECTION ( 'NONE',  ( 0.000000000000000000, 0.000000000000000000, -1.000000000000000000 ) ) ;
#313 = FILL_AREA_STYLE_COLOUR ( '', #33 ) ;
#314 = CARTESIAN_POINT ( 'NONE',  ( 2.296212748401286185E-17, 0.000000000000000000, 0.1874999999999999167 ) ) ;
#315 = CARTESIAN_POINT ( 'NONE',  ( -6.123233995736772199E-17, 3.000000000000000444, 0.000000000000000000 ) ) ;
#316 = PRESENTATION_LAYER_ASSIGNMENT (  '', '', ( #164 ) ) ;
#317 = VERTEX_POINT ( 'NONE', #263 ) ;
#318 = SURFACE_STYLE_FILL_AREA ( #357 ) ;
#319 = EDGE_CURVE ( 'NONE', #292, #50, #228, .T. ) ;
#320 = AXIS2_PLACEMENT_3D ( 'NONE', #173, #344, #281 ) ;
#321 = AXIS2_PLACEMENT_3D ( 'NONE', #255, #88, #35 ) ;
#322 = DIRECTION ( 'NONE',  ( -0.000000000000000000, -1.000000000000000000, -0.000000000000000000 ) ) ;
#323 = ORIENTED_EDGE ( 'NONE', *, *, #252, .T. ) ;
#324 = EDGE_LOOP ( 'NONE', ( #346, #364 ) ) ;
#325 = CARTESIAN_POINT ( 'NONE',  ( 0.000000000000000000, 0.1875000000000000555, 0.000000000000000000 ) ) ;
#326 = EDGE_CURVE ( 'NONE', #150, #77, #71, .T. ) ;
#327 = DIRECTION ( 'NONE',  ( 0.000000000000000000, 0.000000000000000000, -1.000000000000000000 ) ) ;
#328 = ORIENTED_EDGE ( 'NONE', *, *, #339, .T. ) ;
#329 = DIMENSIONAL_EXPONENTS ( 1.000000000000000000, 0.000000000000000000, 0.000000000000000000, 0.000000000000000000, 0.000000000000000000, 0.000000000000000000, 0.000000000000000000 ) ;
#330 = COLOUR_RGB ( '',1.000000000000000000, 0.000000000000000000, 0.000000000000000000 ) ;
#331 = PRODUCT_DEFINITION_FORMATION_WITH_SPECIFIED_SOURCE ( 'ANY', '', #6, .NOT_KNOWN. ) ;
#332 = DIRECTION ( 'NONE',  ( -0.000000000000000000, -1.000000000000000000, -0.000000000000000000 ) ) ;
#333 = ORIENTED_EDGE ( 'NONE', *, *, #259, .T. ) ;
#334 = CARTESIAN_POINT ( 'NONE',  ( 0.1874999999999998335, 3.000000000000000444, 0.000000000000000000 ) ) ;
#335 =( LENGTH_UNIT ( ) NAMED_UNIT ( * ) SI_UNIT ( $, .METRE. ) );
#336 = VECTOR ( 'NONE', #332, 39.37007874015748143 ) ;
#337 = LINE ( 'NONE', #274, #336 ) ;
#338 = CARTESIAN_POINT ( 'NONE',  ( 0.000000000000000000, 0.000000000000000000, 0.000000000000000000 ) ) ;
#339 = EDGE_CURVE ( 'NONE', #57, #362, #130, .T. ) ;
#340 = CARTESIAN_POINT ( 'NONE',  ( 0.1874999999999997502, 3.000000000000000444, 2.296212748401284952E-17 ) ) ;
#341 = DIRECTION ( 'NONE',  ( -1.000000000000000000, 0.000000000000000000, 0.000000000000000000 ) ) ;
#342 = SURFACE_STYLE_USAGE ( .BOTH. , #85 ) ;
#343 = COLOUR_RGB ( '',1.000000000000000000, 0.000000000000000000, 0.000000000000000000 ) ;
#344 = DIRECTION ( 'NONE',  ( -1.224646799147353454E-16, 1.000000000000000000, -0.000000000000000000 ) ) ;
#345 = DIRECTION ( 'NONE',  ( 0.000000000000000000, 0.000000000000000000, -1.000000000000000000 ) ) ;
#346 = ORIENTED_EDGE ( 'NONE', *, *, #245, .F. ) ;
#347 = CARTESIAN_POINT ( 'NONE',  ( -0.1874999999999999722, 3.000000000000000444, 0.000000000000000000 ) ) ;
#348 = SURFACE_SIDE_STYLE ('',( #224 ) ) ;
#349 = CARTESIAN_POINT ( 'NONE',  ( 0.000000000000000000, 0.1875000000000000555, 0.000000000000000000 ) ) ;
#350 = SURFACE_STYLE_USAGE ( .BOTH. , #348 ) ;
#351 = PRESENTATION_STYLE_ASSIGNMENT (( #172 ) ) ;
#352 =( LENGTH_UNIT ( ) NAMED_UNIT ( * ) SI_UNIT ( $, .METRE. ) );
#353 = CIRCLE ( 'NONE', #277, 0.1874999999999999722 ) ;
#354 = STYLED_ITEM ( 'NONE', ( #351 ), #298 ) ;
#355 = DIRECTION ( 'NONE',  ( -0.000000000000000000, -1.000000000000000000, -0.000000000000000000 ) ) ;
#356 = ORIENTED_EDGE ( 'NONE', *, *, #245, .T. ) ;
#357 = FILL_AREA_STYLE ('',( #110 ) ) ;
#358 = DIRECTION ( 'NONE',  ( -1.000000000000000000, 0.000000000000000000, 0.000000000000000000 ) ) ;
#359 = ORIENTED_EDGE ( 'NONE', *, *, #153, .F. ) ;
#360 = STYLED_ITEM ( 'NONE', ( #160 ), #102 ) ;
#361 = SURFACE_STYLE_FILL_AREA ( #237 ) ;
#362 = VERTEX_POINT ( 'NONE', #293 ) ;
#363 =( NAMED_UNIT ( * ) SI_UNIT ( $, .STERADIAN. ) SOLID_ANGLE_UNIT ( ) );
#364 = ORIENTED_EDGE ( 'NONE', *, *, #319, .F. ) ;
#365 = CARTESIAN_POINT ( 'NONE',  ( 0.000000000000000000, 0.000000000000000000, 0.000000000000000000 ) ) ;
#366 = ORIENTED_EDGE ( 'NONE', *, *, #140, .T. ) ;
#367 = DIRECTION ( 'NONE',  ( 1.000000000000000000, 0.000000000000000000, 0.000000000000000000 ) ) ;
#368 = MECHANICAL_DESIGN_GEOMETRIC_PRESENTATION_REPRESENTATION (  '', ( #191 ), #159 ) ;
#369 = ADVANCED_FACE ( 'NONE', ( #234 ), #100, .T. ) ;
#370 =( GEOMETRIC_REPRESENTATION_CONTEXT ( 3 ) GLOBAL_UNCERTAINTY_ASSIGNED_CONTEXT ( ( #183 ) ) GLOBAL_UNIT_ASSIGNED_CONTEXT ( ( #1, #286, #170 ) ) REPRESENTATION_CONTEXT ( 'NONE', 'WORKASPACE' ) );
#371 =( GEOMETRIC_REPRESENTATION_CONTEXT ( 3 ) GLOBAL_UNCERTAINTY_ASSIGNED_CONTEXT ( ( #3 ) ) GLOBAL_UNIT_ASSIGNED_CONTEXT ( ( #114, #230, #363 ) ) REPRESENTATION_CONTEXT ( 'NONE', 'WORKASPACE' ) );
#372 = SURFACE_STYLE_USAGE ( .BOTH. , #2 ) ;
#373 = FILL_AREA_STYLE ('',( #135 ) ) ;
ENDSEC;
END-ISO-10303-21;
