ISO-10303-21;
HEADER;
FILE_DESCRIPTION (( 'STEP AP214' ),
    '1' );
FILE_NAME ('59754.STEP',
    '2023-07-24T15:34:04',
    ( '' ),
    ( '' ),
    'SwSTEP 2.0',
    'SolidWorks 2023',
    '' );
FILE_SCHEMA (( 'AUTOMOTIVE_DESIGN' ));
ENDSEC;

DATA;
#1 = SURFACE_STYLE_FILL_AREA ( #25 ) ;
#2 = SURFACE_STYLE_FILL_AREA ( #64 ) ;
#3 = EDGE_CURVE ( 'NONE', #302, #246, #243, .T. ) ;
#4 = DIRECTION ( 'NONE',  ( -1.000000000000000000, 0.000000000000000000, 0.000000000000000000 ) ) ;
#5 = COLOUR_RGB ( '',1.000000000000000000, 0.000000000000000000, 0.000000000000000000 ) ;
#6 = FILL_AREA_STYLE ('',( #204 ) ) ;
#7 = STYLED_ITEM ( 'NONE', ( #175 ), #288 ) ;
#8 = CARTESIAN_POINT ( 'NONE',  ( 5.204170427930421283E-15, 32.00000000000000000, 0.000000000000000000 ) ) ;
#9 = ADVANCED_FACE ( 'NONE', ( #60 ), #187, .T. ) ;
#10 = CARTESIAN_POINT ( 'NONE',  ( 0.000000000000000000, 0.000000000000000000, 0.000000000000000000 ) ) ;
#11 = EDGE_CURVE ( 'NONE', #302, #311, #67, .T. ) ;
#12 = DIRECTION ( 'NONE',  ( 0.000000000000000000, 0.000000000000000000, -1.000000000000000000 ) ) ;
#13 = EDGE_LOOP ( 'NONE', ( #367, #240 ) ) ;
#14 = PRESENTATION_LAYER_ASSIGNMENT (  '', '', ( #259 ) ) ;
#15 = CARTESIAN_POINT ( 'NONE',  ( 7.999999999999996447, 89.00000000000000000, 9.797174393178823685E-16 ) ) ;
#16 = ADVANCED_FACE ( 'NONE', ( #33 ), #251, .T. ) ;
#17 = CARTESIAN_POINT ( 'NONE',  ( 8.572527594031473190E-16, 1.000000000000000000, 7.000000000000000000 ) ) ;
#18 = MECHANICAL_DESIGN_GEOMETRIC_PRESENTATION_REPRESENTATION (  '', ( #295 ), #19 ) ;
#19 =( GEOMETRIC_REPRESENTATION_CONTEXT ( 3 ) GLOBAL_UNCERTAINTY_ASSIGNED_CONTEXT ( ( #59 ) ) GLOBAL_UNIT_ASSIGNED_CONTEXT ( ( #93, #267, #310 ) ) REPRESENTATION_CONTEXT ( 'NONE', 'WORKASPACE' ) );
#20 = EDGE_CURVE ( 'NONE', #333, #54, #314, .T. ) ;
#21 = DIRECTION ( 'NONE',  ( 0.000000000000000000, 0.000000000000000000, -1.000000000000000000 ) ) ;
#22 = ORIENTED_EDGE ( 'NONE', *, *, #207, .T. ) ;
#23 = ADVANCED_FACE ( 'NONE', ( #88 ), #322, .T. ) ;
#24 = PRESENTATION_STYLE_ASSIGNMENT (( #129 ) ) ;
#25 = FILL_AREA_STYLE ('',( #277 ) ) ;
#26 = PRESENTATION_LAYER_ASSIGNMENT (  '', '', ( #47 ) ) ;
#27 =( NAMED_UNIT ( * ) SI_UNIT ( $, .STERADIAN. ) SOLID_ANGLE_UNIT ( ) );
#28 = ORIENTED_EDGE ( 'NONE', *, *, #131, .T. ) ;
#29 = AXIS2_PLACEMENT_3D ( 'NONE', #234, #89, #326 ) ;
#30 =( NAMED_UNIT ( * ) SI_UNIT ( $, .STERADIAN. ) SOLID_ANGLE_UNIT ( ) );
#31 = ORIENTED_EDGE ( 'NONE', *, *, #195, .T. ) ;
#32 = CARTESIAN_POINT ( 'NONE',  ( 9.797174393178825657E-16, 1.000000000000000000, 8.000000000000000000 ) ) ;
#33 = FACE_OUTER_BOUND ( 'NONE', #309, .T. ) ;
#34 = DIRECTION ( 'NONE',  ( -0.000000000000000000, -1.000000000000000000, -0.000000000000000000 ) ) ;
#35 = SURFACE_SIDE_STYLE ('',( #254 ) ) ;
#36 = EDGE_CURVE ( 'NONE', #272, #79, #252, .T. ) ;
#37 = DIRECTION ( 'NONE',  ( -1.000000000000000000, 0.000000000000000000, 0.000000000000000000 ) ) ;
#38 = SURFACE_SIDE_STYLE ('',( #292 ) ) ;
#39 = CIRCLE ( 'NONE', #176, 7.999999999999994671 ) ;
#40 =( GEOMETRIC_REPRESENTATION_CONTEXT ( 3 ) GLOBAL_UNCERTAINTY_ASSIGNED_CONTEXT ( ( #152 ) ) GLOBAL_UNIT_ASSIGNED_CONTEXT ( ( #208, #229, #117 ) ) REPRESENTATION_CONTEXT ( 'NONE', 'WORKASPACE' ) );
#41 = AXIS2_PLACEMENT_3D ( 'NONE', #172, #320, #63 ) ;
#42 = DIRECTION ( 'NONE',  ( 1.000000000000000000, 0.000000000000000000, 0.000000000000000000 ) ) ;
#43 = ORIENTED_EDGE ( 'NONE', *, *, #353, .F. ) ;
#44 = COLOUR_RGB ( '',1.000000000000000000, 0.000000000000000000, 0.000000000000000000 ) ;
#45 = UNCERTAINTY_MEASURE_WITH_UNIT (LENGTH_MEASURE( 1.000000000000000082E-05 ), #283, 'distance_accuracy_value', 'NONE');
#46 =( LENGTH_UNIT ( ) NAMED_UNIT ( * ) SI_UNIT ( .MILLI., .METRE. ) );
#47 = STYLED_ITEM ( 'NONE', ( #253 ), #275 ) ;
#48 = CARTESIAN_POINT ( 'NONE',  ( 0.000000000000000000, 0.000000000000000000, -7.000000000000000000 ) ) ;
#49 = ORIENTED_EDGE ( 'NONE', *, *, #353, .T. ) ;
#50 = CARTESIAN_POINT ( 'NONE',  ( 8.000000000000000000, 89.00000000000000000, 0.000000000000000000 ) ) ;
#51 = ORIENTED_EDGE ( 'NONE', *, *, #312, .T. ) ;
#52 = UNCERTAINTY_MEASURE_WITH_UNIT (LENGTH_MEASURE( 1.000000000000000082E-05 ), #276, 'distance_accuracy_value', 'NONE');
#53 = DIRECTION ( 'NONE',  ( -1.213802797673107944E-16, 1.000000000000000000, -0.000000000000000000 ) ) ;
#54 = VERTEX_POINT ( 'NONE', #255 ) ;
#55 = AXIS2_PLACEMENT_3D ( 'NONE', #133, #370, #339 ) ;
#56 = ADVANCED_FACE ( 'NONE', ( #178 ), #149, .F. ) ;
#57 = MECHANICAL_DESIGN_GEOMETRIC_PRESENTATION_REPRESENTATION (  '', ( #298 ), #260 ) ;
#58 = ORIENTED_EDGE ( 'NONE', *, *, #336, .F. ) ;
#59 = UNCERTAINTY_MEASURE_WITH_UNIT (LENGTH_MEASURE( 1.000000000000000082E-05 ), #93, 'distance_accuracy_value', 'NONE');
#60 = FACE_OUTER_BOUND ( 'NONE', #218, .T. ) ;
#61 = DIRECTION ( 'NONE',  ( 0.000000000000000000, 0.000000000000000000, -1.000000000000000000 ) ) ;
#62 = PRESENTATION_LAYER_ASSIGNMENT (  '', '', ( #7 ) ) ;
#63 = DIRECTION ( 'NONE',  ( 0.000000000000000000, 0.000000000000000000, -1.000000000000000000 ) ) ;
#64 = FILL_AREA_STYLE ('',( #137 ) ) ;
#65 = DIRECTION ( 'NONE',  ( 0.000000000000000000, 0.000000000000000000, -1.000000000000000000 ) ) ;
#66 = FACE_OUTER_BOUND ( 'NONE', #75, .T. ) ;
#67 = CIRCLE ( 'NONE', #329, 8.000000000000000000 ) ;
#68 = AXIS2_PLACEMENT_3D ( 'NONE', #354, #266, #262 ) ;
#69 = AXIS2_PLACEMENT_3D ( 'NONE', #325, #293, #42 ) ;
#70 = CLOSED_SHELL ( 'NONE', ( #16, #275, #85, #179, #23, #168 ) ) ;
#71 = UNCERTAINTY_MEASURE_WITH_UNIT (LENGTH_MEASURE( 1.000000000000000082E-05 ), #161, 'distance_accuracy_value', 'NONE');
#72 = DIRECTION ( 'NONE',  ( -0.000000000000000000, -1.000000000000000000, -0.000000000000000000 ) ) ;
#73 = SURFACE_STYLE_USAGE ( .BOTH. , #331 ) ;
#74 = ORIENTED_EDGE ( 'NONE', *, *, #265, .T. ) ;
#75 = EDGE_LOOP ( 'NONE', ( #49, #51 ) ) ;
#76 = FILL_AREA_STYLE_COLOUR ( '', #102 ) ;
#77 = AXIS2_PLACEMENT_3D ( 'NONE', #139, #225, #258 ) ;
#78 = AXIS2_PLACEMENT_3D ( 'NONE', #217, #323, #61 ) ;
#79 = VERTEX_POINT ( 'NONE', #115 ) ;
#80 = PRODUCT_DEFINITION_FORMATION_WITH_SPECIFIED_SOURCE ( 'ANY', '', #108, .NOT_KNOWN. ) ;
#81 = CARTESIAN_POINT ( 'NONE',  ( 5.204170427930421283E-15, 32.00000000000000000, 0.000000000000000000 ) ) ;
#82 = COLOUR_RGB ( '',1.000000000000000000, 0.000000000000000000, 0.000000000000000000 ) ;
#83 = CARTESIAN_POINT ( 'NONE',  ( 9.797174393178825657E-16, 0.000000000000000000, 8.000000000000000000 ) ) ;
#84 = CARTESIAN_POINT ( 'NONE',  ( 8.000000000000000000, 32.00000000000000000, 9.797174393178825657E-16 ) ) ;
#85 = ADVANCED_FACE ( 'NONE', ( #66 ), #352, .T. ) ;
#86 = SURFACE_SIDE_STYLE ('',( #1 ) ) ;
#87 = FACE_OUTER_BOUND ( 'NONE', #212, .T. ) ;
#88 = FACE_OUTER_BOUND ( 'NONE', #190, .T. ) ;
#89 = DIRECTION ( 'NONE',  ( -0.000000000000000000, -1.000000000000000000, -0.000000000000000000 ) ) ;
#90 = PRESENTATION_LAYER_ASSIGNMENT (  '', '', ( #298 ) ) ;
#91 = SHAPE_DEFINITION_REPRESENTATION ( #120, #166 ) ;
#92 =( LENGTH_UNIT ( ) NAMED_UNIT ( * ) SI_UNIT ( .MILLI., .METRE. ) );
#93 =( LENGTH_UNIT ( ) NAMED_UNIT ( * ) SI_UNIT ( .MILLI., .METRE. ) );
#94 = VECTOR ( 'NONE', #345, 1000.000000000000000 ) ;
#95 =( LENGTH_UNIT ( ) NAMED_UNIT ( * ) SI_UNIT ( .MILLI., .METRE. ) );
#96 = MECHANICAL_DESIGN_GEOMETRIC_PRESENTATION_REPRESENTATION (  '', ( #363 ), #196 ) ;
#97 = CARTESIAN_POINT ( 'NONE',  ( 0.000000000000000000, 32.00000000000000000, 0.000000000000000000 ) ) ;
#98 = SURFACE_STYLE_FILL_AREA ( #335 ) ;
#99 = ADVANCED_FACE ( 'NONE', ( #105 ), #210, .F. ) ;
#100 = FILL_AREA_STYLE_COLOUR ( '', #109 ) ;
#101 = VERTEX_POINT ( 'NONE', #213 ) ;
#102 = COLOUR_RGB ( '',1.000000000000000000, 0.000000000000000000, 0.000000000000000000 ) ;
#103 = EDGE_LOOP ( 'NONE', ( #74, #337 ) ) ;
#104 = AXIS2_PLACEMENT_3D ( 'NONE', #155, #287, #274 ) ;
#105 = FACE_OUTER_BOUND ( 'NONE', #103, .T. ) ;
#106 = ORIENTED_EDGE ( 'NONE', *, *, #136, .F. ) ;
#107 = CARTESIAN_POINT ( 'NONE',  ( 0.000000000000000000, 1.000000000000000000, -7.000000000000000000 ) ) ;
#108 = PRODUCT ( '59754', '59754', '', ( #351 ) ) ;
#109 = COLOUR_RGB ( '',0.7921568627450980005, 0.8196078431372548767, 0.9333333333333333481 ) ;
#110 = ORIENTED_EDGE ( 'NONE', *, *, #11, .T. ) ;
#111 =( NAMED_UNIT ( * ) PLANE_ANGLE_UNIT ( ) SI_UNIT ( $, .RADIAN. ) );
#112 = ORIENTED_EDGE ( 'NONE', *, *, #163, .T. ) ;
#113 = SURFACE_STYLE_FILL_AREA ( #165 ) ;
#114 =( NAMED_UNIT ( * ) PLANE_ANGLE_UNIT ( ) SI_UNIT ( $, .RADIAN. ) );
#115 = CARTESIAN_POINT ( 'NONE',  ( -7.999999999999989342, 32.00000000000000000, 0.000000000000000000 ) ) ;
#116 = MECHANICAL_DESIGN_GEOMETRIC_PRESENTATION_REPRESENTATION (  '', ( #7 ), #134 ) ;
#117 =( NAMED_UNIT ( * ) SI_UNIT ( $, .STERADIAN. ) SOLID_ANGLE_UNIT ( ) );
#118 = SURFACE_STYLE_USAGE ( .BOTH. , #38 ) ;
#119 = DIRECTION ( 'NONE',  ( -0.000000000000000000, -1.000000000000000000, -0.000000000000000000 ) ) ;
#120 = PRODUCT_DEFINITION_SHAPE ( 'NONE', 'NONE',  #233 ) ;
#121 = DIRECTION ( 'NONE',  ( 0.000000000000000000, 0.000000000000000000, -1.000000000000000000 ) ) ;
#122 = TOROIDAL_SURFACE ( 'NONE', #78, 7.000000000000000000, 1.000000000000000000 ) ;
#123 = SURFACE_SIDE_STYLE ('',( #338 ) ) ;
#124 = CYLINDRICAL_SURFACE ( 'NONE', #307, 7.999999999999998224 ) ;
#125 = CARTESIAN_POINT ( 'NONE',  ( 0.000000000000000000, 32.00000000000000000, 0.000000000000000000 ) ) ;
#126 = ADVANCED_FACE ( 'NONE', ( #180 ), #124, .T. ) ;
#127 = AXIS2_PLACEMENT_3D ( 'NONE', #8, #141, #226 ) ;
#128 = STYLED_ITEM ( 'NONE', ( #316 ), #179 ) ;
#129 = SURFACE_STYLE_USAGE ( .BOTH. , #86 ) ;
#130 = ORIENTED_EDGE ( 'NONE', *, *, #294, .F. ) ;
#131 = EDGE_CURVE ( 'NONE', #311, #302, #357, .T. ) ;
#132 = VERTEX_POINT ( 'NONE', #150 ) ;
#133 = CARTESIAN_POINT ( 'NONE',  ( 0.000000000000000000, 32.00000000000000000, 0.000000000000000000 ) ) ;
#134 =( GEOMETRIC_REPRESENTATION_CONTEXT ( 3 ) GLOBAL_UNCERTAINTY_ASSIGNED_CONTEXT ( ( #358 ) ) GLOBAL_UNIT_ASSIGNED_CONTEXT ( ( #95, #355, #202 ) ) REPRESENTATION_CONTEXT ( 'NONE', 'WORKASPACE' ) );
#135 = ORIENTED_EDGE ( 'NONE', *, *, #195, .F. ) ;
#136 = EDGE_CURVE ( 'NONE', #311, #132, #361, .T. ) ;
#137 = FILL_AREA_STYLE_COLOUR ( '', #203 ) ;
#138 = PRESENTATION_STYLE_ASSIGNMENT (( #349 ) ) ;
#139 = CARTESIAN_POINT ( 'NONE',  ( 5.204170427930421283E-15, 32.00000000000000000, 0.000000000000000000 ) ) ;
#140 = SURFACE_STYLE_USAGE ( .BOTH. , #188 ) ;
#141 = DIRECTION ( 'NONE',  ( -1.213802797673107944E-16, 1.000000000000000000, 0.000000000000000000 ) ) ;
#142 = AXIS2_PLACEMENT_3D ( 'NONE', #17, #154, #157 ) ;
#143 = AXIS2_PLACEMENT_3D ( 'NONE', #327, #300, #12 ) ;
#144 = CARTESIAN_POINT ( 'NONE',  ( -1.714505518806293652E-15, 89.00000000000000000, 0.000000000000000000 ) ) ;
#145 = SURFACE_SIDE_STYLE ('',( #299 ) ) ;
#146 = DIRECTION ( 'NONE',  ( -0.000000000000000000, -1.000000000000000000, -0.000000000000000000 ) ) ;
#147 = ORIENTED_EDGE ( 'NONE', *, *, #205, .F. ) ;
#148 = VECTOR ( 'NONE', #306, 1000.000000000000000 ) ;
#149 = PLANE ( 'NONE',  #127 ) ;
#150 = CARTESIAN_POINT ( 'NONE',  ( 0.000000000000000000, 1.000000000000000000, -8.000000000000000000 ) ) ;
#151 = AXIS2_PLACEMENT_3D ( 'NONE', #107, #37, #250 ) ;
#152 = UNCERTAINTY_MEASURE_WITH_UNIT (LENGTH_MEASURE( 1.000000000000000082E-05 ), #208, 'distance_accuracy_value', 'NONE');
#153 = FILL_AREA_STYLE_COLOUR ( '', #221 ) ;
#154 = DIRECTION ( 'NONE',  ( 1.000000000000000000, 0.000000000000000000, -1.224646799147353207E-16 ) ) ;
#155 = CARTESIAN_POINT ( 'NONE',  ( -1.714505518806293849E-15, 89.00000000000000000, 0.000000000000000000 ) ) ;
#156 = MANIFOLD_SOLID_BREP ( 'Revolve - Cutting Edge', #70 ) ;
#157 = DIRECTION ( 'NONE',  ( -1.224646799147353454E-16, 0.000000000000000000, -1.000000000000000000 ) ) ;
#158 = ORIENTED_EDGE ( 'NONE', *, *, #36, .T. ) ;
#159 = PRESENTATION_LAYER_ASSIGNMENT (  '', '', ( #128 ) ) ;
#160 = AXIS2_PLACEMENT_3D ( 'NONE', #206, #146, #121 ) ;
#161 =( LENGTH_UNIT ( ) NAMED_UNIT ( * ) SI_UNIT ( .MILLI., .METRE. ) );
#162 = VERTEX_POINT ( 'NONE', #48 ) ;
#163 = EDGE_CURVE ( 'NONE', #246, #101, #328, .T. ) ;
#164 = ORIENTED_EDGE ( 'NONE', *, *, #294, .T. ) ;
#165 = FILL_AREA_STYLE ('',( #76 ) ) ;
#166 = ADVANCED_BREP_SHAPE_REPRESENTATION ( '59754', ( #156, #288, #69 ), #40 ) ;
#167 = CIRCLE ( 'NONE', #174, 8.000000000000000000 ) ;
#168 = ADVANCED_FACE ( 'NONE', ( #236 ), #359, .T. ) ;
#169 = CIRCLE ( 'NONE', #160, 8.000000000000000000 ) ;
#170 = SURFACE_SIDE_STYLE ('',( #2 ) ) ;
#171 = VECTOR ( 'NONE', #192, 1000.000000000000000 ) ;
#172 = CARTESIAN_POINT ( 'NONE',  ( 0.000000000000000000, 0.000000000000000000, 0.000000000000000000 ) ) ;
#173 = APPLICATION_PROTOCOL_DEFINITION ( 'draft international standard', 'automotive_design', 1998, #244 ) ;
#174 = AXIS2_PLACEMENT_3D ( 'NONE', #286, #34, #291 ) ;
#175 = PRESENTATION_STYLE_ASSIGNMENT (( #330 ) ) ;
#176 = AXIS2_PLACEMENT_3D ( 'NONE', #81, #193, #343 ) ;
#177 = APPLICATION_PROTOCOL_DEFINITION ( 'draft international standard', 'automotive_design', 1998, #230 ) ;
#178 = FACE_OUTER_BOUND ( 'NONE', #222, .T. ) ;
#179 = ADVANCED_FACE ( 'NONE', ( #87 ), #122, .T. ) ;
#180 = FACE_OUTER_BOUND ( 'NONE', #317, .T. ) ;
#181 = MECHANICAL_DESIGN_GEOMETRIC_PRESENTATION_REPRESENTATION (  '', ( #241 ), #189 ) ;
#182 = CARTESIAN_POINT ( 'NONE',  ( -1.714505518806293849E-15, 89.00000000000000000, 0.000000000000000000 ) ) ;
#183 = ORIENTED_EDGE ( 'NONE', *, *, #20, .F. ) ;
#184 = ORIENTED_EDGE ( 'NONE', *, *, #265, .F. ) ;
#185 = UNCERTAINTY_MEASURE_WITH_UNIT (LENGTH_MEASURE( 1.000000000000000082E-05 ), #46, 'distance_accuracy_value', 'NONE');
#186 =( NAMED_UNIT ( * ) PLANE_ANGLE_UNIT ( ) SI_UNIT ( $, .RADIAN. ) );
#187 = CYLINDRICAL_SURFACE ( 'NONE', #104, 7.999999999999998224 ) ;
#188 = SURFACE_SIDE_STYLE ('',( #113 ) ) ;
#189 =( GEOMETRIC_REPRESENTATION_CONTEXT ( 3 ) GLOBAL_UNCERTAINTY_ASSIGNED_CONTEXT ( ( #52 ) ) GLOBAL_UNIT_ASSIGNED_CONTEXT ( ( #276, #186, #27 ) ) REPRESENTATION_CONTEXT ( 'NONE', 'WORKASPACE' ) );
#190 = EDGE_LOOP ( 'NONE', ( #366, #110, #315, #58 ) ) ;
#191 = CARTESIAN_POINT ( 'NONE',  ( 9.797174393178825657E-16, 32.00000000000000000, 8.000000000000000000 ) ) ;
#192 = DIRECTION ( 'NONE',  ( -0.000000000000000000, -1.000000000000000000, -0.000000000000000000 ) ) ;
#193 = DIRECTION ( 'NONE',  ( -1.213802797673107944E-16, 1.000000000000000000, -0.000000000000000000 ) ) ;
#194 = LINE ( 'NONE', #198, #94 ) ;
#195 = EDGE_CURVE ( 'NONE', #132, #246, #167, .T. ) ;
#196 =( GEOMETRIC_REPRESENTATION_CONTEXT ( 3 ) GLOBAL_UNCERTAINTY_ASSIGNED_CONTEXT ( ( #185 ) ) GLOBAL_UNIT_ASSIGNED_CONTEXT ( ( #46, #308, #215 ) ) REPRESENTATION_CONTEXT ( 'NONE', 'WORKASPACE' ) );
#197 = FILL_AREA_STYLE ('',( #297 ) ) ;
#198 = CARTESIAN_POINT ( 'NONE',  ( -8.000000000000000000, 89.00000000000000000, 0.000000000000000000 ) ) ;
#199 = FILL_AREA_STYLE_COLOUR ( '', #5 ) ;
#200 = DIRECTION ( 'NONE',  ( -1.213802797673107944E-16, 1.000000000000000000, -0.000000000000000000 ) ) ;
#201 =( NAMED_UNIT ( * ) PLANE_ANGLE_UNIT ( ) SI_UNIT ( $, .RADIAN. ) );
#202 =( NAMED_UNIT ( * ) SI_UNIT ( $, .STERADIAN. ) SOLID_ANGLE_UNIT ( ) );
#203 = COLOUR_RGB ( '',1.000000000000000000, 0.000000000000000000, 0.000000000000000000 ) ;
#204 = FILL_AREA_STYLE_COLOUR ( '', #278 ) ;
#205 = EDGE_CURVE ( 'NONE', #79, #54, #194, .T. ) ;
#206 = CARTESIAN_POINT ( 'NONE',  ( 0.000000000000000000, 1.000000000000000000, 0.000000000000000000 ) ) ;
#207 = EDGE_CURVE ( 'NONE', #132, #162, #263, .T. ) ;
#208 =( LENGTH_UNIT ( ) NAMED_UNIT ( * ) SI_UNIT ( .MILLI., .METRE. ) );
#209 = AXIS2_PLACEMENT_3D ( 'NONE', #50, #245, #332 ) ;
#210 = PLANE ( 'NONE',  #209 ) ;
#211 = CARTESIAN_POINT ( 'NONE',  ( 0.000000000000000000, 0.000000000000000000, 0.000000000000000000 ) ) ;
#212 = EDGE_LOOP ( 'NONE', ( #342, #340, #22, #281 ) ) ;
#213 = CARTESIAN_POINT ( 'NONE',  ( 9.184850993605147944E-16, 0.000000000000000000, 7.000000000000000000 ) ) ;
#214 = ORIENTED_EDGE ( 'NONE', *, *, #207, .F. ) ;
#215 =( NAMED_UNIT ( * ) SI_UNIT ( $, .STERADIAN. ) SOLID_ANGLE_UNIT ( ) );
#216 = ORIENTED_EDGE ( 'NONE', *, *, #271, .F. ) ;
#217 = CARTESIAN_POINT ( 'NONE',  ( 0.000000000000000000, 1.000000000000000000, 0.000000000000000000 ) ) ;
#218 = EDGE_LOOP ( 'NONE', ( #130, #158, #344, #183 ) ) ;
#219 = PRODUCT_RELATED_PRODUCT_CATEGORY ( 'part', '', ( #108 ) ) ;
#220 = DIRECTION ( 'NONE',  ( -1.000000000000000000, 0.000000000000000000, 0.000000000000000000 ) ) ;
#221 = COLOUR_RGB ( '',1.000000000000000000, 0.000000000000000000, 0.000000000000000000 ) ;
#222 = EDGE_LOOP ( 'NONE', ( #216, #284 ) ) ;
#223 = DIRECTION ( 'NONE',  ( 0.000000000000000000, 0.000000000000000000, -1.000000000000000000 ) ) ;
#224 = MECHANICAL_DESIGN_GEOMETRIC_PRESENTATION_REPRESENTATION (  '', ( #47 ), #231 ) ;
#225 = DIRECTION ( 'NONE',  ( -1.213802797673107944E-16, 1.000000000000000000, -0.000000000000000000 ) ) ;
#226 = DIRECTION ( 'NONE',  ( -1.000000000000000000, -1.213802797673107944E-16, 0.000000000000000000 ) ) ;
#227 = CARTESIAN_POINT ( 'NONE',  ( 8.000000000000000000, 89.00000000000000000, 9.797174393178825657E-16 ) ) ;
#228 = PRESENTATION_STYLE_ASSIGNMENT (( #118 ) ) ;
#229 =( NAMED_UNIT ( * ) PLANE_ANGLE_UNIT ( ) SI_UNIT ( $, .RADIAN. ) );
#230 = APPLICATION_CONTEXT ( 'automotive_design' ) ;
#231 =( GEOMETRIC_REPRESENTATION_CONTEXT ( 3 ) GLOBAL_UNCERTAINTY_ASSIGNED_CONTEXT ( ( #279 ) ) GLOBAL_UNIT_ASSIGNED_CONTEXT ( ( #289, #114, #347 ) ) REPRESENTATION_CONTEXT ( 'NONE', 'WORKASPACE' ) );
#232 = CARTESIAN_POINT ( 'NONE',  ( 0.000000000000000000, 32.00000000000000000, -8.000000000000000000 ) ) ;
#233 = PRODUCT_DEFINITION ( 'UNKNOWN', '', #80, #285 ) ;
#234 = CARTESIAN_POINT ( 'NONE',  ( 0.000000000000000000, 0.000000000000000000, 0.000000000000000000 ) ) ;
#235 = AXIS2_PLACEMENT_3D ( 'NONE', #97, #72, #21 ) ;
#236 = FACE_OUTER_BOUND ( 'NONE', #13, .T. ) ;
#237 = AXIS2_PLACEMENT_3D ( 'NONE', #144, #261, #4 ) ;
#238 = SURFACE_STYLE_USAGE ( .BOTH. , #123 ) ;
#239 = DIRECTION ( 'NONE',  ( -1.000000000000000000, 0.000000000000000000, 0.000000000000000000 ) ) ;
#240 = ORIENTED_EDGE ( 'NONE', *, *, #11, .F. ) ;
#241 = STYLED_ITEM ( 'NONE', ( #280 ), #168 ) ;
#242 = DIRECTION ( 'NONE',  ( 0.000000000000000000, 0.000000000000000000, -1.000000000000000000 ) ) ;
#243 = LINE ( 'NONE', #83, #171 ) ;
#244 = APPLICATION_CONTEXT ( 'automotive_design' ) ;
#245 = DIRECTION ( 'NONE',  ( 1.213802797673107944E-16, -1.000000000000000000, 0.000000000000000000 ) ) ;
#246 = VERTEX_POINT ( 'NONE', #32 ) ;
#247 = CARTESIAN_POINT ( 'NONE',  ( -1.714505518806293652E-15, 89.00000000000000000, 0.000000000000000000 ) ) ;
#248 = ORIENTED_EDGE ( 'NONE', *, *, #3, .T. ) ;
#249 = PRESENTATION_LAYER_ASSIGNMENT (  '', '', ( #295 ) ) ;
#250 = DIRECTION ( 'NONE',  ( 0.000000000000000000, 0.000000000000000000, 1.000000000000000000 ) ) ;
#251 = CYLINDRICAL_SURFACE ( 'NONE', #41, 8.000000000000000000 ) ;
#252 = CIRCLE ( 'NONE', #77, 7.999999999999994671 ) ;
#253 = PRESENTATION_STYLE_ASSIGNMENT (( #319 ) ) ;
#254 = SURFACE_STYLE_FILL_AREA ( #197 ) ;
#255 = CARTESIAN_POINT ( 'NONE',  ( -8.000000000000003553, 89.00000000000000000, 0.000000000000000000 ) ) ;
#256 = PRESENTATION_LAYER_ASSIGNMENT (  '', '', ( #241 ) ) ;
#257 = TOROIDAL_SURFACE ( 'NONE', #68, 7.000000000000000000, 1.000000000000000000 ) ;
#258 = DIRECTION ( 'NONE',  ( -1.000000000000000000, 0.000000000000000000, 0.000000000000000000 ) ) ;
#259 = STYLED_ITEM ( 'NONE', ( #24 ), #16 ) ;
#260 =( GEOMETRIC_REPRESENTATION_CONTEXT ( 3 ) GLOBAL_UNCERTAINTY_ASSIGNED_CONTEXT ( ( #318 ) ) GLOBAL_UNIT_ASSIGNED_CONTEXT ( ( #92, #201, #290 ) ) REPRESENTATION_CONTEXT ( 'NONE', 'WORKASPACE' ) );
#261 = DIRECTION ( 'NONE',  ( -1.213802797673107944E-16, 1.000000000000000000, -0.000000000000000000 ) ) ;
#262 = DIRECTION ( 'NONE',  ( 0.000000000000000000, 0.000000000000000000, -1.000000000000000000 ) ) ;
#263 = CIRCLE ( 'NONE', #151, 1.000000000000000000 ) ;
#264 = ORIENTED_EDGE ( 'NONE', *, *, #271, .T. ) ;
#265 = EDGE_CURVE ( 'NONE', #54, #333, #268, .T. ) ;
#266 = DIRECTION ( 'NONE',  ( -0.000000000000000000, -1.000000000000000000, -0.000000000000000000 ) ) ;
#267 =( NAMED_UNIT ( * ) PLANE_ANGLE_UNIT ( ) SI_UNIT ( $, .RADIAN. ) );
#268 = CIRCLE ( 'NONE', #368, 8.000000000000001776 ) ;
#269 = AXIS2_PLACEMENT_3D ( 'NONE', #10, #119, #65 ) ;
#270 = FILL_AREA_STYLE ('',( #153 ) ) ;
#271 = EDGE_CURVE ( 'NONE', #79, #272, #39, .T. ) ;
#272 = VERTEX_POINT ( 'NONE', #84 ) ;
#273 = CARTESIAN_POINT ( 'NONE',  ( 0.000000000000000000, 0.000000000000000000, -8.000000000000000000 ) ) ;
#274 = DIRECTION ( 'NONE',  ( -1.000000000000000000, 0.000000000000000000, 0.000000000000000000 ) ) ;
#275 = ADVANCED_FACE ( 'NONE', ( #341 ), #257, .T. ) ;
#276 =( LENGTH_UNIT ( ) NAMED_UNIT ( * ) SI_UNIT ( .MILLI., .METRE. ) );
#277 = FILL_AREA_STYLE_COLOUR ( '', #44 ) ;
#278 = COLOUR_RGB ( '',0.7921568627450980005, 0.8196078431372548767, 0.9333333333333333481 ) ;
#279 = UNCERTAINTY_MEASURE_WITH_UNIT (LENGTH_MEASURE( 1.000000000000000082E-05 ), #289, 'distance_accuracy_value', 'NONE');
#280 = PRESENTATION_STYLE_ASSIGNMENT (( #238 ) ) ;
#281 = ORIENTED_EDGE ( 'NONE', *, *, #312, .F. ) ;
#282 =( GEOMETRIC_REPRESENTATION_CONTEXT ( 3 ) GLOBAL_UNCERTAINTY_ASSIGNED_CONTEXT ( ( #71 ) ) GLOBAL_UNIT_ASSIGNED_CONTEXT ( ( #161, #346, #356 ) ) REPRESENTATION_CONTEXT ( 'NONE', 'WORKASPACE' ) );
#283 =( LENGTH_UNIT ( ) NAMED_UNIT ( * ) SI_UNIT ( .MILLI., .METRE. ) );
#284 = ORIENTED_EDGE ( 'NONE', *, *, #36, .F. ) ;
#285 = PRODUCT_DEFINITION_CONTEXT ( 'detailed design', #230, 'design' ) ;
#286 = CARTESIAN_POINT ( 'NONE',  ( 0.000000000000000000, 1.000000000000000000, 0.000000000000000000 ) ) ;
#287 = DIRECTION ( 'NONE',  ( -1.213802797673107944E-16, 1.000000000000000000, -0.000000000000000000 ) ) ;
#288 = MANIFOLD_SOLID_BREP ( 'Revolve - Tool Body (Straight Shanked)', #304 ) ;
#289 =( LENGTH_UNIT ( ) NAMED_UNIT ( * ) SI_UNIT ( .MILLI., .METRE. ) );
#290 =( NAMED_UNIT ( * ) SI_UNIT ( $, .STERADIAN. ) SOLID_ANGLE_UNIT ( ) );
#291 = DIRECTION ( 'NONE',  ( 0.000000000000000000, 0.000000000000000000, -1.000000000000000000 ) ) ;
#292 = SURFACE_STYLE_FILL_AREA ( #324 ) ;
#293 = DIRECTION ( 'NONE',  ( 0.000000000000000000, 0.000000000000000000, 1.000000000000000000 ) ) ;
#294 = EDGE_CURVE ( 'NONE', #272, #333, #303, .T. ) ;
#295 = STYLED_ITEM ( 'NONE', ( #228 ), #85 ) ;
#296 = CIRCLE ( 'NONE', #143, 7.000000000000000000 ) ;
#297 = FILL_AREA_STYLE_COLOUR ( '', #82 ) ;
#298 = STYLED_ITEM ( 'NONE', ( #138 ), #23 ) ;
#299 = SURFACE_STYLE_FILL_AREA ( #6 ) ;
#300 = DIRECTION ( 'NONE',  ( -0.000000000000000000, -1.000000000000000000, -0.000000000000000000 ) ) ;
#301 = AXIS2_PLACEMENT_3D ( 'NONE', #211, #305, #242 ) ;
#302 = VERTEX_POINT ( 'NONE', #191 ) ;
#303 = LINE ( 'NONE', #15, #321 ) ;
#304 = CLOSED_SHELL ( 'NONE', ( #126, #56, #9, #99 ) ) ;
#305 = DIRECTION ( 'NONE',  ( 0.000000000000000000, -1.000000000000000000, -0.000000000000000000 ) ) ;
#306 = DIRECTION ( 'NONE',  ( -0.000000000000000000, -1.000000000000000000, -0.000000000000000000 ) ) ;
#307 = AXIS2_PLACEMENT_3D ( 'NONE', #182, #53, #239 ) ;
#308 =( NAMED_UNIT ( * ) PLANE_ANGLE_UNIT ( ) SI_UNIT ( $, .RADIAN. ) );
#309 = EDGE_LOOP ( 'NONE', ( #28, #248, #135, #106 ) ) ;
#310 =( NAMED_UNIT ( * ) SI_UNIT ( $, .STERADIAN. ) SOLID_ANGLE_UNIT ( ) );
#311 = VERTEX_POINT ( 'NONE', #232 ) ;
#312 = EDGE_CURVE ( 'NONE', #101, #162, #369, .T. ) ;
#313 = PRESENTATION_LAYER_ASSIGNMENT (  '', '', ( #363 ) ) ;
#314 = CIRCLE ( 'NONE', #237, 8.000000000000001776 ) ;
#315 = ORIENTED_EDGE ( 'NONE', *, *, #136, .T. ) ;
#316 = PRESENTATION_STYLE_ASSIGNMENT (( #140 ) ) ;
#317 = EDGE_LOOP ( 'NONE', ( #264, #164, #184, #147 ) ) ;
#318 = UNCERTAINTY_MEASURE_WITH_UNIT (LENGTH_MEASURE( 1.000000000000000082E-05 ), #92, 'distance_accuracy_value', 'NONE');
#319 = SURFACE_STYLE_USAGE ( .BOTH. , #170 ) ;
#320 = DIRECTION ( 'NONE',  ( -0.000000000000000000, -1.000000000000000000, -0.000000000000000000 ) ) ;
#321 = VECTOR ( 'NONE', #200, 1000.000000000000000 ) ;
#322 = CYLINDRICAL_SURFACE ( 'NONE', #29, 8.000000000000000000 ) ;
#323 = DIRECTION ( 'NONE',  ( -0.000000000000000000, -1.000000000000000000, -0.000000000000000000 ) ) ;
#324 = FILL_AREA_STYLE ('',( #199 ) ) ;
#325 = CARTESIAN_POINT ( 'NONE',  ( 0.000000000000000000, 0.000000000000000000, 0.000000000000000000 ) ) ;
#326 = DIRECTION ( 'NONE',  ( 0.000000000000000000, 0.000000000000000000, -1.000000000000000000 ) ) ;
#327 = CARTESIAN_POINT ( 'NONE',  ( 0.000000000000000000, 0.000000000000000000, 0.000000000000000000 ) ) ;
#328 = CIRCLE ( 'NONE', #142, 1.000000000000000000 ) ;
#329 = AXIS2_PLACEMENT_3D ( 'NONE', #125, #364, #223 ) ;
#330 = SURFACE_STYLE_USAGE ( .BOTH. , #145 ) ;
#331 = SURFACE_SIDE_STYLE ('',( #98 ) ) ;
#332 = DIRECTION ( 'NONE',  ( 1.000000000000000000, 1.213802797673107944E-16, 0.000000000000000000 ) ) ;
#333 = VERTEX_POINT ( 'NONE', #227 ) ;
#334 =( GEOMETRIC_REPRESENTATION_CONTEXT ( 3 ) GLOBAL_UNCERTAINTY_ASSIGNED_CONTEXT ( ( #45 ) ) GLOBAL_UNIT_ASSIGNED_CONTEXT ( ( #283, #111, #30 ) ) REPRESENTATION_CONTEXT ( 'NONE', 'WORKASPACE' ) );
#335 = FILL_AREA_STYLE ('',( #100 ) ) ;
#336 = EDGE_CURVE ( 'NONE', #246, #132, #169, .T. ) ;
#337 = ORIENTED_EDGE ( 'NONE', *, *, #20, .T. ) ;
#338 = SURFACE_STYLE_FILL_AREA ( #270 ) ;
#339 = DIRECTION ( 'NONE',  ( 0.000000000000000000, -0.000000000000000000, 1.000000000000000000 ) ) ;
#340 = ORIENTED_EDGE ( 'NONE', *, *, #336, .T. ) ;
#341 = FACE_OUTER_BOUND ( 'NONE', #362, .T. ) ;
#342 = ORIENTED_EDGE ( 'NONE', *, *, #163, .F. ) ;
#343 = DIRECTION ( 'NONE',  ( -1.000000000000000000, 0.000000000000000000, 0.000000000000000000 ) ) ;
#344 = ORIENTED_EDGE ( 'NONE', *, *, #205, .T. ) ;
#345 = DIRECTION ( 'NONE',  ( -1.213802797673107944E-16, 1.000000000000000000, -0.000000000000000000 ) ) ;
#346 =( NAMED_UNIT ( * ) PLANE_ANGLE_UNIT ( ) SI_UNIT ( $, .RADIAN. ) );
#347 =( NAMED_UNIT ( * ) SI_UNIT ( $, .STERADIAN. ) SOLID_ANGLE_UNIT ( ) );
#348 = MECHANICAL_DESIGN_GEOMETRIC_PRESENTATION_REPRESENTATION (  '', ( #128 ), #334 ) ;
#349 = SURFACE_STYLE_USAGE ( .BOTH. , #35 ) ;
#350 = MECHANICAL_DESIGN_GEOMETRIC_PRESENTATION_REPRESENTATION (  '', ( #259 ), #282 ) ;
#351 = PRODUCT_CONTEXT ( 'NONE', #244, 'mechanical' ) ;
#352 = PLANE ( 'NONE',  #301 ) ;
#353 = EDGE_CURVE ( 'NONE', #162, #101, #296, .T. ) ;
#354 = CARTESIAN_POINT ( 'NONE',  ( 0.000000000000000000, 1.000000000000000000, 0.000000000000000000 ) ) ;
#355 =( NAMED_UNIT ( * ) PLANE_ANGLE_UNIT ( ) SI_UNIT ( $, .RADIAN. ) );
#356 =( NAMED_UNIT ( * ) SI_UNIT ( $, .STERADIAN. ) SOLID_ANGLE_UNIT ( ) );
#357 = CIRCLE ( 'NONE', #235, 8.000000000000000000 ) ;
#358 = UNCERTAINTY_MEASURE_WITH_UNIT (LENGTH_MEASURE( 1.000000000000000082E-05 ), #95, 'distance_accuracy_value', 'NONE');
#359 = PLANE ( 'NONE',  #55 ) ;
#360 = PRESENTATION_STYLE_ASSIGNMENT (( #73 ) ) ;
#361 = LINE ( 'NONE', #273, #148 ) ;
#362 = EDGE_LOOP ( 'NONE', ( #31, #112, #43, #214 ) ) ;
#363 = STYLED_ITEM ( 'NONE', ( #360 ), #156 ) ;
#364 = DIRECTION ( 'NONE',  ( -0.000000000000000000, -1.000000000000000000, -0.000000000000000000 ) ) ;
#365 = DIRECTION ( 'NONE',  ( -1.213802797673107944E-16, 1.000000000000000000, -0.000000000000000000 ) ) ;
#366 = ORIENTED_EDGE ( 'NONE', *, *, #3, .F. ) ;
#367 = ORIENTED_EDGE ( 'NONE', *, *, #131, .F. ) ;
#368 = AXIS2_PLACEMENT_3D ( 'NONE', #247, #365, #220 ) ;
#369 = CIRCLE ( 'NONE', #269, 7.000000000000000000 ) ;
#370 = DIRECTION ( 'NONE',  ( 0.000000000000000000, 1.000000000000000000, 0.000000000000000000 ) ) ;
ENDSEC;
END-ISO-10303-21;
