ISO-10303-21;
HEADER;
FILE_DESCRIPTION (( 'STEP AP214' ),
    '1' );
FILE_NAME ('59731.STEP',
    '2023-07-24T15:30:27',
    ( '' ),
    ( '' ),
    'SwSTEP 2.0',
    'SolidWorks 2023',
    '' );
FILE_SCHEMA (( 'AUTOMOTIVE_DESIGN' ));
ENDSEC;

DATA;
#1 = SURFACE_SIDE_STYLE ('',( #261 ) ) ;
#2 = ORIENTED_EDGE ( 'NONE', *, *, #122, .F. ) ;
#3 = DIRECTION ( 'NONE',  ( 0.000000000000000000, 0.000000000000000000, -1.000000000000000000 ) ) ;
#4 = UNCERTAINTY_MEASURE_WITH_UNIT (LENGTH_MEASURE( 1.000000000000000082E-05 ), #346, 'distance_accuracy_value', 'NONE');
#5 = FILL_AREA_STYLE_COLOUR ( '', #314 ) ;
#6 = EDGE_CURVE ( 'NONE', #296, #110, #269, .T. ) ;
#7 = DIRECTION ( 'NONE',  ( 0.000000000000000000, 0.000000000000000000, -1.000000000000000000 ) ) ;
#8 = VECTOR ( 'NONE', #26, 1000.000000000000000 ) ;
#9 = AXIS2_PLACEMENT_3D ( 'NONE', #73, #162, #44 ) ;
#10 = CARTESIAN_POINT ( 'NONE',  ( 3.000000000000000000, 63.00000000000000000, 0.000000000000000000 ) ) ;
#11 = FILL_AREA_STYLE_COLOUR ( '', #145 ) ;
#12 = DIRECTION ( 'NONE',  ( -1.000000000000000000, 0.000000000000000000, 0.000000000000000000 ) ) ;
#13 = EDGE_CURVE ( 'NONE', #55, #50, #131, .T. ) ;
#14 = UNCERTAINTY_MEASURE_WITH_UNIT (LENGTH_MEASURE( 1.000000000000000082E-05 ), #238, 'distance_accuracy_value', 'NONE');
#15 = DIRECTION ( 'NONE',  ( 0.000000000000000000, 0.000000000000000000, -1.000000000000000000 ) ) ;
#16 = DIRECTION ( 'NONE',  ( -0.000000000000000000, -1.000000000000000000, -0.000000000000000000 ) ) ;
#17 = CIRCLE ( 'NONE', #142, 2.000000000000000000 ) ;
#18 = EDGE_CURVE ( 'NONE', #120, #349, #230, .T. ) ;
#19 = DIRECTION ( 'NONE',  ( -1.203932746194552959E-16, 1.000000000000000000, -0.000000000000000000 ) ) ;
#20 = CLOSED_SHELL ( 'NONE', ( #227, #190, #336, #203, #254, #105 ) ) ;
#21 = AXIS2_PLACEMENT_3D ( 'NONE', #312, #307, #286 ) ;
#22 = COLOUR_RGB ( '',0.7921568627450980005, 0.8196078431372548767, 0.9333333333333333481 ) ;
#23 = PRODUCT_RELATED_PRODUCT_CATEGORY ( 'part', '', ( #338 ) ) ;
#24 =( NAMED_UNIT ( * ) SI_UNIT ( $, .STERADIAN. ) SOLID_ANGLE_UNIT ( ) );
#25 = STYLED_ITEM ( 'NONE', ( #54 ), #203 ) ;
#26 = DIRECTION ( 'NONE',  ( -1.203932746194552959E-16, 1.000000000000000000, -0.000000000000000000 ) ) ;
#27 = EDGE_CURVE ( 'NONE', #343, #349, #144, .T. ) ;
#28 = ORIENTED_EDGE ( 'NONE', *, *, #369, .F. ) ;
#29 = ORIENTED_EDGE ( 'NONE', *, *, #239, .F. ) ;
#30 =( GEOMETRIC_REPRESENTATION_CONTEXT ( 3 ) GLOBAL_UNCERTAINTY_ASSIGNED_CONTEXT ( ( #14 ) ) GLOBAL_UNIT_ASSIGNED_CONTEXT ( ( #238, #32, #183 ) ) REPRESENTATION_CONTEXT ( 'NONE', 'WORKASPACE' ) );
#31 = ORIENTED_EDGE ( 'NONE', *, *, #68, .F. ) ;
#32 =( NAMED_UNIT ( * ) PLANE_ANGLE_UNIT ( ) SI_UNIT ( $, .RADIAN. ) );
#33 = DIRECTION ( 'NONE',  ( 1.000000000000000000, 1.203932746194552959E-16, 0.000000000000000000 ) ) ;
#34 = ORIENTED_EDGE ( 'NONE', *, *, #68, .T. ) ;
#35 = DIRECTION ( 'NONE',  ( -0.000000000000000000, -1.000000000000000000, -0.000000000000000000 ) ) ;
#36 = CARTESIAN_POINT ( 'NONE',  ( 3.673940397442059375E-16, 1.000000000000000000, 3.000000000000000000 ) ) ;
#37 = STYLED_ITEM ( 'NONE', ( #287 ), #254 ) ;
#38 = FILL_AREA_STYLE ('',( #193 ) ) ;
#39 = FILL_AREA_STYLE ('',( #153 ) ) ;
#40 = CARTESIAN_POINT ( 'NONE',  ( 3.184081677783117402E-15, 63.00000000000000000, 0.000000000000000000 ) ) ;
#41 =( LENGTH_UNIT ( ) NAMED_UNIT ( * ) SI_UNIT ( .MILLI., .METRE. ) );
#42 =( LENGTH_UNIT ( ) NAMED_UNIT ( * ) SI_UNIT ( .MILLI., .METRE. ) );
#43 = UNCERTAINTY_MEASURE_WITH_UNIT (LENGTH_MEASURE( 1.000000000000000082E-05 ), #194, 'distance_accuracy_value', 'NONE');
#44 = DIRECTION ( 'NONE',  ( 0.000000000000000000, 0.000000000000000000, 1.000000000000000000 ) ) ;
#45 = CARTESIAN_POINT ( 'NONE',  ( 0.000000000000000000, 12.00000000000000000, 0.000000000000000000 ) ) ;
#46 = AXIS2_PLACEMENT_3D ( 'NONE', #45, #361, #330 ) ;
#47 = AXIS2_PLACEMENT_3D ( 'NONE', #75, #247, #12 ) ;
#48 = SURFACE_SIDE_STYLE ('',( #363 ) ) ;
#49 = LINE ( 'NONE', #158, #257 ) ;
#50 = VERTEX_POINT ( 'NONE', #209 ) ;
#51 = AXIS2_PLACEMENT_3D ( 'NONE', #78, #192, #166 ) ;
#52 = FILL_AREA_STYLE ('',( #5 ) ) ;
#53 = PRESENTATION_LAYER_ASSIGNMENT (  '', '', ( #265 ) ) ;
#54 = PRESENTATION_STYLE_ASSIGNMENT (( #339 ) ) ;
#55 = VERTEX_POINT ( 'NONE', #149 ) ;
#56 =( NAMED_UNIT ( * ) PLANE_ANGLE_UNIT ( ) SI_UNIT ( $, .RADIAN. ) );
#57 = DIRECTION ( 'NONE',  ( -0.000000000000000000, -1.000000000000000000, -0.000000000000000000 ) ) ;
#58 = SURFACE_STYLE_USAGE ( .BOTH. , #89 ) ;
#59 = DIRECTION ( 'NONE',  ( -1.203932746194552959E-16, 1.000000000000000000, -0.000000000000000000 ) ) ;
#60 =( NAMED_UNIT ( * ) SI_UNIT ( $, .STERADIAN. ) SOLID_ANGLE_UNIT ( ) );
#61 = VECTOR ( 'NONE', #289, 1000.000000000000000 ) ;
#62 = PRESENTATION_LAYER_ASSIGNMENT (  '', '', ( #123 ) ) ;
#63 = MECHANICAL_DESIGN_GEOMETRIC_PRESENTATION_REPRESENTATION (  '', ( #288 ), #93 ) ;
#64 = ORIENTED_EDGE ( 'NONE', *, *, #27, .T. ) ;
#65 = STYLED_ITEM ( 'NONE', ( #150 ), #325 ) ;
#66 = UNCERTAINTY_MEASURE_WITH_UNIT (LENGTH_MEASURE( 1.000000000000000082E-05 ), #76, 'distance_accuracy_value', 'NONE');
#67 = ORIENTED_EDGE ( 'NONE', *, *, #122, .T. ) ;
#68 = EDGE_CURVE ( 'NONE', #349, #343, #86, .T. ) ;
#69 = LINE ( 'NONE', #368, #8 ) ;
#70 = UNCERTAINTY_MEASURE_WITH_UNIT (LENGTH_MEASURE( 1.000000000000000082E-05 ), #160, 'distance_accuracy_value', 'NONE');
#71 = SURFACE_SIDE_STYLE ('',( #248 ) ) ;
#72 =( GEOMETRIC_REPRESENTATION_CONTEXT ( 3 ) GLOBAL_UNCERTAINTY_ASSIGNED_CONTEXT ( ( #155 ) ) GLOBAL_UNIT_ASSIGNED_CONTEXT ( ( #125, #154, #60 ) ) REPRESENTATION_CONTEXT ( 'NONE', 'WORKASPACE' ) );
#73 = CARTESIAN_POINT ( 'NONE',  ( 0.000000000000000000, 1.000000000000000000, -2.000000000000000000 ) ) ;
#74 = PRESENTATION_STYLE_ASSIGNMENT (( #217 ) ) ;
#75 = CARTESIAN_POINT ( 'NONE',  ( 9.324138683375338132E-15, 11.99999999999999645, 0.000000000000000000 ) ) ;
#76 =( LENGTH_UNIT ( ) NAMED_UNIT ( * ) SI_UNIT ( .MILLI., .METRE. ) );
#77 =( NAMED_UNIT ( * ) SI_UNIT ( $, .STERADIAN. ) SOLID_ANGLE_UNIT ( ) );
#78 = CARTESIAN_POINT ( 'NONE',  ( 0.000000000000000000, 12.00000000000000000, 0.000000000000000000 ) ) ;
#79 = ORIENTED_EDGE ( 'NONE', *, *, #350, .F. ) ;
#80 = EDGE_CURVE ( 'NONE', #214, #110, #206, .T. ) ;
#81 = ORIENTED_EDGE ( 'NONE', *, *, #258, .F. ) ;
#82 = CARTESIAN_POINT ( 'NONE',  ( 0.000000000000000000, 0.000000000000000000, 0.000000000000000000 ) ) ;
#83 = ORIENTED_EDGE ( 'NONE', *, *, #341, .T. ) ;
#84 = FILL_AREA_STYLE_COLOUR ( '', #133 ) ;
#85 = DIRECTION ( 'NONE',  ( -1.000000000000000000, 0.000000000000000000, 0.000000000000000000 ) ) ;
#86 = CIRCLE ( 'NONE', #342, 2.999999999999996891 ) ;
#87 = PRESENTATION_LAYER_ASSIGNMENT (  '', '', ( #288 ) ) ;
#88 = CARTESIAN_POINT ( 'NONE',  ( 0.000000000000000000, 0.000000000000000000, 0.000000000000000000 ) ) ;
#89 = SURFACE_SIDE_STYLE ('',( #96 ) ) ;
#90 = PRODUCT_DEFINITION ( 'UNKNOWN', '', #225, #370 ) ;
#91 = CARTESIAN_POINT ( 'NONE',  ( 3.673940397442059868E-16, 0.000000000000000000, 3.000000000000000000 ) ) ;
#92 = PRESENTATION_LAYER_ASSIGNMENT (  '', '', ( #328 ) ) ;
#93 =( GEOMETRIC_REPRESENTATION_CONTEXT ( 3 ) GLOBAL_UNCERTAINTY_ASSIGNED_CONTEXT ( ( #234 ) ) GLOBAL_UNIT_ASSIGNED_CONTEXT ( ( #42, #223, #278 ) ) REPRESENTATION_CONTEXT ( 'NONE', 'WORKASPACE' ) );
#94 = SURFACE_STYLE_USAGE ( .BOTH. , #1 ) ;
#95 = EDGE_LOOP ( 'NONE', ( #147, #83, #148, #117 ) ) ;
#96 = SURFACE_STYLE_FILL_AREA ( #39 ) ;
#97 = DIRECTION ( 'NONE',  ( -1.000000000000000000, 0.000000000000000000, 0.000000000000000000 ) ) ;
#98 = SURFACE_SIDE_STYLE ('',( #354 ) ) ;
#99 = DIRECTION ( 'NONE',  ( -1.224646799147353207E-16, 0.000000000000000000, -1.000000000000000000 ) ) ;
#100 = DIRECTION ( 'NONE',  ( 0.000000000000000000, 0.000000000000000000, -1.000000000000000000 ) ) ;
#101 =( GEOMETRIC_REPRESENTATION_CONTEXT ( 3 ) GLOBAL_UNCERTAINTY_ASSIGNED_CONTEXT ( ( #70 ) ) GLOBAL_UNIT_ASSIGNED_CONTEXT ( ( #160, #220, #256 ) ) REPRESENTATION_CONTEXT ( 'NONE', 'WORKASPACE' ) );
#102 =( LENGTH_UNIT ( ) NAMED_UNIT ( * ) SI_UNIT ( .MILLI., .METRE. ) );
#103 = MECHANICAL_DESIGN_GEOMETRIC_PRESENTATION_REPRESENTATION (  '', ( #259 ), #72 ) ;
#104 = FACE_OUTER_BOUND ( 'NONE', #264, .T. ) ;
#105 = ADVANCED_FACE ( 'NONE', ( #216 ), #188, .T. ) ;
#106 =( NAMED_UNIT ( * ) SI_UNIT ( $, .STERADIAN. ) SOLID_ANGLE_UNIT ( ) );
#107 =( NAMED_UNIT ( * ) PLANE_ANGLE_UNIT ( ) SI_UNIT ( $, .RADIAN. ) );
#108 = AXIS2_PLACEMENT_3D ( 'NONE', #139, #250, #3 ) ;
#109 = DIRECTION ( 'NONE',  ( 0.000000000000000000, 0.000000000000000000, 1.000000000000000000 ) ) ;
#110 = VERTEX_POINT ( 'NONE', #36 ) ;
#111 = ORIENTED_EDGE ( 'NONE', *, *, #143, .F. ) ;
#112 =( GEOMETRIC_REPRESENTATION_CONTEXT ( 3 ) GLOBAL_UNCERTAINTY_ASSIGNED_CONTEXT ( ( #4 ) ) GLOBAL_UNIT_ASSIGNED_CONTEXT ( ( #346, #56, #106 ) ) REPRESENTATION_CONTEXT ( 'NONE', 'WORKASPACE' ) );
#113 = AXIS2_PLACEMENT_3D ( 'NONE', #138, #109, #249 ) ;
#114 = EDGE_CURVE ( 'NONE', #205, #296, #212, .T. ) ;
#115 = FACE_OUTER_BOUND ( 'NONE', #262, .T. ) ;
#116 = ORIENTED_EDGE ( 'NONE', *, *, #13, .T. ) ;
#117 = ORIENTED_EDGE ( 'NONE', *, *, #27, .F. ) ;
#118 = MECHANICAL_DESIGN_GEOMETRIC_PRESENTATION_REPRESENTATION (  '', ( #265 ), #101 ) ;
#119 = AXIS2_PLACEMENT_3D ( 'NONE', #127, #164, #99 ) ;
#120 = VERTEX_POINT ( 'NONE', #282 ) ;
#121 = EDGE_LOOP ( 'NONE', ( #141, #174, #178, #29 ) ) ;
#122 = EDGE_CURVE ( 'NONE', #120, #268, #184, .T. ) ;
#123 = STYLED_ITEM ( 'NONE', ( #327 ), #227 ) ;
#124 = CARTESIAN_POINT ( 'NONE',  ( 3.673940397442059868E-16, 12.00000000000000000, 3.000000000000000000 ) ) ;
#125 =( LENGTH_UNIT ( ) NAMED_UNIT ( * ) SI_UNIT ( .MILLI., .METRE. ) );
#126 = FILL_AREA_STYLE ('',( #11 ) ) ;
#127 = CARTESIAN_POINT ( 'NONE',  ( 2.449293598294706414E-16, 1.000000000000000000, 2.000000000000000000 ) ) ;
#128 = CYLINDRICAL_SURFACE ( 'NONE', #303, 2.999999999999993783 ) ;
#129 = DIRECTION ( 'NONE',  ( -0.000000000000000000, -1.000000000000000000, -0.000000000000000000 ) ) ;
#130 = PLANE ( 'NONE',  #213 ) ;
#131 = CIRCLE ( 'NONE', #177, 2.000000000000000000 ) ;
#132 = DIRECTION ( 'NONE',  ( -0.000000000000000000, -1.000000000000000000, -0.000000000000000000 ) ) ;
#133 = COLOUR_RGB ( '',1.000000000000000000, 0.000000000000000000, 0.000000000000000000 ) ;
#134 = CARTESIAN_POINT ( 'NONE',  ( 0.000000000000000000, 1.000000000000000000, 0.000000000000000000 ) ) ;
#135 =( NAMED_UNIT ( * ) SI_UNIT ( $, .STERADIAN. ) SOLID_ANGLE_UNIT ( ) );
#136 = CARTESIAN_POINT ( 'NONE',  ( 9.324138683375338132E-15, 11.99999999999999645, 0.000000000000000000 ) ) ;
#137 = FACE_OUTER_BOUND ( 'NONE', #367, .T. ) ;
#138 = CARTESIAN_POINT ( 'NONE',  ( 0.000000000000000000, 0.000000000000000000, 0.000000000000000000 ) ) ;
#139 = CARTESIAN_POINT ( 'NONE',  ( 0.000000000000000000, 1.000000000000000000, 0.000000000000000000 ) ) ;
#140 = CARTESIAN_POINT ( 'NONE',  ( 3.184081677783117402E-15, 63.00000000000000000, 0.000000000000000000 ) ) ;
#141 = ORIENTED_EDGE ( 'NONE', *, *, #6, .F. ) ;
#142 = AXIS2_PLACEMENT_3D ( 'NONE', #276, #132, #304 ) ;
#143 = EDGE_CURVE ( 'NONE', #50, #55, #17, .T. ) ;
#144 = CIRCLE ( 'NONE', #172, 2.999999999999996891 ) ;
#145 = COLOUR_RGB ( '',1.000000000000000000, 0.000000000000000000, 0.000000000000000000 ) ;
#146 = SURFACE_SIDE_STYLE ('',( #204 ) ) ;
#147 = ORIENTED_EDGE ( 'NONE', *, *, #199, .F. ) ;
#148 = ORIENTED_EDGE ( 'NONE', *, *, #18, .T. ) ;
#149 = CARTESIAN_POINT ( 'NONE',  ( 0.000000000000000000, 0.000000000000000000, -2.000000000000000000 ) ) ;
#150 = PRESENTATION_STYLE_ASSIGNMENT (( #58 ) ) ;
#151 = AXIS2_PLACEMENT_3D ( 'NONE', #134, #246, #189 ) ;
#152 = ORIENTED_EDGE ( 'NONE', *, *, #114, .F. ) ;
#153 = FILL_AREA_STYLE_COLOUR ( '', #22 ) ;
#154 =( NAMED_UNIT ( * ) PLANE_ANGLE_UNIT ( ) SI_UNIT ( $, .RADIAN. ) );
#155 = UNCERTAINTY_MEASURE_WITH_UNIT (LENGTH_MEASURE( 1.000000000000000082E-05 ), #125, 'distance_accuracy_value', 'NONE');
#156 = ORIENTED_EDGE ( 'NONE', *, *, #80, .F. ) ;
#157 = FACE_OUTER_BOUND ( 'NONE', #226, .T. ) ;
#158 = CARTESIAN_POINT ( 'NONE',  ( 0.000000000000000000, 0.000000000000000000, -3.000000000000000000 ) ) ;
#159 = SURFACE_STYLE_FILL_AREA ( #38 ) ;
#160 =( LENGTH_UNIT ( ) NAMED_UNIT ( * ) SI_UNIT ( .MILLI., .METRE. ) );
#161 = EDGE_CURVE ( 'NONE', #205, #214, #49, .T. ) ;
#162 = DIRECTION ( 'NONE',  ( -1.000000000000000000, 0.000000000000000000, 0.000000000000000000 ) ) ;
#163 = DIRECTION ( 'NONE',  ( -1.203932746194552959E-16, 1.000000000000000000, -0.000000000000000000 ) ) ;
#164 = DIRECTION ( 'NONE',  ( 1.000000000000000000, 0.000000000000000000, -1.224646799147353207E-16 ) ) ;
#165 = MECHANICAL_DESIGN_GEOMETRIC_PRESENTATION_REPRESENTATION (  '', ( #328 ), #366 ) ;
#166 = DIRECTION ( 'NONE',  ( 0.000000000000000000, -0.000000000000000000, 1.000000000000000000 ) ) ;
#167 =( NAMED_UNIT ( * ) PLANE_ANGLE_UNIT ( ) SI_UNIT ( $, .RADIAN. ) );
#168 = FILL_AREA_STYLE ('',( #301 ) ) ;
#169 = FACE_OUTER_BOUND ( 'NONE', #95, .T. ) ;
#170 = CARTESIAN_POINT ( 'NONE',  ( 0.000000000000000000, 0.000000000000000000, 0.000000000000000000 ) ) ;
#171 = AXIS2_PLACEMENT_3D ( 'NONE', #136, #224, #334 ) ;
#172 = AXIS2_PLACEMENT_3D ( 'NONE', #340, #59, #85 ) ;
#173 = ORIENTED_EDGE ( 'NONE', *, *, #6, .T. ) ;
#174 = ORIENTED_EDGE ( 'NONE', *, *, #369, .T. ) ;
#175 = FACE_OUTER_BOUND ( 'NONE', #121, .T. ) ;
#176 = ORIENTED_EDGE ( 'NONE', *, *, #80, .T. ) ;
#177 = AXIS2_PLACEMENT_3D ( 'NONE', #88, #290, #7 ) ;
#178 = ORIENTED_EDGE ( 'NONE', *, *, #161, .T. ) ;
#179 = ADVANCED_FACE ( 'NONE', ( #104 ), #128, .T. ) ;
#180 = CARTESIAN_POINT ( 'NONE',  ( 3.000000000000000000, 11.99999999999999645, 3.673940397442054938E-16 ) ) ;
#181 = EDGE_LOOP ( 'NONE', ( #152, #28 ) ) ;
#182 = DIRECTION ( 'NONE',  ( -1.203932746194552959E-16, 1.000000000000000000, 0.000000000000000000 ) ) ;
#183 =( NAMED_UNIT ( * ) SI_UNIT ( $, .STERADIAN. ) SOLID_ANGLE_UNIT ( ) );
#184 = CIRCLE ( 'NONE', #171, 2.999999999999991562 ) ;
#185 = AXIS2_PLACEMENT_3D ( 'NONE', #295, #35, #100 ) ;
#186 = SHAPE_DEFINITION_REPRESENTATION ( #285, #208 ) ;
#187 = CARTESIAN_POINT ( 'NONE',  ( 3.000000000000000444, 63.00000000000000000, 3.673940397442054938E-16 ) ) ;
#188 = PLANE ( 'NONE',  #51 ) ;
#189 = DIRECTION ( 'NONE',  ( 0.000000000000000000, 0.000000000000000000, -1.000000000000000000 ) ) ;
#190 = ADVANCED_FACE ( 'NONE', ( #241 ), #191, .T. ) ;
#191 = TOROIDAL_SURFACE ( 'NONE', #21, 2.000000000000000000, 1.000000000000000000 ) ;
#192 = DIRECTION ( 'NONE',  ( 0.000000000000000000, 1.000000000000000000, 0.000000000000000000 ) ) ;
#193 = FILL_AREA_STYLE_COLOUR ( '', #359 ) ;
#194 =( LENGTH_UNIT ( ) NAMED_UNIT ( * ) SI_UNIT ( .MILLI., .METRE. ) );
#195 = APPLICATION_PROTOCOL_DEFINITION ( 'draft international standard', 'automotive_design', 1998, #237 ) ;
#196 = SURFACE_SIDE_STYLE ('',( #263 ) ) ;
#197 = ORIENTED_EDGE ( 'NONE', *, *, #239, .T. ) ;
#198 = PRESENTATION_LAYER_ASSIGNMENT (  '', '', ( #37 ) ) ;
#199 = EDGE_CURVE ( 'NONE', #268, #343, #69, .T. ) ;
#200 = CIRCLE ( 'NONE', #279, 3.000000000000000000 ) ;
#201 = ORIENTED_EDGE ( 'NONE', *, *, #161, .F. ) ;
#202 = DIRECTION ( 'NONE',  ( -0.000000000000000000, -1.000000000000000000, -0.000000000000000000 ) ) ;
#203 = ADVANCED_FACE ( 'NONE', ( #115 ), #219, .T. ) ;
#204 = SURFACE_STYLE_FILL_AREA ( #229 ) ;
#205 = VERTEX_POINT ( 'NONE', #260 ) ;
#206 = CIRCLE ( 'NONE', #243, 3.000000000000000000 ) ;
#207 = AXIS2_PLACEMENT_3D ( 'NONE', #170, #332, #218 ) ;
#208 = ADVANCED_BREP_SHAPE_REPRESENTATION ( '59731', ( #319, #325, #113 ), #244 ) ;
#209 = CARTESIAN_POINT ( 'NONE',  ( 3.061616997868383141E-16, 0.000000000000000000, 2.000000000000000000 ) ) ;
#210 = FACE_OUTER_BOUND ( 'NONE', #317, .T. ) ;
#211 = CARTESIAN_POINT ( 'NONE',  ( -2.999999999999991118, 63.00000000000000000, 0.000000000000000000 ) ) ;
#212 = CIRCLE ( 'NONE', #46, 3.000000000000000000 ) ;
#213 = AXIS2_PLACEMENT_3D ( 'NONE', #10, #245, #33 ) ;
#214 = VERTEX_POINT ( 'NONE', #326 ) ;
#215 = FACE_OUTER_BOUND ( 'NONE', #294, .T. ) ;
#216 = FACE_OUTER_BOUND ( 'NONE', #181, .T. ) ;
#217 = SURFACE_STYLE_USAGE ( .BOTH. , #98 ) ;
#218 = DIRECTION ( 'NONE',  ( 0.000000000000000000, 0.000000000000000000, -1.000000000000000000 ) ) ;
#219 = TOROIDAL_SURFACE ( 'NONE', #151, 2.000000000000000000, 1.000000000000000000 ) ;
#220 =( NAMED_UNIT ( * ) PLANE_ANGLE_UNIT ( ) SI_UNIT ( $, .RADIAN. ) );
#221 = PRESENTATION_STYLE_ASSIGNMENT (( #355 ) ) ;
#222 = DIRECTION ( 'NONE',  ( -1.000000000000000000, 0.000000000000000000, 0.000000000000000000 ) ) ;
#223 =( NAMED_UNIT ( * ) PLANE_ANGLE_UNIT ( ) SI_UNIT ( $, .RADIAN. ) );
#224 = DIRECTION ( 'NONE',  ( -1.203932746194552959E-16, 1.000000000000000000, -0.000000000000000000 ) ) ;
#225 = PRODUCT_DEFINITION_FORMATION_WITH_SPECIFIED_SOURCE ( 'ANY', '', #338, .NOT_KNOWN. ) ;
#226 = EDGE_LOOP ( 'NONE', ( #2, #315 ) ) ;
#227 = ADVANCED_FACE ( 'NONE', ( #137 ), #270, .T. ) ;
#228 = MECHANICAL_DESIGN_GEOMETRIC_PRESENTATION_REPRESENTATION (  '', ( #25 ), #311 ) ;
#229 = FILL_AREA_STYLE ('',( #84 ) ) ;
#230 = LINE ( 'NONE', #211, #61 ) ;
#231 = ORIENTED_EDGE ( 'NONE', *, *, #143, .T. ) ;
#232 = CIRCLE ( 'NONE', #9, 1.000000000000000000 ) ;
#233 = MECHANICAL_DESIGN_GEOMETRIC_PRESENTATION_REPRESENTATION (  '', ( #65 ), #30 ) ;
#234 = UNCERTAINTY_MEASURE_WITH_UNIT (LENGTH_MEASURE( 1.000000000000000082E-05 ), #42, 'distance_accuracy_value', 'NONE');
#235 = ORIENTED_EDGE ( 'NONE', *, *, #114, .T. ) ;
#236 = PRESENTATION_LAYER_ASSIGNMENT (  '', '', ( #25 ) ) ;
#237 = APPLICATION_CONTEXT ( 'automotive_design' ) ;
#238 =( LENGTH_UNIT ( ) NAMED_UNIT ( * ) SI_UNIT ( .MILLI., .METRE. ) );
#239 = EDGE_CURVE ( 'NONE', #110, #214, #283, .T. ) ;
#240 = PLANE ( 'NONE',  #207 ) ;
#241 = FACE_OUTER_BOUND ( 'NONE', #365, .T. ) ;
#242 = CARTESIAN_POINT ( 'NONE',  ( -2.999999999999993783, 63.00000000000000000, 0.000000000000000000 ) ) ;
#243 = AXIS2_PLACEMENT_3D ( 'NONE', #277, #16, #15 ) ;
#244 =( GEOMETRIC_REPRESENTATION_CONTEXT ( 3 ) GLOBAL_UNCERTAINTY_ASSIGNED_CONTEXT ( ( #43 ) ) GLOBAL_UNIT_ASSIGNED_CONTEXT ( ( #194, #167, #135 ) ) REPRESENTATION_CONTEXT ( 'NONE', 'WORKASPACE' ) );
#245 = DIRECTION ( 'NONE',  ( 1.203932746194552959E-16, -1.000000000000000000, 0.000000000000000000 ) ) ;
#246 = DIRECTION ( 'NONE',  ( -0.000000000000000000, -1.000000000000000000, -0.000000000000000000 ) ) ;
#247 = DIRECTION ( 'NONE',  ( -1.203932746194552959E-16, 1.000000000000000000, -0.000000000000000000 ) ) ;
#248 = SURFACE_STYLE_FILL_AREA ( #168 ) ;
#249 = DIRECTION ( 'NONE',  ( 1.000000000000000000, 0.000000000000000000, 0.000000000000000000 ) ) ;
#250 = DIRECTION ( 'NONE',  ( -0.000000000000000000, -1.000000000000000000, -0.000000000000000000 ) ) ;
#251 = DIRECTION ( 'NONE',  ( -1.000000000000000000, 0.000000000000000000, 0.000000000000000000 ) ) ;
#252 =( GEOMETRIC_REPRESENTATION_CONTEXT ( 3 ) GLOBAL_UNCERTAINTY_ASSIGNED_CONTEXT ( ( #348 ) ) GLOBAL_UNIT_ASSIGNED_CONTEXT ( ( #41, #284, #24 ) ) REPRESENTATION_CONTEXT ( 'NONE', 'WORKASPACE' ) );
#253 = AXIS2_PLACEMENT_3D ( 'NONE', #323, #182, #297 ) ;
#254 = ADVANCED_FACE ( 'NONE', ( #175 ), #267, .T. ) ;
#255 = SURFACE_STYLE_USAGE ( .BOTH. , #196 ) ;
#256 =( NAMED_UNIT ( * ) SI_UNIT ( $, .STERADIAN. ) SOLID_ANGLE_UNIT ( ) );
#257 = VECTOR ( 'NONE', #357, 1000.000000000000000 ) ;
#258 = EDGE_CURVE ( 'NONE', #214, #55, #232, .T. ) ;
#259 = STYLED_ITEM ( 'NONE', ( #320 ), #319 ) ;
#260 = CARTESIAN_POINT ( 'NONE',  ( 0.000000000000000000, 12.00000000000000000, -3.000000000000000000 ) ) ;
#261 = SURFACE_STYLE_FILL_AREA ( #52 ) ;
#262 = EDGE_LOOP ( 'NONE', ( #79, #197, #347, #111 ) ) ;
#263 = SURFACE_STYLE_FILL_AREA ( #306 ) ;
#264 = EDGE_LOOP ( 'NONE', ( #67, #337, #31, #310 ) ) ;
#265 = STYLED_ITEM ( 'NONE', ( #74 ), #190 ) ;
#266 = CIRCLE ( 'NONE', #47, 2.999999999999991562 ) ;
#267 = CYLINDRICAL_SURFACE ( 'NONE', #185, 3.000000000000000000 ) ;
#268 = VERTEX_POINT ( 'NONE', #180 ) ;
#269 = LINE ( 'NONE', #91, #291 ) ;
#270 = CYLINDRICAL_SURFACE ( 'NONE', #271, 3.000000000000000000 ) ;
#271 = AXIS2_PLACEMENT_3D ( 'NONE', #82, #202, #313 ) ;
#272 = COLOUR_RGB ( '',0.7921568627450980005, 0.8196078431372548767, 0.9333333333333333481 ) ;
#273 = FILL_AREA_STYLE_COLOUR ( '', #272 ) ;
#274 = DIRECTION ( 'NONE',  ( -1.203932746194552959E-16, 1.000000000000000000, -0.000000000000000000 ) ) ;
#275 = SURFACE_SIDE_STYLE ('',( #159 ) ) ;
#276 = CARTESIAN_POINT ( 'NONE',  ( 0.000000000000000000, 0.000000000000000000, 0.000000000000000000 ) ) ;
#277 = CARTESIAN_POINT ( 'NONE',  ( 0.000000000000000000, 1.000000000000000000, 0.000000000000000000 ) ) ;
#278 =( NAMED_UNIT ( * ) SI_UNIT ( $, .STERADIAN. ) SOLID_ANGLE_UNIT ( ) );
#279 = AXIS2_PLACEMENT_3D ( 'NONE', #302, #129, #300 ) ;
#280 = ADVANCED_FACE ( 'NONE', ( #215 ), #130, .F. ) ;
#281 = PRESENTATION_LAYER_ASSIGNMENT (  '', '', ( #65 ) ) ;
#282 = CARTESIAN_POINT ( 'NONE',  ( -2.999999999999981792, 11.99999999999999645, 0.000000000000000000 ) ) ;
#283 = CIRCLE ( 'NONE', #108, 3.000000000000000000 ) ;
#284 =( NAMED_UNIT ( * ) PLANE_ANGLE_UNIT ( ) SI_UNIT ( $, .RADIAN. ) );
#285 = PRODUCT_DEFINITION_SHAPE ( 'NONE', 'NONE',  #90 ) ;
#286 = DIRECTION ( 'NONE',  ( 0.000000000000000000, 0.000000000000000000, -1.000000000000000000 ) ) ;
#287 = PRESENTATION_STYLE_ASSIGNMENT (( #94 ) ) ;
#288 = STYLED_ITEM ( 'NONE', ( #221 ), #336 ) ;
#289 = DIRECTION ( 'NONE',  ( -1.203932746194552959E-16, 1.000000000000000000, -0.000000000000000000 ) ) ;
#290 = DIRECTION ( 'NONE',  ( -0.000000000000000000, -1.000000000000000000, -0.000000000000000000 ) ) ;
#291 = VECTOR ( 'NONE', #57, 1000.000000000000000 ) ;
#292 = MECHANICAL_DESIGN_GEOMETRIC_PRESENTATION_REPRESENTATION (  '', ( #37 ), #112 ) ;
#293 = CIRCLE ( 'NONE', #119, 1.000000000000000000 ) ;
#294 = EDGE_LOOP ( 'NONE', ( #34, #64 ) ) ;
#295 = CARTESIAN_POINT ( 'NONE',  ( 0.000000000000000000, 0.000000000000000000, 0.000000000000000000 ) ) ;
#296 = VERTEX_POINT ( 'NONE', #124 ) ;
#297 = DIRECTION ( 'NONE',  ( -1.000000000000000000, -1.203932746194552959E-16, 0.000000000000000000 ) ) ;
#298 = SURFACE_STYLE_USAGE ( .BOTH. , #71 ) ;
#299 = FILL_AREA_STYLE_COLOUR ( '', #344 ) ;
#300 = DIRECTION ( 'NONE',  ( 0.000000000000000000, 0.000000000000000000, -1.000000000000000000 ) ) ;
#301 = FILL_AREA_STYLE_COLOUR ( '', #318 ) ;
#302 = CARTESIAN_POINT ( 'NONE',  ( 0.000000000000000000, 12.00000000000000000, 0.000000000000000000 ) ) ;
#303 = AXIS2_PLACEMENT_3D ( 'NONE', #352, #274, #222 ) ;
#304 = DIRECTION ( 'NONE',  ( 0.000000000000000000, 0.000000000000000000, -1.000000000000000000 ) ) ;
#305 = APPLICATION_PROTOCOL_DEFINITION ( 'draft international standard', 'automotive_design', 1998, #353 ) ;
#306 = FILL_AREA_STYLE ('',( #273 ) ) ;
#307 = DIRECTION ( 'NONE',  ( -0.000000000000000000, -1.000000000000000000, -0.000000000000000000 ) ) ;
#308 = ADVANCED_FACE ( 'NONE', ( #157 ), #351, .F. ) ;
#309 = PRODUCT_CONTEXT ( 'NONE', #237, 'mechanical' ) ;
#310 = ORIENTED_EDGE ( 'NONE', *, *, #18, .F. ) ;
#311 =( GEOMETRIC_REPRESENTATION_CONTEXT ( 3 ) GLOBAL_UNCERTAINTY_ASSIGNED_CONTEXT ( ( #322 ) ) GLOBAL_UNIT_ASSIGNED_CONTEXT ( ( #102, #331, #77 ) ) REPRESENTATION_CONTEXT ( 'NONE', 'WORKASPACE' ) );
#312 = CARTESIAN_POINT ( 'NONE',  ( 0.000000000000000000, 1.000000000000000000, 0.000000000000000000 ) ) ;
#313 = DIRECTION ( 'NONE',  ( 0.000000000000000000, 0.000000000000000000, -1.000000000000000000 ) ) ;
#314 = COLOUR_RGB ( '',1.000000000000000000, 0.000000000000000000, 0.000000000000000000 ) ;
#315 = ORIENTED_EDGE ( 'NONE', *, *, #341, .F. ) ;
#316 = ORIENTED_EDGE ( 'NONE', *, *, #13, .F. ) ;
#317 = EDGE_LOOP ( 'NONE', ( #116, #231 ) ) ;
#318 = COLOUR_RGB ( '',1.000000000000000000, 0.000000000000000000, 0.000000000000000000 ) ;
#319 = MANIFOLD_SOLID_BREP ( 'Revolve - Cutting Edge', #20 ) ;
#320 = PRESENTATION_STYLE_ASSIGNMENT (( #255 ) ) ;
#321 = ORIENTED_EDGE ( 'NONE', *, *, #350, .T. ) ;
#322 = UNCERTAINTY_MEASURE_WITH_UNIT (LENGTH_MEASURE( 1.000000000000000082E-05 ), #102, 'distance_accuracy_value', 'NONE');
#323 = CARTESIAN_POINT ( 'NONE',  ( 9.324138683375338132E-15, 12.00000000000000000, 0.000000000000000000 ) ) ;
#324 = PRESENTATION_STYLE_ASSIGNMENT (( #298 ) ) ;
#325 = MANIFOLD_SOLID_BREP ( 'Revolve - Tool Body (Straight Shanked)', #358 ) ;
#326 = CARTESIAN_POINT ( 'NONE',  ( 0.000000000000000000, 1.000000000000000000, -3.000000000000000000 ) ) ;
#327 = PRESENTATION_STYLE_ASSIGNMENT (( #362 ) ) ;
#328 = STYLED_ITEM ( 'NONE', ( #324 ), #105 ) ;
#329 = PRESENTATION_LAYER_ASSIGNMENT (  '', '', ( #259 ) ) ;
#330 = DIRECTION ( 'NONE',  ( 0.000000000000000000, 0.000000000000000000, -1.000000000000000000 ) ) ;
#331 =( NAMED_UNIT ( * ) PLANE_ANGLE_UNIT ( ) SI_UNIT ( $, .RADIAN. ) );
#332 = DIRECTION ( 'NONE',  ( 0.000000000000000000, -1.000000000000000000, -0.000000000000000000 ) ) ;
#333 =( NAMED_UNIT ( * ) SI_UNIT ( $, .STERADIAN. ) SOLID_ANGLE_UNIT ( ) );
#334 = DIRECTION ( 'NONE',  ( -1.000000000000000000, 0.000000000000000000, 0.000000000000000000 ) ) ;
#335 = CYLINDRICAL_SURFACE ( 'NONE', #360, 2.999999999999993783 ) ;
#336 = ADVANCED_FACE ( 'NONE', ( #210 ), #240, .T. ) ;
#337 = ORIENTED_EDGE ( 'NONE', *, *, #199, .T. ) ;
#338 = PRODUCT ( '59731', '59731', '', ( #309 ) ) ;
#339 = SURFACE_STYLE_USAGE ( .BOTH. , #146 ) ;
#340 = CARTESIAN_POINT ( 'NONE',  ( 3.184081677783117402E-15, 63.00000000000000000, 0.000000000000000000 ) ) ;
#341 = EDGE_CURVE ( 'NONE', #268, #120, #266, .T. ) ;
#342 = AXIS2_PLACEMENT_3D ( 'NONE', #40, #163, #97 ) ;
#343 = VERTEX_POINT ( 'NONE', #187 ) ;
#344 = COLOUR_RGB ( '',1.000000000000000000, 0.000000000000000000, 0.000000000000000000 ) ;
#345 = FILL_AREA_STYLE ('',( #299 ) ) ;
#346 =( LENGTH_UNIT ( ) NAMED_UNIT ( * ) SI_UNIT ( .MILLI., .METRE. ) );
#347 = ORIENTED_EDGE ( 'NONE', *, *, #258, .T. ) ;
#348 = UNCERTAINTY_MEASURE_WITH_UNIT (LENGTH_MEASURE( 1.000000000000000082E-05 ), #41, 'distance_accuracy_value', 'NONE');
#349 = VERTEX_POINT ( 'NONE', #242 ) ;
#350 = EDGE_CURVE ( 'NONE', #110, #50, #293, .T. ) ;
#351 = PLANE ( 'NONE',  #253 ) ;
#352 = CARTESIAN_POINT ( 'NONE',  ( 3.184081677783117402E-15, 63.00000000000000000, 0.000000000000000000 ) ) ;
#353 = APPLICATION_CONTEXT ( 'automotive_design' ) ;
#354 = SURFACE_STYLE_FILL_AREA ( #126 ) ;
#355 = SURFACE_STYLE_USAGE ( .BOTH. , #48 ) ;
#356 = ADVANCED_FACE ( 'NONE', ( #169 ), #335, .T. ) ;
#357 = DIRECTION ( 'NONE',  ( -0.000000000000000000, -1.000000000000000000, -0.000000000000000000 ) ) ;
#358 = CLOSED_SHELL ( 'NONE', ( #179, #308, #356, #280 ) ) ;
#359 = COLOUR_RGB ( '',1.000000000000000000, 0.000000000000000000, 0.000000000000000000 ) ;
#360 = AXIS2_PLACEMENT_3D ( 'NONE', #140, #19, #251 ) ;
#361 = DIRECTION ( 'NONE',  ( -0.000000000000000000, -1.000000000000000000, -0.000000000000000000 ) ) ;
#362 = SURFACE_STYLE_USAGE ( .BOTH. , #275 ) ;
#363 = SURFACE_STYLE_FILL_AREA ( #345 ) ;
#364 = MECHANICAL_DESIGN_GEOMETRIC_PRESENTATION_REPRESENTATION (  '', ( #123 ), #252 ) ;
#365 = EDGE_LOOP ( 'NONE', ( #176, #321, #316, #81 ) ) ;
#366 =( GEOMETRIC_REPRESENTATION_CONTEXT ( 3 ) GLOBAL_UNCERTAINTY_ASSIGNED_CONTEXT ( ( #66 ) ) GLOBAL_UNIT_ASSIGNED_CONTEXT ( ( #76, #107, #333 ) ) REPRESENTATION_CONTEXT ( 'NONE', 'WORKASPACE' ) );
#367 = EDGE_LOOP ( 'NONE', ( #235, #173, #156, #201 ) ) ;
#368 = CARTESIAN_POINT ( 'NONE',  ( 2.999999999999996891, 63.00000000000000000, 3.673940397442052472E-16 ) ) ;
#369 = EDGE_CURVE ( 'NONE', #296, #205, #200, .T. ) ;
#370 = PRODUCT_DEFINITION_CONTEXT ( 'detailed design', #353, 'design' ) ;
ENDSEC;
END-ISO-10303-21;
