ISO-10303-21;
HEADER;
FILE_DESCRIPTION (( 'STEP AP214' ),
    '1' );
FILE_NAME ('Micro_SEM-250-04.STEP',
    '2021-09-02T02:35:12',
    ( '' ),
    ( '' ),
    'SwSTEP 2.0',
    'SolidWorks 2020',
    '' );
FILE_SCHEMA (( 'AUTOMOTIVE_DESIGN' ));
ENDSEC;

DATA;
#1 = CARTESIAN_POINT ( 'NONE',  ( 6.123233995736766036E-17, 0.0000000000000000000, 0.5000000000000000000 ) ) ;
#2 = MECHANICAL_DESIGN_GEOMETRIC_PRESENTATION_REPRESENTATION (  '', ( #267 ), #41 ) ;
#3 = ORIENTED_EDGE ( 'NONE', *, *, #31, .F. ) ;
#4 = ORIENTED_EDGE ( 'NONE', *, *, #245, .F. ) ;
#5 = SURFACE_STYLE_FILL_AREA ( #239 ) ;
#6 = VERTEX_POINT ( 'NONE', #62 ) ;
#7 = DIRECTION ( 'NONE',  ( 0.0000000000000000000, 0.0000000000000000000, -1.000000000000000000 ) ) ;
#8 = ORIENTED_EDGE ( 'NONE', *, *, #120, .F. ) ;
#9 = LINE ( 'NONE', #110, #69 ) ;
#10 = DIRECTION ( 'NONE',  ( 0.0000000000000000000, 0.0000000000000000000, 1.000000000000000000 ) ) ;
#11 =( GEOMETRIC_REPRESENTATION_CONTEXT ( 3 ) GLOBAL_UNCERTAINTY_ASSIGNED_CONTEXT ( ( #252 ) ) GLOBAL_UNIT_ASSIGNED_CONTEXT ( ( #298, #99, #184 ) ) REPRESENTATION_CONTEXT ( 'NONE', 'WORKASPACE' ) );
#12 = CARTESIAN_POINT ( 'NONE',  ( -0.1250000000000000000, 0.0000000000000000000, 2.000000000000000000 ) ) ;
#13 = DIRECTION ( 'NONE',  ( 1.224646799147353207E-16, 0.0000000000000000000, 1.000000000000000000 ) ) ;
#14 = DIRECTION ( 'NONE',  ( 1.000000000000000000, 0.0000000000000000000, 0.0000000000000000000 ) ) ;
#15 = AXIS2_PLACEMENT_3D ( 'NONE', #114, #13, #161 ) ;
#16 = EDGE_CURVE ( 'NONE', #234, #105, #188, .T. ) ;
#17 = DIRECTION ( 'NONE',  ( 0.0000000000000000000, 0.0000000000000000000, 1.000000000000000000 ) ) ;
#18 = CARTESIAN_POINT ( 'NONE',  ( 0.1248749999999999999, 1.529277690435257475E-17, -1.529277690435257475E-17 ) ) ;
#19 = ORIENTED_EDGE ( 'NONE', *, *, #39, .F. ) ;
#20 = EDGE_CURVE ( 'NONE', #6, #140, #138, .T. ) ;
#21 = LINE ( 'NONE', #18, #218 ) ;
#22 = AXIS2_PLACEMENT_3D ( 'NONE', #230, #297, #207 ) ;
#23 = SURFACE_STYLE_FILL_AREA ( #279 ) ;
#24 = ADVANCED_FACE ( 'NONE', ( #216 ), #75, .T. ) ;
#25 = LINE ( 'NONE', #182, #193 ) ;
#26 = EDGE_CURVE ( 'NONE', #234, #191, #9, .T. ) ;
#27 = CONICAL_SURFACE ( 'NONE', #15, 0.1248749999999999999, 0.1745329251994339192 ) ;
#28 = ORIENTED_EDGE ( 'NONE', *, *, #155, .T. ) ;
#29 = SURFACE_SIDE_STYLE ('',( #5 ) ) ;
#30 = ORIENTED_EDGE ( 'NONE', *, *, #16, .F. ) ;
#31 = EDGE_CURVE ( 'NONE', #6, #191, #289, .T. ) ;
#32 = EDGE_LOOP ( 'NONE', ( #251, #150, #33, #3 ) ) ;
#33 = ORIENTED_EDGE ( 'NONE', *, *, #57, .T. ) ;
#34 = AXIS2_PLACEMENT_3D ( 'NONE', #293, #115, #94 ) ;
#35 = AXIS2_PLACEMENT_3D ( 'NONE', #271, #221, #14 ) ;
#36 = DIRECTION ( 'NONE',  ( -1.000000000000000000, 0.0000000000000000000, 0.0000000000000000000 ) ) ;
#37 = ADVANCED_FACE ( 'NONE', ( #56 ), #181, .T. ) ;
#38 = DIRECTION ( 'NONE',  ( 0.0000000000000000000, 0.0000000000000000000, 1.000000000000000000 ) ) ;
#39 = EDGE_CURVE ( 'NONE', #140, #145, #199, .T. ) ;
#40 = DIRECTION ( 'NONE',  ( -0.1736481776669312194, 2.126576849575783625E-17, 0.9848077530122080203 ) ) ;
#41 =( GEOMETRIC_REPRESENTATION_CONTEXT ( 3 ) GLOBAL_UNCERTAINTY_ASSIGNED_CONTEXT ( ( #223 ) ) GLOBAL_UNIT_ASSIGNED_CONTEXT ( ( #231, #106, #148 ) ) REPRESENTATION_CONTEXT ( 'NONE', 'WORKASPACE' ) );
#42 = DIRECTION ( 'NONE',  ( 0.0000000000000000000, 0.0000000000000000000, -1.000000000000000000 ) ) ;
#43 = DIRECTION ( 'NONE',  ( -1.000000000000000000, 0.0000000000000000000, 1.224646799147353454E-16 ) ) ;
#44 = CARTESIAN_POINT ( 'NONE',  ( -0.1248749999999999444, 1.529277690435257475E-17, 0.5000000000000000000 ) ) ;
#45 = VECTOR ( 'NONE', #294, 39.37007874015748143 ) ;
#46 = SURFACE_STYLE_USAGE ( .BOTH. , #208 ) ;
#47 =( NAMED_UNIT ( * ) SI_UNIT ( $, .STERADIAN. ) SOLID_ANGLE_UNIT ( ) );
#48 = DIRECTION ( 'NONE',  ( -1.000000000000000000, 0.0000000000000000000, 0.0000000000000000000 ) ) ;
#49 = CIRCLE ( 'NONE', #260, 0.1248749999999999999 ) ;
#50 = CARTESIAN_POINT ( 'NONE',  ( 0.1250000000000000000, 1.530808498934191509E-17, 1.984999999999999432 ) ) ;
#51 = EDGE_CURVE ( 'NONE', #282, #211, #137, .T. ) ;
#52 = SHAPE_DEFINITION_REPRESENTATION ( #278, #88 ) ;
#53 = ORIENTED_EDGE ( 'NONE', *, *, #57, .F. ) ;
#54 = APPLICATION_PROTOCOL_DEFINITION ( 'draft international standard', 'automotive_design', 1998, #95 ) ;
#55 = CONICAL_SURFACE ( 'NONE', #146, 0.1248749999999999999, 0.1745329251994339192 ) ;
#56 = FACE_OUTER_BOUND ( 'NONE', #189, .T. ) ;
#57 = EDGE_CURVE ( 'NONE', #145, #191, #102, .T. ) ;
#58 = ORIENTED_EDGE ( 'NONE', *, *, #164, .T. ) ;
#59 = UNCERTAINTY_MEASURE_WITH_UNIT (LENGTH_MEASURE( 1.000000000000000082E-05 ), #185, 'distance_accuracy_value', 'NONE');
#60 = CARTESIAN_POINT ( 'NONE',  ( 0.0000000000000000000, 0.0000000000000000000, 2.000000000000000000 ) ) ;
#61 = EDGE_CURVE ( 'NONE', #238, #171, #142, .T. ) ;
#62 = CARTESIAN_POINT ( 'NONE',  ( 0.1248750000000000693, 0.0000000000000000000, 0.5000000000000000000 ) ) ;
#63 = COLOUR_RGB ( '',0.7921568627450980005, 0.8196078431372548767, 0.9333333333333333481 ) ;
#64 = DIRECTION ( 'NONE',  ( -1.224646799147353207E-16, -0.0000000000000000000, -1.000000000000000000 ) ) ;
#65 = CLOSED_SHELL ( 'NONE', ( #85, #157, #37, #237, #209, #124, #24, #261, #76, #192 ) ) ;
#66 = FACE_OUTER_BOUND ( 'NONE', #226, .T. ) ;
#67 = CYLINDRICAL_SURFACE ( 'NONE', #295, 0.1248749999999999999 ) ;
#68 = PRESENTATION_LAYER_ASSIGNMENT (  '', '', ( #267 ) ) ;
#69 = VECTOR ( 'NONE', #196, 39.37007874015748143 ) ;
#70 = CARTESIAN_POINT ( 'NONE',  ( 0.1099999999999996397, 1.347111479062084158E-17, 2.000000000000000000 ) ) ;
#71 = FACE_OUTER_BOUND ( 'NONE', #32, .T. ) ;
#72 = PRESENTATION_STYLE_ASSIGNMENT (( #46 ) ) ;
#73 = PRODUCT_DEFINITION ( 'UNKNOWN', '', #187, #170 ) ;
#74 = AXIS2_PLACEMENT_3D ( 'NONE', #246, #156, #175 ) ;
#75 = CONICAL_SURFACE ( 'NONE', #113, 0.1099999999999996397, 0.7853981633974426169 ) ;
#76 = ADVANCED_FACE ( 'NONE', ( #66 ), #135, .T. ) ;
#77 =( LENGTH_UNIT ( ) NAMED_UNIT ( * ) SI_UNIT ( $, .METRE. ) );
#78 = AXIS2_PLACEMENT_3D ( 'NONE', #273, #111, #91 ) ;
#79 = DIRECTION ( 'NONE',  ( -0.7071067811865434649, 0.0000000000000000000, -0.7071067811865515695 ) ) ;
#80 = EDGE_CURVE ( 'NONE', #191, #145, #90, .T. ) ;
#81 = EDGE_LOOP ( 'NONE', ( #131, #108, #130, #30 ) ) ;
#82 = ORIENTED_EDGE ( 'NONE', *, *, #80, .T. ) ;
#83 = ORIENTED_EDGE ( 'NONE', *, *, #51, .F. ) ;
#84 = ORIENTED_EDGE ( 'NONE', *, *, #212, .T. ) ;
#85 = ADVANCED_FACE ( 'NONE', ( #247 ), #67, .T. ) ;
#86 = FILL_AREA_STYLE_COLOUR ( '', #63 ) ;
#87 = ORIENTED_EDGE ( 'NONE', *, *, #20, .T. ) ;
#88 = ADVANCED_BREP_SHAPE_REPRESENTATION ( 'Micro_SEM-250-04', ( #235, #206 ), #11 ) ;
#89 = DIRECTION ( 'NONE',  ( 1.000000000000000000, 0.0000000000000000000, 0.0000000000000000000 ) ) ;
#90 = CIRCLE ( 'NONE', #35, 0.1250000000000000000 ) ;
#91 = DIRECTION ( 'NONE',  ( -1.000000000000000000, 0.0000000000000000000, 1.224646799147353454E-16 ) ) ;
#92 = CARTESIAN_POINT ( 'NONE',  ( 0.0000000000000000000, 0.0000000000000000000, 2.000000000000000000 ) ) ;
#93 = EDGE_CURVE ( 'NONE', #211, #282, #186, .T. ) ;
#94 = DIRECTION ( 'NONE',  ( -1.000000000000000000, 0.0000000000000000000, 0.0000000000000000000 ) ) ;
#95 = APPLICATION_CONTEXT ( 'automotive_design' ) ;
#96 = DIRECTION ( 'NONE',  ( 1.000000000000000000, 0.0000000000000000000, 0.0000000000000000000 ) ) ;
#97 = EDGE_CURVE ( 'NONE', #171, #238, #49, .T. ) ;
#98 = FACE_OUTER_BOUND ( 'NONE', #283, .T. ) ;
#99 =( NAMED_UNIT ( * ) PLANE_ANGLE_UNIT ( ) SI_UNIT ( $, .RADIAN. ) );
#100 = DIRECTION ( 'NONE',  ( 1.224646799147353207E-16, 0.0000000000000000000, 1.000000000000000000 ) ) ;
#101 = DIRECTION ( 'NONE',  ( -1.224646799147353207E-16, -0.0000000000000000000, -1.000000000000000000 ) ) ;
#102 = CIRCLE ( 'NONE', #74, 0.1250000000000000000 ) ;
#103 = PRODUCT ( 'Micro_SEM-250-04', 'Micro_SEM-250-04', '', ( #190 ) ) ;
#104 = ORIENTED_EDGE ( 'NONE', *, *, #155, .F. ) ;
#105 = VERTEX_POINT ( 'NONE', #176 ) ;
#106 =( NAMED_UNIT ( * ) PLANE_ANGLE_UNIT ( ) SI_UNIT ( $, .RADIAN. ) );
#107 = ORIENTED_EDGE ( 'NONE', *, *, #80, .F. ) ;
#108 = ORIENTED_EDGE ( 'NONE', *, *, #93, .F. ) ;
#109 = ORIENTED_EDGE ( 'NONE', *, *, #31, .T. ) ;
#110 = CARTESIAN_POINT ( 'NONE',  ( 0.1250000000000000000, 1.530808498934191509E-17, 2.000000000000000000 ) ) ;
#111 = DIRECTION ( 'NONE',  ( -1.224646799147353207E-16, -0.0000000000000000000, -1.000000000000000000 ) ) ;
#112 = AXIS2_PLACEMENT_3D ( 'NONE', #162, #166, #256 ) ;
#113 = AXIS2_PLACEMENT_3D ( 'NONE', #60, #240, #36 ) ;
#114 = CARTESIAN_POINT ( 'NONE',  ( 6.123233995736766036E-17, 0.0000000000000000000, 0.5000000000000000000 ) ) ;
#115 = DIRECTION ( 'NONE',  ( 0.0000000000000000000, 0.0000000000000000000, -1.000000000000000000 ) ) ;
#116 = DIRECTION ( 'NONE',  ( -1.224646799147353207E-16, -0.0000000000000000000, -1.000000000000000000 ) ) ;
#117 = FACE_OUTER_BOUND ( 'NONE', #299, .T. ) ;
#118 = ORIENTED_EDGE ( 'NONE', *, *, #61, .T. ) ;
#119 = FILL_AREA_STYLE_COLOUR ( '', #286 ) ;
#120 = EDGE_CURVE ( 'NONE', #105, #234, #290, .T. ) ;
#121 = DIRECTION ( 'NONE',  ( -1.224646799147353207E-16, -0.0000000000000000000, -1.000000000000000000 ) ) ;
#122 = DIMENSIONAL_EXPONENTS ( 1.000000000000000000, 0.0000000000000000000, 0.0000000000000000000, 0.0000000000000000000, 0.0000000000000000000, 0.0000000000000000000, 0.0000000000000000000 ) ;
#123 = LENGTH_MEASURE_WITH_UNIT ( LENGTH_MEASURE( 0.02539999999999999897 ), #227 );
#124 = ADVANCED_FACE ( 'NONE', ( #269 ), #133, .T. ) ;
#125 = AXIS2_PLACEMENT_3D ( 'NONE', #292, #64, #43 ) ;
#126 = ORIENTED_EDGE ( 'NONE', *, *, #212, .F. ) ;
#127 = ORIENTED_EDGE ( 'NONE', *, *, #120, .T. ) ;
#128 = EDGE_LOOP ( 'NONE', ( #194, #147, #266, #126 ) ) ;
#129 = CIRCLE ( 'NONE', #277, 0.1248749999999999999 ) ;
#130 = ORIENTED_EDGE ( 'NONE', *, *, #229, .T. ) ;
#131 = ORIENTED_EDGE ( 'NONE', *, *, #164, .F. ) ;
#132 = CARTESIAN_POINT ( 'NONE',  ( -0.1248749999999999444, 1.530043094684724646E-17, 0.5000000000000000000 ) ) ;
#133 = PLANE ( 'NONE',  #281 ) ;
#134 = DIRECTION ( 'NONE',  ( -0.0000000000000000000, -0.0000000000000000000, -1.000000000000000000 ) ) ;
#135 = CYLINDRICAL_SURFACE ( 'NONE', #125, 0.1248749999999999999 ) ;
#136 = DIRECTION ( 'NONE',  ( -1.000000000000000000, 0.0000000000000000000, 1.224646799147353454E-16 ) ) ;
#137 = CIRCLE ( 'NONE', #197, 0.1099999999999996397 ) ;
#138 = CIRCLE ( 'NONE', #291, 0.1248749999999999999 ) ;
#139 = CARTESIAN_POINT ( 'NONE',  ( 0.1099999999999996397, 1.438959988998137757E-17, 2.000000000000000000 ) ) ;
#140 = VERTEX_POINT ( 'NONE', #132 ) ;
#141 = LINE ( 'NONE', #180, #159 ) ;
#142 = CIRCLE ( 'NONE', #78, 0.1248749999999999999 ) ;
#143 = DIRECTION ( 'NONE',  ( 1.000000000000000000, 0.0000000000000000000, 0.0000000000000000000 ) ) ;
#144 = LENGTH_MEASURE_WITH_UNIT ( LENGTH_MEASURE( 0.02539999999999999897 ), #236 );
#145 = VERTEX_POINT ( 'NONE', #244 ) ;
#146 = AXIS2_PLACEMENT_3D ( 'NONE', #1, #100, #143 ) ;
#147 = ORIENTED_EDGE ( 'NONE', *, *, #245, .T. ) ;
#148 =( NAMED_UNIT ( * ) SI_UNIT ( $, .STERADIAN. ) SOLID_ANGLE_UNIT ( ) );
#149 = ORIENTED_EDGE ( 'NONE', *, *, #93, .T. ) ;
#150 = ORIENTED_EDGE ( 'NONE', *, *, #39, .T. ) ;
#151 = VECTOR ( 'NONE', #134, 39.37007874015748143 ) ;
#152 = DIRECTION ( 'NONE',  ( 1.000000000000000000, 0.0000000000000000000, 0.0000000000000000000 ) ) ;
#153 = DIRECTION ( 'NONE',  ( -1.224646799147353207E-16, -0.0000000000000000000, -1.000000000000000000 ) ) ;
#154 = DIRECTION ( 'NONE',  ( 0.0000000000000000000, 0.0000000000000000000, 1.000000000000000000 ) ) ;
#155 = EDGE_CURVE ( 'NONE', #105, #145, #219, .T. ) ;
#156 = DIRECTION ( 'NONE',  ( -1.224646799147353207E-16, -0.0000000000000000000, -1.000000000000000000 ) ) ;
#157 = ADVANCED_FACE ( 'NONE', ( #71 ), #27, .T. ) ;
#158 = CARTESIAN_POINT ( 'NONE',  ( 0.0000000000000000000, 0.0000000000000000000, 1.984999999999999432 ) ) ;
#159 = VECTOR ( 'NONE', #121, 39.37007874015748143 ) ;
#160 = CARTESIAN_POINT ( 'NONE',  ( 0.0000000000000000000, 0.0000000000000000000, 0.0000000000000000000 ) ) ;
#161 = DIRECTION ( 'NONE',  ( 1.000000000000000000, 0.0000000000000000000, 0.0000000000000000000 ) ) ;
#162 = CARTESIAN_POINT ( 'NONE',  ( 0.0000000000000000000, 0.0000000000000000000, 2.000000000000000000 ) ) ;
#163 = STYLED_ITEM ( 'NONE', ( #72 ), #235 ) ;
#164 = EDGE_CURVE ( 'NONE', #282, #234, #200, .T. ) ;
#165 = AXIS2_PLACEMENT_3D ( 'NONE', #92, #154, #243 ) ;
#166 = DIRECTION ( 'NONE',  ( -0.0000000000000000000, -0.0000000000000000000, -1.000000000000000000 ) ) ;
#167 = CARTESIAN_POINT ( 'NONE',  ( 6.123233995736766036E-17, 0.0000000000000000000, 0.5000000000000000000 ) ) ;
#168 = ORIENTED_EDGE ( 'NONE', *, *, #51, .T. ) ;
#169 = ORIENTED_EDGE ( 'NONE', *, *, #16, .T. ) ;
#170 = PRODUCT_DEFINITION_CONTEXT ( 'detailed design', #274, 'design' ) ;
#171 = VERTEX_POINT ( 'NONE', #198 ) ;
#172 = ORIENTED_EDGE ( 'NONE', *, *, #26, .F. ) ;
#173 = PRESENTATION_LAYER_ASSIGNMENT (  '', '', ( #163 ) ) ;
#174 = CYLINDRICAL_SURFACE ( 'NONE', #22, 0.1250000000000000000 ) ;
#175 = DIRECTION ( 'NONE',  ( 1.000000000000000000, 0.0000000000000000000, 0.0000000000000000000 ) ) ;
#176 = CARTESIAN_POINT ( 'NONE',  ( -0.1250000000000000000, 0.0000000000000000000, 1.984999999999999432 ) ) ;
#177 = CARTESIAN_POINT ( 'NONE',  ( 1.872825028598994811E-33, 0.0000000000000000000, 1.529277690435257475E-17 ) ) ;
#178 = VECTOR ( 'NONE', #40, 39.37007874015747433 ) ;
#179 = DIRECTION ( 'NONE',  ( -1.224646799147353207E-16, -0.0000000000000000000, -1.000000000000000000 ) ) ;
#180 = CARTESIAN_POINT ( 'NONE',  ( -0.1248749999999999999, 0.0000000000000000000, 1.529277690435257475E-17 ) ) ;
#181 = CONICAL_SURFACE ( 'NONE', #34, 0.1099999999999996397, 0.7853981633974426169 ) ;
#182 = CARTESIAN_POINT ( 'NONE',  ( -0.1099999999999996397, 0.0000000000000000000, 2.000000000000000000 ) ) ;
#183 = DIMENSIONAL_EXPONENTS ( 1.000000000000000000, 0.0000000000000000000, 0.0000000000000000000, 0.0000000000000000000, 0.0000000000000000000, 0.0000000000000000000, 0.0000000000000000000 ) ;
#184 =( NAMED_UNIT ( * ) SI_UNIT ( $, .STERADIAN. ) SOLID_ANGLE_UNIT ( ) );
#185 =( CONVERSION_BASED_UNIT ( 'INCH', #225 ) LENGTH_UNIT ( ) NAMED_UNIT ( #224 ) );
#186 = CIRCLE ( 'NONE', #165, 0.1099999999999996397 ) ;
#187 = PRODUCT_DEFINITION_FORMATION_WITH_SPECIFIED_SOURCE ( 'ANY', '', #103, .NOT_KNOWN. ) ;
#188 = CIRCLE ( 'NONE', #268, 0.1250000000000000000 ) ;
#189 = EDGE_LOOP ( 'NONE', ( #83, #58, #8, #257 ) ) ;
#190 = PRODUCT_CONTEXT ( 'NONE', #95, 'mechanical' ) ;
#191 = VERTEX_POINT ( 'NONE', #248 ) ;
#192 = ADVANCED_FACE ( 'NONE', ( #222 ), #217, .F. ) ;
#193 = VECTOR ( 'NONE', #79, 39.37007874015748143 ) ;
#194 = ORIENTED_EDGE ( 'NONE', *, *, #258, .T. ) ;
#195 = EDGE_LOOP ( 'NONE', ( #149, #168 ) ) ;
#196 = DIRECTION ( 'NONE',  ( -0.0000000000000000000, -0.0000000000000000000, -1.000000000000000000 ) ) ;
#197 = AXIS2_PLACEMENT_3D ( 'NONE', #202, #17, #89 ) ;
#198 = CARTESIAN_POINT ( 'NONE',  ( -0.1248749999999999999, 0.0000000000000000000, 3.058555380870514950E-17 ) ) ;
#199 = LINE ( 'NONE', #44, #178 ) ;
#200 = LINE ( 'NONE', #70, #45 ) ;
#201 = PRODUCT_RELATED_PRODUCT_CATEGORY ( 'part', '', ( #103 ) ) ;
#202 = CARTESIAN_POINT ( 'NONE',  ( 0.0000000000000000000, 0.0000000000000000000, 2.000000000000000000 ) ) ;
#203 = AXIS2_PLACEMENT_3D ( 'NONE', #160, #10, #270 ) ;
#204 = CARTESIAN_POINT ( 'NONE',  ( 0.0000000000000000000, 0.0000000000000000000, 2.000000000000000000 ) ) ;
#205 = CARTESIAN_POINT ( 'NONE',  ( 0.1248749999999999999, 1.529277690435257475E-17, 0.0000000000000000000 ) ) ;
#206 = AXIS2_PLACEMENT_3D ( 'NONE', #284, #262, #152 ) ;
#207 = DIRECTION ( 'NONE',  ( -1.000000000000000000, 0.0000000000000000000, 0.0000000000000000000 ) ) ;
#208 = SURFACE_SIDE_STYLE ('',( #23 ) ) ;
#209 = ADVANCED_FACE ( 'NONE', ( #117 ), #174, .T. ) ;
#210 = PRESENTATION_STYLE_ASSIGNMENT (( #233 ) ) ;
#211 = VERTEX_POINT ( 'NONE', #253 ) ;
#212 = EDGE_CURVE ( 'NONE', #140, #171, #141, .T. ) ;
#213 = ORIENTED_EDGE ( 'NONE', *, *, #26, .T. ) ;
#214 = CARTESIAN_POINT ( 'NONE',  ( 0.0000000000000000000, 0.0000000000000000000, 1.984999999999999432 ) ) ;
#215 = ORIENTED_EDGE ( 'NONE', *, *, #97, .T. ) ;
#216 = FACE_OUTER_BOUND ( 'NONE', #81, .T. ) ;
#217 = PLANE ( 'NONE',  #203 ) ;
#218 = VECTOR ( 'NONE', #101, 39.37007874015748143 ) ;
#219 = LINE ( 'NONE', #12, #151 ) ;
#220 = DIRECTION ( 'NONE',  ( -1.000000000000000000, 0.0000000000000000000, 1.224646799147353454E-16 ) ) ;
#221 = DIRECTION ( 'NONE',  ( -1.224646799147353207E-16, -0.0000000000000000000, -1.000000000000000000 ) ) ;
#222 = FACE_OUTER_BOUND ( 'NONE', #287, .T. ) ;
#223 = UNCERTAINTY_MEASURE_WITH_UNIT (LENGTH_MEASURE( 1.000000000000000082E-05 ), #231, 'distance_accuracy_value', 'NONE');
#224 = DIMENSIONAL_EXPONENTS ( 1.000000000000000000, 0.0000000000000000000, 0.0000000000000000000, 0.0000000000000000000, 0.0000000000000000000, 0.0000000000000000000, 0.0000000000000000000 ) ;
#225 = LENGTH_MEASURE_WITH_UNIT ( LENGTH_MEASURE( 0.02539999999999999897 ), #77 );
#226 = EDGE_LOOP ( 'NONE', ( #4, #87, #84, #263 ) ) ;
#227 =( LENGTH_UNIT ( ) NAMED_UNIT ( * ) SI_UNIT ( $, .METRE. ) );
#228 = MECHANICAL_DESIGN_GEOMETRIC_PRESENTATION_REPRESENTATION (  '', ( #163 ), #241 ) ;
#229 = EDGE_CURVE ( 'NONE', #211, #105, #25, .T. ) ;
#230 = CARTESIAN_POINT ( 'NONE',  ( 0.0000000000000000000, 0.0000000000000000000, 2.000000000000000000 ) ) ;
#231 =( CONVERSION_BASED_UNIT ( 'INCH', #144 ) LENGTH_UNIT ( ) NAMED_UNIT ( #122 ) );
#232 = CARTESIAN_POINT ( 'NONE',  ( 0.1248750000000000693, 0.0000000000000000000, 0.5000000000000000000 ) ) ;
#233 = SURFACE_STYLE_USAGE ( .BOTH. , #29 ) ;
#234 = VERTEX_POINT ( 'NONE', #50 ) ;
#235 = MANIFOLD_SOLID_BREP ( 'Cut-Revolve1', #65 ) ;
#236 =( LENGTH_UNIT ( ) NAMED_UNIT ( * ) SI_UNIT ( $, .METRE. ) );
#237 = ADVANCED_FACE ( 'NONE', ( #98 ), #280, .T. ) ;
#238 = VERTEX_POINT ( 'NONE', #205 ) ;
#239 = FILL_AREA_STYLE ('',( #86 ) ) ;
#240 = DIRECTION ( 'NONE',  ( 0.0000000000000000000, 0.0000000000000000000, -1.000000000000000000 ) ) ;
#241 =( GEOMETRIC_REPRESENTATION_CONTEXT ( 3 ) GLOBAL_UNCERTAINTY_ASSIGNED_CONTEXT ( ( #59 ) ) GLOBAL_UNIT_ASSIGNED_CONTEXT ( ( #185, #254, #47 ) ) REPRESENTATION_CONTEXT ( 'NONE', 'WORKASPACE' ) );
#242 = DIRECTION ( 'NONE',  ( -1.000000000000000000, 0.0000000000000000000, 0.0000000000000000000 ) ) ;
#243 = DIRECTION ( 'NONE',  ( 1.000000000000000000, 0.0000000000000000000, 0.0000000000000000000 ) ) ;
#244 = CARTESIAN_POINT ( 'NONE',  ( -0.1249999999999999306, 0.0000000000000000000, 0.5007089102274522308 ) ) ;
#245 = EDGE_CURVE ( 'NONE', #6, #238, #21, .T. ) ;
#246 = CARTESIAN_POINT ( 'NONE',  ( 6.131915642146087268E-17, 0.0000000000000000000, 0.5007089102274522308 ) ) ;
#247 = FACE_OUTER_BOUND ( 'NONE', #128, .T. ) ;
#248 = CARTESIAN_POINT ( 'NONE',  ( 0.1250000000000000555, 1.530808498934192125E-17, 0.5007089102274522308 ) ) ;
#249 = AXIS2_PLACEMENT_3D ( 'NONE', #158, #42, #96 ) ;
#250 = CARTESIAN_POINT ( 'NONE',  ( 6.123233995736766036E-17, 0.0000000000000000000, 0.5000000000000000000 ) ) ;
#251 = ORIENTED_EDGE ( 'NONE', *, *, #258, .F. ) ;
#252 = UNCERTAINTY_MEASURE_WITH_UNIT (LENGTH_MEASURE( 1.000000000000000082E-05 ), #298, 'distance_accuracy_value', 'NONE');
#253 = CARTESIAN_POINT ( 'NONE',  ( -0.1099999999999996397, 0.0000000000000000000, 2.000000000000000000 ) ) ;
#254 =( NAMED_UNIT ( * ) PLANE_ANGLE_UNIT ( ) SI_UNIT ( $, .RADIAN. ) );
#255 = FACE_OUTER_BOUND ( 'NONE', #285, .T. ) ;
#256 = DIRECTION ( 'NONE',  ( -1.000000000000000000, 0.0000000000000000000, 0.0000000000000000000 ) ) ;
#257 = ORIENTED_EDGE ( 'NONE', *, *, #229, .F. ) ;
#258 = EDGE_CURVE ( 'NONE', #140, #6, #129, .T. ) ;
#259 = DIRECTION ( 'NONE',  ( 0.1736481776669314137, 0.0000000000000000000, 0.9848077530122077983 ) ) ;
#260 = AXIS2_PLACEMENT_3D ( 'NONE', #177, #116, #220 ) ;
#261 = ADVANCED_FACE ( 'NONE', ( #255 ), #55, .T. ) ;
#262 = DIRECTION ( 'NONE',  ( 0.0000000000000000000, 0.0000000000000000000, 1.000000000000000000 ) ) ;
#263 = ORIENTED_EDGE ( 'NONE', *, *, #61, .F. ) ;
#264 = DIRECTION ( 'NONE',  ( 1.000000000000000000, 0.0000000000000000000, 0.0000000000000000000 ) ) ;
#265 = APPLICATION_PROTOCOL_DEFINITION ( 'draft international standard', 'automotive_design', 1998, #274 ) ;
#266 = ORIENTED_EDGE ( 'NONE', *, *, #97, .F. ) ;
#267 = STYLED_ITEM ( 'NONE', ( #210 ), #88 ) ;
#268 = AXIS2_PLACEMENT_3D ( 'NONE', #214, #7, #264 ) ;
#269 = FACE_OUTER_BOUND ( 'NONE', #195, .T. ) ;
#270 = DIRECTION ( 'NONE',  ( 1.000000000000000000, 0.0000000000000000000, -0.0000000000000000000 ) ) ;
#271 = CARTESIAN_POINT ( 'NONE',  ( 6.131915642146087268E-17, 0.0000000000000000000, 0.5007089102274522308 ) ) ;
#272 = VECTOR ( 'NONE', #259, 39.37007874015748143 ) ;
#273 = CARTESIAN_POINT ( 'NONE',  ( 1.872825028598994811E-33, 0.0000000000000000000, 1.529277690435257475E-17 ) ) ;
#274 = APPLICATION_CONTEXT ( 'automotive_design' ) ;
#275 = DIRECTION ( 'NONE',  ( 1.000000000000000000, 0.0000000000000000000, -0.0000000000000000000 ) ) ;
#276 = DIRECTION ( 'NONE',  ( -1.224646799147353207E-16, -0.0000000000000000000, -1.000000000000000000 ) ) ;
#277 = AXIS2_PLACEMENT_3D ( 'NONE', #250, #276, #48 ) ;
#278 = PRODUCT_DEFINITION_SHAPE ( 'NONE', 'NONE',  #73 ) ;
#279 = FILL_AREA_STYLE ('',( #119 ) ) ;
#280 = CYLINDRICAL_SURFACE ( 'NONE', #112, 0.1250000000000000000 ) ;
#281 = AXIS2_PLACEMENT_3D ( 'NONE', #204, #38, #275 ) ;
#282 = VERTEX_POINT ( 'NONE', #139 ) ;
#283 = EDGE_LOOP ( 'NONE', ( #127, #213, #53, #104 ) ) ;
#284 = CARTESIAN_POINT ( 'NONE',  ( 0.0000000000000000000, 0.0000000000000000000, 0.0000000000000000000 ) ) ;
#285 = EDGE_LOOP ( 'NONE', ( #19, #288, #109, #82 ) ) ;
#286 = COLOUR_RGB ( '',0.7921568627450980005, 0.8196078431372548767, 0.9333333333333333481 ) ;
#287 = EDGE_LOOP ( 'NONE', ( #215, #118 ) ) ;
#288 = ORIENTED_EDGE ( 'NONE', *, *, #20, .F. ) ;
#289 = LINE ( 'NONE', #232, #272 ) ;
#290 = CIRCLE ( 'NONE', #249, 0.1250000000000000000 ) ;
#291 = AXIS2_PLACEMENT_3D ( 'NONE', #167, #153, #242 ) ;
#292 = CARTESIAN_POINT ( 'NONE',  ( 0.0000000000000000000, 0.0000000000000000000, 0.0000000000000000000 ) ) ;
#293 = CARTESIAN_POINT ( 'NONE',  ( 0.0000000000000000000, 0.0000000000000000000, 2.000000000000000000 ) ) ;
#294 = DIRECTION ( 'NONE',  ( 0.7071067811865434649, 8.659560562354883554E-17, -0.7071067811865515695 ) ) ;
#295 = AXIS2_PLACEMENT_3D ( 'NONE', #296, #179, #136 ) ;
#296 = CARTESIAN_POINT ( 'NONE',  ( 0.0000000000000000000, 0.0000000000000000000, 0.0000000000000000000 ) ) ;
#297 = DIRECTION ( 'NONE',  ( -0.0000000000000000000, -0.0000000000000000000, -1.000000000000000000 ) ) ;
#298 =( CONVERSION_BASED_UNIT ( 'INCH', #123 ) LENGTH_UNIT ( ) NAMED_UNIT ( #183 ) );
#299 = EDGE_LOOP ( 'NONE', ( #172, #169, #28, #107 ) ) ;
ENDSEC;
END-ISO-10303-21;
