ISO-10303-21;
HEADER;
FILE_DESCRIPTION (( 'STEP AP214' ),
    '1' );
FILE_NAME ('81643.STEP',
    '2023-06-23T02:21:20',
    ( '' ),
    ( '' ),
    'SwSTEP 2.0',
    'SolidWorks 2023',
    '' );
FILE_SCHEMA (( 'AUTOMOTIVE_DESIGN' ));
ENDSEC;

DATA;
#1 = FACE_OUTER_BOUND ( 'NONE', #49, .T. ) ;
#2 = DIRECTION ( 'NONE',  ( -0.000000000000000000, -1.000000000000000000, -0.000000000000000000 ) ) ;
#3 = STYLED_ITEM ( 'NONE', ( #156 ), #170 ) ;
#4 = UNCERTAINTY_MEASURE_WITH_UNIT (LENGTH_MEASURE( 1.000000000000000082E-05 ), #278, 'distance_accuracy_value', 'NONE');
#5 = DIRECTION ( 'NONE',  ( -4.082155997157848133E-17, -1.000000000000000000, 0.000000000000000000 ) ) ;
#6 = CYLINDRICAL_SURFACE ( 'NONE', #205, 0.1562500000000000000 ) ;
#7 = PRODUCT ( '81643', '81643', '', ( #181 ) ) ;
#8 = CARTESIAN_POINT ( 'NONE',  ( 0.000000000000000000, 1.000000000000000000, 0.000000000000000000 ) ) ;
#9 = AXIS2_PLACEMENT_3D ( 'NONE', #193, #281, #89 ) ;
#10 = FILL_AREA_STYLE ('',( #82 ) ) ;
#11 = LINE ( 'NONE', #201, #57 ) ;
#12 = DIRECTION ( 'NONE',  ( -1.000000000000000000, 0.000000000000000000, 0.000000000000000000 ) ) ;
#13 = ADVANCED_FACE ( 'NONE', ( #1 ), #6, .T. ) ;
#14 =( NAMED_UNIT ( * ) PLANE_ANGLE_UNIT ( ) SI_UNIT ( $, .RADIAN. ) );
#15 = PRESENTATION_LAYER_ASSIGNMENT (  '', '', ( #122 ) ) ;
#16 = UNCERTAINTY_MEASURE_WITH_UNIT (LENGTH_MEASURE( 1.000000000000000082E-05 ), #260, 'distance_accuracy_value', 'NONE');
#17 = DIRECTION ( 'NONE',  ( -0.000000000000000000, -1.000000000000000000, -0.000000000000000000 ) ) ;
#18 = ORIENTED_EDGE ( 'NONE', *, *, #265, .F. ) ;
#19 = CARTESIAN_POINT ( 'NONE',  ( 0.000000000000000000, 0.000000000000000000, -0.1562500000000000000 ) ) ;
#20 =( GEOMETRIC_REPRESENTATION_CONTEXT ( 3 ) GLOBAL_UNCERTAINTY_ASSIGNED_CONTEXT ( ( #159 ) ) GLOBAL_UNIT_ASSIGNED_CONTEXT ( ( #116, #94, #190 ) ) REPRESENTATION_CONTEXT ( 'NONE', 'WORKASPACE' ) );
#21 = PRESENTATION_LAYER_ASSIGNMENT (  '', '', ( #286 ) ) ;
#22 = SURFACE_SIDE_STYLE ('',( #30 ) ) ;
#23 = DIRECTION ( 'NONE',  ( 4.082155997157848133E-17, 1.000000000000000000, -0.000000000000000000 ) ) ;
#24 = ORIENTED_EDGE ( 'NONE', *, *, #221, .T. ) ;
#25 = SURFACE_SIDE_STYLE ('',( #233 ) ) ;
#26 = CARTESIAN_POINT ( 'NONE',  ( 0.000000000000000000, 1.000000000000000000, 0.000000000000000000 ) ) ;
#27 =( NAMED_UNIT ( * ) SI_UNIT ( $, .STERADIAN. ) SOLID_ANGLE_UNIT ( ) );
#28 = FILL_AREA_STYLE ('',( #74 ) ) ;
#29 = FACE_OUTER_BOUND ( 'NONE', #296, .T. ) ;
#30 = SURFACE_STYLE_FILL_AREA ( #28 ) ;
#31 = APPLICATION_CONTEXT ( 'automotive_design' ) ;
#32 = CYLINDRICAL_SURFACE ( 'NONE', #236, 0.1562500000000000000 ) ;
#33 = CARTESIAN_POINT ( 'NONE',  ( 0.000000000000000000, 1.000000000000000000, 0.000000000000000000 ) ) ;
#34 = EDGE_CURVE ( 'NONE', #249, #269, #35, .T. ) ;
#35 = LINE ( 'NONE', #81, #178 ) ;
#36 =( NAMED_UNIT ( * ) PLANE_ANGLE_UNIT ( ) SI_UNIT ( $, .RADIAN. ) );
#37 = EDGE_LOOP ( 'NONE', ( #263, #112, #77, #237 ) ) ;
#38 =( GEOMETRIC_REPRESENTATION_CONTEXT ( 3 ) GLOBAL_UNCERTAINTY_ASSIGNED_CONTEXT ( ( #208 ) ) GLOBAL_UNIT_ASSIGNED_CONTEXT ( ( #274, #291, #128 ) ) REPRESENTATION_CONTEXT ( 'NONE', 'WORKASPACE' ) );
#39 = DIRECTION ( 'NONE',  ( 4.082155997157848133E-17, 1.000000000000000000, -0.000000000000000000 ) ) ;
#40 =( LENGTH_UNIT ( ) NAMED_UNIT ( * ) SI_UNIT ( $, .METRE. ) );
#41 = EDGE_CURVE ( 'NONE', #241, #198, #289, .T. ) ;
#42 = DIRECTION ( 'NONE',  ( 4.082155997157848133E-17, 1.000000000000000000, -0.000000000000000000 ) ) ;
#43 = PRESENTATION_STYLE_ASSIGNMENT (( #220 ) ) ;
#44 = DIRECTION ( 'NONE',  ( -0.000000000000000000, -1.000000000000000000, -0.000000000000000000 ) ) ;
#45 =( GEOMETRIC_REPRESENTATION_CONTEXT ( 3 ) GLOBAL_UNCERTAINTY_ASSIGNED_CONTEXT ( ( #4 ) ) GLOBAL_UNIT_ASSIGNED_CONTEXT ( ( #278, #162, #277 ) ) REPRESENTATION_CONTEXT ( 'NONE', 'WORKASPACE' ) );
#46 = DIRECTION ( 'NONE',  ( -1.000000000000000000, 0.000000000000000000, 0.000000000000000000 ) ) ;
#47 = STYLED_ITEM ( 'NONE', ( #43 ), #13 ) ;
#48 = ADVANCED_BREP_SHAPE_REPRESENTATION ( '81643', ( #58, #174, #168 ), #38 ) ;
#49 = EDGE_LOOP ( 'NONE', ( #267, #204, #257, #134 ) ) ;
#50 = CARTESIAN_POINT ( 'NONE',  ( 0.1562500000000000000, 2.500000000000000000, 0.000000000000000000 ) ) ;
#51 = MECHANICAL_DESIGN_GEOMETRIC_PRESENTATION_REPRESENTATION (  '', ( #70 ), #309 ) ;
#52 = ORIENTED_EDGE ( 'NONE', *, *, #34, .F. ) ;
#53 = EDGE_LOOP ( 'NONE', ( #224, #91 ) ) ;
#54 = PRESENTATION_STYLE_ASSIGNMENT (( #184 ) ) ;
#55 = DIRECTION ( 'NONE',  ( 4.082155997157848133E-17, 1.000000000000000000, -0.000000000000000000 ) ) ;
#56 =( LENGTH_UNIT ( ) NAMED_UNIT ( * ) SI_UNIT ( $, .METRE. ) );
#57 = VECTOR ( 'NONE', #154, 39.37007874015748143 ) ;
#58 = MANIFOLD_SOLID_BREP ( 'Revolve - Cutting Edge', #114 ) ;
#59 = SURFACE_STYLE_FILL_AREA ( #10 ) ;
#60 = ORIENTED_EDGE ( 'NONE', *, *, #120, .T. ) ;
#61 = DIMENSIONAL_EXPONENTS ( 1.000000000000000000, 0.000000000000000000, 0.000000000000000000, 0.000000000000000000, 0.000000000000000000, 0.000000000000000000, 0.000000000000000000 ) ;
#62 = ORIENTED_EDGE ( 'NONE', *, *, #202, .F. ) ;
#63 = CYLINDRICAL_SURFACE ( 'NONE', #303, 0.1562499999999999722 ) ;
#64 = EDGE_CURVE ( 'NONE', #138, #269, #195, .T. ) ;
#65 = CYLINDRICAL_SURFACE ( 'NONE', #232, 0.1562499999999999722 ) ;
#66 = FILL_AREA_STYLE ('',( #284 ) ) ;
#67 = AXIS2_PLACEMENT_3D ( 'NONE', #50, #5, #298 ) ;
#68 = AXIS2_PLACEMENT_3D ( 'NONE', #33, #17, #153 ) ;
#69 = LENGTH_MEASURE_WITH_UNIT ( LENGTH_MEASURE( 0.02539999999999999897 ), #56 );
#70 = STYLED_ITEM ( 'NONE', ( #210 ), #280 ) ;
#71 =( LENGTH_UNIT ( ) NAMED_UNIT ( * ) SI_UNIT ( $, .METRE. ) );
#72 = VERTEX_POINT ( 'NONE', #247 ) ;
#73 = CIRCLE ( 'NONE', #300, 0.1562500000000000000 ) ;
#74 = FILL_AREA_STYLE_COLOUR ( '', #197 ) ;
#75 = AXIS2_PLACEMENT_3D ( 'NONE', #189, #42, #90 ) ;
#76 = CARTESIAN_POINT ( 'NONE',  ( 0.000000000000000000, 0.000000000000000000, 0.000000000000000000 ) ) ;
#77 = ORIENTED_EDGE ( 'NONE', *, *, #120, .F. ) ;
#78 = DIRECTION ( 'NONE',  ( -0.000000000000000000, -1.000000000000000000, -0.000000000000000000 ) ) ;
#79 = PRODUCT_DEFINITION_SHAPE ( 'NONE', 'NONE',  #146 ) ;
#80 = PLANE ( 'NONE',  #219 ) ;
#81 = CARTESIAN_POINT ( 'NONE',  ( -0.1562499999999999167, 2.500000000000000000, 0.000000000000000000 ) ) ;
#82 = FILL_AREA_STYLE_COLOUR ( '', #141 ) ;
#83 = DIRECTION ( 'NONE',  ( 0.000000000000000000, 0.000000000000000000, -1.000000000000000000 ) ) ;
#84 =( NAMED_UNIT ( * ) SI_UNIT ( $, .STERADIAN. ) SOLID_ANGLE_UNIT ( ) );
#85 = ADVANCED_FACE ( 'NONE', ( #163 ), #123, .F. ) ;
#86 = DIRECTION ( 'NONE',  ( 4.082155997157848133E-17, 1.000000000000000000, -0.000000000000000000 ) ) ;
#87 = COLOUR_RGB ( '',1.000000000000000000, 0.000000000000000000, 0.000000000000000000 ) ;
#88 = MECHANICAL_DESIGN_GEOMETRIC_PRESENTATION_REPRESENTATION (  '', ( #286 ), #261 ) ;
#89 = DIRECTION ( 'NONE',  ( -1.000000000000000000, 0.000000000000000000, 0.000000000000000000 ) ) ;
#90 = DIRECTION ( 'NONE',  ( -1.000000000000000000, 4.082155997157848133E-17, 0.000000000000000000 ) ) ;
#91 = ORIENTED_EDGE ( 'NONE', *, *, #64, .T. ) ;
#92 = PLANE ( 'NONE',  #75 ) ;
#93 = PRESENTATION_LAYER_ASSIGNMENT (  '', '', ( #107 ) ) ;
#94 =( NAMED_UNIT ( * ) PLANE_ANGLE_UNIT ( ) SI_UNIT ( $, .RADIAN. ) );
#95 = DIRECTION ( 'NONE',  ( 0.000000000000000000, -0.000000000000000000, 1.000000000000000000 ) ) ;
#96 = CIRCLE ( 'NONE', #293, 0.1562500000000000000 ) ;
#97 =( CONVERSION_BASED_UNIT ( 'INCH', #234 ) LENGTH_UNIT ( ) NAMED_UNIT ( #279 ) );
#98 = SURFACE_SIDE_STYLE ('',( #270 ) ) ;
#99 = DIRECTION ( 'NONE',  ( 0.000000000000000000, 0.000000000000000000, 1.000000000000000000 ) ) ;
#100 = SURFACE_STYLE_FILL_AREA ( #228 ) ;
#101 = CARTESIAN_POINT ( 'NONE',  ( 0.000000000000000000, 0.000000000000000000, 0.000000000000000000 ) ) ;
#102 = VERTEX_POINT ( 'NONE', #245 ) ;
#103 = SURFACE_SIDE_STYLE ('',( #100 ) ) ;
#104 = DIRECTION ( 'NONE',  ( 0.000000000000000000, 0.000000000000000000, -1.000000000000000000 ) ) ;
#105 = UNCERTAINTY_MEASURE_WITH_UNIT (LENGTH_MEASURE( 1.000000000000000082E-05 ), #203, 'distance_accuracy_value', 'NONE');
#106 = APPLICATION_PROTOCOL_DEFINITION ( 'draft international standard', 'automotive_design', 1998, #31 ) ;
#107 = STYLED_ITEM ( 'NONE', ( #295 ), #174 ) ;
#108 = COLOUR_RGB ( '',1.000000000000000000, 0.000000000000000000, 0.000000000000000000 ) ;
#109 = ORIENTED_EDGE ( 'NONE', *, *, #34, .T. ) ;
#110 = EDGE_CURVE ( 'NONE', #72, #138, #11, .T. ) ;
#111 = SURFACE_STYLE_USAGE ( .BOTH. , #103 ) ;
#112 = ORIENTED_EDGE ( 'NONE', *, *, #297, .T. ) ;
#113 = CARTESIAN_POINT ( 'NONE',  ( -7.582401355855259480E-33, 1.000000000000000000, 0.000000000000000000 ) ) ;
#114 = CLOSED_SHELL ( 'NONE', ( #182, #280, #13, #170 ) ) ;
#115 = DIRECTION ( 'NONE',  ( -1.000000000000000000, 0.000000000000000000, 0.000000000000000000 ) ) ;
#116 =( CONVERSION_BASED_UNIT ( 'INCH', #69 ) LENGTH_UNIT ( ) NAMED_UNIT ( #294 ) );
#117 = DIRECTION ( 'NONE',  ( -1.000000000000000000, 0.000000000000000000, 0.000000000000000000 ) ) ;
#118 = SURFACE_STYLE_USAGE ( .BOTH. , #25 ) ;
#119 = DIRECTION ( 'NONE',  ( 0.000000000000000000, 1.000000000000000000, 0.000000000000000000 ) ) ;
#120 = EDGE_CURVE ( 'NONE', #198, #241, #73, .T. ) ;
#121 =( LENGTH_UNIT ( ) NAMED_UNIT ( * ) SI_UNIT ( $, .METRE. ) );
#122 = STYLED_ITEM ( 'NONE', ( #54 ), #58 ) ;
#123 = PLANE ( 'NONE',  #67 ) ;
#124 = SHAPE_DEFINITION_REPRESENTATION ( #79, #48 ) ;
#125 =( LENGTH_UNIT ( ) NAMED_UNIT ( * ) SI_UNIT ( $, .METRE. ) );
#126 = CARTESIAN_POINT ( 'NONE',  ( 0.000000000000000000, 0.000000000000000000, 0.000000000000000000 ) ) ;
#127 = CLOSED_SHELL ( 'NONE', ( #191, #229, #214, #85 ) ) ;
#128 =( NAMED_UNIT ( * ) SI_UNIT ( $, .STERADIAN. ) SOLID_ANGLE_UNIT ( ) );
#129 =( GEOMETRIC_REPRESENTATION_CONTEXT ( 3 ) GLOBAL_UNCERTAINTY_ASSIGNED_CONTEXT ( ( #105 ) ) GLOBAL_UNIT_ASSIGNED_CONTEXT ( ( #203, #14, #207 ) ) REPRESENTATION_CONTEXT ( 'NONE', 'WORKASPACE' ) );
#130 = EDGE_LOOP ( 'NONE', ( #213, #24, #109, #301 ) ) ;
#131 = EDGE_CURVE ( 'NONE', #102, #273, #276, .T. ) ;
#132 = LENGTH_MEASURE_WITH_UNIT ( LENGTH_MEASURE( 0.02539999999999999897 ), #272 );
#133 = DIRECTION ( 'NONE',  ( 0.000000000000000000, -1.000000000000000000, -0.000000000000000000 ) ) ;
#134 = ORIENTED_EDGE ( 'NONE', *, *, #41, .F. ) ;
#135 =( CONVERSION_BASED_UNIT ( 'INCH', #166 ) LENGTH_UNIT ( ) NAMED_UNIT ( #61 ) );
#136 = SURFACE_STYLE_USAGE ( .BOTH. , #183 ) ;
#137 = MECHANICAL_DESIGN_GEOMETRIC_PRESENTATION_REPRESENTATION (  '', ( #107 ), #129 ) ;
#138 = VERTEX_POINT ( 'NONE', #250 ) ;
#139 = LINE ( 'NONE', #19, #227 ) ;
#140 = CARTESIAN_POINT ( 'NONE',  ( -7.582401355855259480E-33, 1.000000000000000000, 0.000000000000000000 ) ) ;
#141 = COLOUR_RGB ( '',1.000000000000000000, 0.000000000000000000, 0.000000000000000000 ) ;
#142 = ORIENTED_EDGE ( 'NONE', *, *, #110, .T. ) ;
#143 =( NAMED_UNIT ( * ) PLANE_ANGLE_UNIT ( ) SI_UNIT ( $, .RADIAN. ) );
#144 = FACE_OUTER_BOUND ( 'NONE', #180, .T. ) ;
#145 = VECTOR ( 'NONE', #2, 39.37007874015748143 ) ;
#146 = PRODUCT_DEFINITION ( 'UNKNOWN', '', #218, #264 ) ;
#147 = SURFACE_STYLE_FILL_AREA ( #150 ) ;
#148 = ORIENTED_EDGE ( 'NONE', *, *, #221, .F. ) ;
#149 = CIRCLE ( 'NONE', #268, 0.1562500000000000000 ) ;
#150 = FILL_AREA_STYLE ('',( #177 ) ) ;
#151 = PRODUCT_RELATED_PRODUCT_CATEGORY ( 'part', '', ( #7 ) ) ;
#152 = DIMENSIONAL_EXPONENTS ( 1.000000000000000000, 0.000000000000000000, 0.000000000000000000, 0.000000000000000000, 0.000000000000000000, 0.000000000000000000, 0.000000000000000000 ) ;
#153 = DIRECTION ( 'NONE',  ( 0.000000000000000000, 0.000000000000000000, -1.000000000000000000 ) ) ;
#154 = DIRECTION ( 'NONE',  ( 4.082155997157848133E-17, 1.000000000000000000, -0.000000000000000000 ) ) ;
#155 = MECHANICAL_DESIGN_GEOMETRIC_PRESENTATION_REPRESENTATION (  '', ( #122 ), #20 ) ;
#156 = PRESENTATION_STYLE_ASSIGNMENT (( #136 ) ) ;
#157 = DIRECTION ( 'NONE',  ( -0.000000000000000000, -1.000000000000000000, -0.000000000000000000 ) ) ;
#158 = DIMENSIONAL_EXPONENTS ( 1.000000000000000000, 0.000000000000000000, 0.000000000000000000, 0.000000000000000000, 0.000000000000000000, 0.000000000000000000, 0.000000000000000000 ) ;
#159 = UNCERTAINTY_MEASURE_WITH_UNIT (LENGTH_MEASURE( 1.000000000000000082E-05 ), #116, 'distance_accuracy_value', 'NONE');
#160 = ORIENTED_EDGE ( 'NONE', *, *, #131, .F. ) ;
#161 = CARTESIAN_POINT ( 'NONE',  ( 6.123233995736772199E-17, 2.500000000000000000, 0.000000000000000000 ) ) ;
#162 =( NAMED_UNIT ( * ) PLANE_ANGLE_UNIT ( ) SI_UNIT ( $, .RADIAN. ) );
#163 = FACE_OUTER_BOUND ( 'NONE', #53, .T. ) ;
#164 = CARTESIAN_POINT ( 'NONE',  ( 0.000000000000000000, 0.000000000000000000, 0.000000000000000000 ) ) ;
#165 = ORIENTED_EDGE ( 'NONE', *, *, #41, .T. ) ;
#166 = LENGTH_MEASURE_WITH_UNIT ( LENGTH_MEASURE( 0.02539999999999999897 ), #121 );
#167 = CARTESIAN_POINT ( 'NONE',  ( 1.913510623667739463E-17, 1.000000000000000000, 0.1562500000000000000 ) ) ;
#168 = AXIS2_PLACEMENT_3D ( 'NONE', #242, #99, #271 ) ;
#169 = CARTESIAN_POINT ( 'NONE',  ( -0.1562499999999998612, 2.500000000000000000, 0.000000000000000000 ) ) ;
#170 = ADVANCED_FACE ( 'NONE', ( #29 ), #80, .T. ) ;
#171 = DIRECTION ( 'NONE',  ( 0.000000000000000000, 0.000000000000000000, -1.000000000000000000 ) ) ;
#172 = CARTESIAN_POINT ( 'NONE',  ( -0.1562500000000000000, 1.000000000000000000, 0.000000000000000000 ) ) ;
#173 = COLOUR_RGB ( '',0.7921568627450980005, 0.8196078431372548767, 0.9333333333333333481 ) ;
#174 = MANIFOLD_SOLID_BREP ( 'Revolve - Tool Body (Straight Shanked)', #127 ) ;
#175 = CIRCLE ( 'NONE', #9, 0.1562499999999999445 ) ;
#176 = EDGE_CURVE ( 'NONE', #273, #102, #179, .T. ) ;
#177 = FILL_AREA_STYLE_COLOUR ( '', #87 ) ;
#178 = VECTOR ( 'NONE', #39, 39.37007874015748143 ) ;
#179 = CIRCLE ( 'NONE', #68, 0.1562500000000000000 ) ;
#180 = EDGE_LOOP ( 'NONE', ( #160, #239 ) ) ;
#181 = PRODUCT_CONTEXT ( 'NONE', #290, 'mechanical' ) ;
#182 = ADVANCED_FACE ( 'NONE', ( #240 ), #32, .T. ) ;
#183 = SURFACE_SIDE_STYLE ('',( #59 ) ) ;
#184 = SURFACE_STYLE_USAGE ( .BOTH. , #22 ) ;
#185 = DIRECTION ( 'NONE',  ( 0.000000000000000000, 0.000000000000000000, -1.000000000000000000 ) ) ;
#186 = DIMENSIONAL_EXPONENTS ( 1.000000000000000000, 0.000000000000000000, 0.000000000000000000, 0.000000000000000000, 0.000000000000000000, 0.000000000000000000, 0.000000000000000000 ) ;
#187 = FILL_AREA_STYLE_COLOUR ( '', #173 ) ;
#188 =( NAMED_UNIT ( * ) SI_UNIT ( $, .STERADIAN. ) SOLID_ANGLE_UNIT ( ) );
#189 = CARTESIAN_POINT ( 'NONE',  ( 1.301874811338420699E-34, 1.000000000000000000, 0.000000000000000000 ) ) ;
#190 =( NAMED_UNIT ( * ) SI_UNIT ( $, .STERADIAN. ) SOLID_ANGLE_UNIT ( ) );
#191 = ADVANCED_FACE ( 'NONE', ( #305 ), #65, .T. ) ;
#192 = CARTESIAN_POINT ( 'NONE',  ( 0.000000000000000000, 0.000000000000000000, 0.000000000000000000 ) ) ;
#193 = CARTESIAN_POINT ( 'NONE',  ( 6.123233995736772199E-17, 2.500000000000000000, 0.000000000000000000 ) ) ;
#194 = MECHANICAL_DESIGN_GEOMETRIC_PRESENTATION_REPRESENTATION (  '', ( #47 ), #266 ) ;
#195 = CIRCLE ( 'NONE', #216, 0.1562499999999999445 ) ;
#196 =( NAMED_UNIT ( * ) PLANE_ANGLE_UNIT ( ) SI_UNIT ( $, .RADIAN. ) );
#197 = COLOUR_RGB ( '',0.7921568627450980005, 0.8196078431372548767, 0.9333333333333333481 ) ;
#198 = VERTEX_POINT ( 'NONE', #262 ) ;
#199 = DIRECTION ( 'NONE',  ( -0.000000000000000000, -1.000000000000000000, -0.000000000000000000 ) ) ;
#200 = APPLICATION_PROTOCOL_DEFINITION ( 'draft international standard', 'automotive_design', 1998, #290 ) ;
#201 = CARTESIAN_POINT ( 'NONE',  ( 0.1562500000000000278, 2.500000000000000000, 1.913510623667738847E-17 ) ) ;
#202 = EDGE_CURVE ( 'NONE', #269, #138, #175, .T. ) ;
#203 =( CONVERSION_BASED_UNIT ( 'INCH', #132 ) LENGTH_UNIT ( ) NAMED_UNIT ( #152 ) );
#204 = ORIENTED_EDGE ( 'NONE', *, *, #176, .T. ) ;
#205 = AXIS2_PLACEMENT_3D ( 'NONE', #126, #199, #104 ) ;
#206 = AXIS2_PLACEMENT_3D ( 'NONE', #26, #119, #95 ) ;
#207 =( NAMED_UNIT ( * ) SI_UNIT ( $, .STERADIAN. ) SOLID_ANGLE_UNIT ( ) );
#208 = UNCERTAINTY_MEASURE_WITH_UNIT (LENGTH_MEASURE( 1.000000000000000082E-05 ), #274, 'distance_accuracy_value', 'NONE');
#209 = PRESENTATION_STYLE_ASSIGNMENT (( #111 ) ) ;
#210 = PRESENTATION_STYLE_ASSIGNMENT (( #118 ) ) ;
#211 = EDGE_LOOP ( 'NONE', ( #251, #142, #62, #52 ) ) ;
#212 = DIRECTION ( 'NONE',  ( -0.000000000000000000, -1.000000000000000000, -0.000000000000000000 ) ) ;
#213 = ORIENTED_EDGE ( 'NONE', *, *, #110, .F. ) ;
#214 = ADVANCED_FACE ( 'NONE', ( #302 ), #63, .T. ) ;
#215 = DIRECTION ( 'NONE',  ( 4.082155997157848133E-17, 1.000000000000000000, -0.000000000000000000 ) ) ;
#216 = AXIS2_PLACEMENT_3D ( 'NONE', #161, #55, #12 ) ;
#217 = UNCERTAINTY_MEASURE_WITH_UNIT (LENGTH_MEASURE( 1.000000000000000082E-05 ), #135, 'distance_accuracy_value', 'NONE');
#218 = PRODUCT_DEFINITION_FORMATION_WITH_SPECIFIED_SOURCE ( 'ANY', '', #7, .NOT_KNOWN. ) ;
#219 = AXIS2_PLACEMENT_3D ( 'NONE', #164, #133, #185 ) ;
#220 = SURFACE_STYLE_USAGE ( .BOTH. , #238 ) ;
#221 = EDGE_CURVE ( 'NONE', #72, #249, #149, .T. ) ;
#222 = PRESENTATION_LAYER_ASSIGNMENT (  '', '', ( #47 ) ) ;
#223 = FILL_AREA_STYLE_COLOUR ( '', #108 ) ;
#224 = ORIENTED_EDGE ( 'NONE', *, *, #202, .T. ) ;
#225 = DIRECTION ( 'NONE',  ( 0.000000000000000000, 0.000000000000000000, -1.000000000000000000 ) ) ;
#226 = EDGE_LOOP ( 'NONE', ( #18, #148 ) ) ;
#227 = VECTOR ( 'NONE', #44, 39.37007874015748143 ) ;
#228 = FILL_AREA_STYLE ('',( #223 ) ) ;
#229 = ADVANCED_FACE ( 'NONE', ( #258 ), #92, .F. ) ;
#230 = CARTESIAN_POINT ( 'NONE',  ( 6.123233995736772199E-17, 2.500000000000000000, 0.000000000000000000 ) ) ;
#231 = DIRECTION ( 'NONE',  ( 4.082155997157848133E-17, 1.000000000000000000, -0.000000000000000000 ) ) ;
#232 = AXIS2_PLACEMENT_3D ( 'NONE', #254, #23, #304 ) ;
#233 = SURFACE_STYLE_FILL_AREA ( #66 ) ;
#234 = LENGTH_MEASURE_WITH_UNIT ( LENGTH_MEASURE( 0.02539999999999999897 ), #256 );
#235 = MECHANICAL_DESIGN_GEOMETRIC_PRESENTATION_REPRESENTATION (  '', ( #3 ), #45 ) ;
#236 = AXIS2_PLACEMENT_3D ( 'NONE', #192, #212, #171 ) ;
#237 = ORIENTED_EDGE ( 'NONE', *, *, #259, .F. ) ;
#238 = SURFACE_SIDE_STYLE ('',( #147 ) ) ;
#239 = ORIENTED_EDGE ( 'NONE', *, *, #176, .F. ) ;
#240 = FACE_OUTER_BOUND ( 'NONE', #37, .T. ) ;
#241 = VERTEX_POINT ( 'NONE', #285 ) ;
#242 = CARTESIAN_POINT ( 'NONE',  ( 0.000000000000000000, 0.000000000000000000, 0.000000000000000000 ) ) ;
#243 = DIRECTION ( 'NONE',  ( 0.000000000000000000, 0.000000000000000000, -1.000000000000000000 ) ) ;
#244 = SURFACE_STYLE_USAGE ( .BOTH. , #98 ) ;
#245 = CARTESIAN_POINT ( 'NONE',  ( 0.000000000000000000, 1.000000000000000000, -0.1562500000000000000 ) ) ;
#246 = LENGTH_MEASURE_WITH_UNIT ( LENGTH_MEASURE( 0.02539999999999999897 ), #71 );
#247 = CARTESIAN_POINT ( 'NONE',  ( 0.1562500000000000000, 1.000000000000000000, 1.913510623667738847E-17 ) ) ;
#248 = FILL_AREA_STYLE ('',( #187 ) ) ;
#249 = VERTEX_POINT ( 'NONE', #172 ) ;
#250 = CARTESIAN_POINT ( 'NONE',  ( 0.1562500000000000000, 2.500000000000000000, 1.913510623667738847E-17 ) ) ;
#251 = ORIENTED_EDGE ( 'NONE', *, *, #265, .T. ) ;
#252 = AXIS2_PLACEMENT_3D ( 'NONE', #8, #299, #83 ) ;
#253 = COLOUR_RGB ( '',1.000000000000000000, 0.000000000000000000, 0.000000000000000000 ) ;
#254 = CARTESIAN_POINT ( 'NONE',  ( 6.123233995736772199E-17, 2.500000000000000000, 0.000000000000000000 ) ) ;
#255 = DIMENSIONAL_EXPONENTS ( 1.000000000000000000, 0.000000000000000000, 0.000000000000000000, 0.000000000000000000, 0.000000000000000000, 0.000000000000000000, 0.000000000000000000 ) ;
#256 =( LENGTH_UNIT ( ) NAMED_UNIT ( * ) SI_UNIT ( $, .METRE. ) );
#257 = ORIENTED_EDGE ( 'NONE', *, *, #259, .T. ) ;
#258 = FACE_OUTER_BOUND ( 'NONE', #226, .T. ) ;
#259 = EDGE_CURVE ( 'NONE', #102, #198, #139, .T. ) ;
#260 =( CONVERSION_BASED_UNIT ( 'INCH', #306 ) LENGTH_UNIT ( ) NAMED_UNIT ( #158 ) );
#261 =( GEOMETRIC_REPRESENTATION_CONTEXT ( 3 ) GLOBAL_UNCERTAINTY_ASSIGNED_CONTEXT ( ( #16 ) ) GLOBAL_UNIT_ASSIGNED_CONTEXT ( ( #260, #143, #188 ) ) REPRESENTATION_CONTEXT ( 'NONE', 'WORKASPACE' ) );
#262 = CARTESIAN_POINT ( 'NONE',  ( 0.000000000000000000, 0.000000000000000000, -0.1562500000000000000 ) ) ;
#263 = ORIENTED_EDGE ( 'NONE', *, *, #131, .T. ) ;
#264 = PRODUCT_DEFINITION_CONTEXT ( 'detailed design', #31, 'design' ) ;
#265 = EDGE_CURVE ( 'NONE', #249, #72, #96, .T. ) ;
#266 =( GEOMETRIC_REPRESENTATION_CONTEXT ( 3 ) GLOBAL_UNCERTAINTY_ASSIGNED_CONTEXT ( ( #217 ) ) GLOBAL_UNIT_ASSIGNED_CONTEXT ( ( #135, #36, #84 ) ) REPRESENTATION_CONTEXT ( 'NONE', 'WORKASPACE' ) );
#267 = ORIENTED_EDGE ( 'NONE', *, *, #297, .F. ) ;
#268 = AXIS2_PLACEMENT_3D ( 'NONE', #113, #215, #46 ) ;
#269 = VERTEX_POINT ( 'NONE', #169 ) ;
#270 = SURFACE_STYLE_FILL_AREA ( #248 ) ;
#271 = DIRECTION ( 'NONE',  ( 1.000000000000000000, 0.000000000000000000, 0.000000000000000000 ) ) ;
#272 =( LENGTH_UNIT ( ) NAMED_UNIT ( * ) SI_UNIT ( $, .METRE. ) );
#273 = VERTEX_POINT ( 'NONE', #167 ) ;
#274 =( CONVERSION_BASED_UNIT ( 'INCH', #246 ) LENGTH_UNIT ( ) NAMED_UNIT ( #186 ) );
#275 = LENGTH_MEASURE_WITH_UNIT ( LENGTH_MEASURE( 0.02539999999999999897 ), #125 );
#276 = CIRCLE ( 'NONE', #252, 0.1562500000000000000 ) ;
#277 =( NAMED_UNIT ( * ) SI_UNIT ( $, .STERADIAN. ) SOLID_ANGLE_UNIT ( ) );
#278 =( CONVERSION_BASED_UNIT ( 'INCH', #275 ) LENGTH_UNIT ( ) NAMED_UNIT ( #255 ) );
#279 = DIMENSIONAL_EXPONENTS ( 1.000000000000000000, 0.000000000000000000, 0.000000000000000000, 0.000000000000000000, 0.000000000000000000, 0.000000000000000000, 0.000000000000000000 ) ;
#280 = ADVANCED_FACE ( 'NONE', ( #144 ), #283, .T. ) ;
#281 = DIRECTION ( 'NONE',  ( 4.082155997157848133E-17, 1.000000000000000000, -0.000000000000000000 ) ) ;
#282 = PRESENTATION_LAYER_ASSIGNMENT (  '', '', ( #70 ) ) ;
#283 = PLANE ( 'NONE',  #206 ) ;
#284 = FILL_AREA_STYLE_COLOUR ( '', #253 ) ;
#285 = CARTESIAN_POINT ( 'NONE',  ( 1.913510623667739463E-17, 0.000000000000000000, 0.1562500000000000000 ) ) ;
#286 = STYLED_ITEM ( 'NONE', ( #209 ), #182 ) ;
#287 = LINE ( 'NONE', #288, #145 ) ;
#288 = CARTESIAN_POINT ( 'NONE',  ( 1.913510623667739463E-17, 0.000000000000000000, 0.1562500000000000000 ) ) ;
#289 = CIRCLE ( 'NONE', #308, 0.1562500000000000000 ) ;
#290 = APPLICATION_CONTEXT ( 'automotive_design' ) ;
#291 =( NAMED_UNIT ( * ) PLANE_ANGLE_UNIT ( ) SI_UNIT ( $, .RADIAN. ) );
#292 = PRESENTATION_LAYER_ASSIGNMENT (  '', '', ( #3 ) ) ;
#293 = AXIS2_PLACEMENT_3D ( 'NONE', #140, #231, #115 ) ;
#294 = DIMENSIONAL_EXPONENTS ( 1.000000000000000000, 0.000000000000000000, 0.000000000000000000, 0.000000000000000000, 0.000000000000000000, 0.000000000000000000, 0.000000000000000000 ) ;
#295 = PRESENTATION_STYLE_ASSIGNMENT (( #244 ) ) ;
#296 = EDGE_LOOP ( 'NONE', ( #60, #165 ) ) ;
#297 = EDGE_CURVE ( 'NONE', #273, #241, #287, .T. ) ;
#298 = DIRECTION ( 'NONE',  ( 1.000000000000000000, -4.082155997157848133E-17, 0.000000000000000000 ) ) ;
#299 = DIRECTION ( 'NONE',  ( -0.000000000000000000, -1.000000000000000000, -0.000000000000000000 ) ) ;
#300 = AXIS2_PLACEMENT_3D ( 'NONE', #101, #157, #225 ) ;
#301 = ORIENTED_EDGE ( 'NONE', *, *, #64, .F. ) ;
#302 = FACE_OUTER_BOUND ( 'NONE', #130, .T. ) ;
#303 = AXIS2_PLACEMENT_3D ( 'NONE', #230, #86, #117 ) ;
#304 = DIRECTION ( 'NONE',  ( -1.000000000000000000, 0.000000000000000000, 0.000000000000000000 ) ) ;
#305 = FACE_OUTER_BOUND ( 'NONE', #211, .T. ) ;
#306 = LENGTH_MEASURE_WITH_UNIT ( LENGTH_MEASURE( 0.02539999999999999897 ), #40 );
#307 = UNCERTAINTY_MEASURE_WITH_UNIT (LENGTH_MEASURE( 1.000000000000000082E-05 ), #97, 'distance_accuracy_value', 'NONE');
#308 = AXIS2_PLACEMENT_3D ( 'NONE', #76, #78, #243 ) ;
#309 =( GEOMETRIC_REPRESENTATION_CONTEXT ( 3 ) GLOBAL_UNCERTAINTY_ASSIGNED_CONTEXT ( ( #307 ) ) GLOBAL_UNIT_ASSIGNED_CONTEXT ( ( #97, #196, #27 ) ) REPRESENTATION_CONTEXT ( 'NONE', 'WORKASPACE' ) );
ENDSEC;
END-ISO-10303-21;
