ISO-10303-21;
HEADER;
FILE_DESCRIPTION (( 'STEP AP214' ),
    '1' );
FILE_NAME ('Micro_BMS-035-2X.STEP',
    '2021-09-03T15:18:10',
    ( '' ),
    ( '' ),
    'SwSTEP 2.0',
    'SolidWorks 2020',
    '' );
FILE_SCHEMA (( 'AUTOMOTIVE_DESIGN' ));
ENDSEC;

DATA;
#1 = DIRECTION ( 'NONE',  ( -1.224646799147353454E-16, -0.0000000000000000000, -1.000000000000000000 ) ) ;
#2 = ADVANCED_FACE ( 'NONE', ( #314 ), #97, .T. ) ;
#3 = AXIS2_PLACEMENT_3D ( 'NONE', #93, #235, #52 ) ;
#4 = COLOUR_RGB ( '',0.7921568627450980005, 0.8196078431372548767, 0.9333333333333333481 ) ;
#5 = SHAPE_DEFINITION_REPRESENTATION ( #169, #319 ) ;
#6 = AXIS2_PLACEMENT_3D ( 'NONE', #164, #143, #240 ) ;
#7 = VERTEX_POINT ( 'NONE', #120 ) ;
#8 = EDGE_LOOP ( 'NONE', ( #64, #10, #298, #253 ) ) ;
#9 = AXIS2_PLACEMENT_3D ( 'NONE', #81, #98, #28 ) ;
#10 = ORIENTED_EDGE ( 'NONE', *, *, #227, .T. ) ;
#11 = ORIENTED_EDGE ( 'NONE', *, *, #234, .F. ) ;
#12 = APPLICATION_CONTEXT ( 'automotive_design' ) ;
#13 = ADVANCED_FACE ( 'NONE', ( #150 ), #174, .T. ) ;
#14 = DIRECTION ( 'NONE',  ( 1.000000000000000000, 0.0000000000000000000, 0.0000000000000000000 ) ) ;
#15 =( NAMED_UNIT ( * ) PLANE_ANGLE_UNIT ( ) SI_UNIT ( $, .RADIAN. ) );
#16 = LINE ( 'NONE', #215, #154 ) ;
#17 = DIRECTION ( 'NONE',  ( 0.0000000000000000000, 0.0000000000000000000, -1.000000000000000000 ) ) ;
#18 = CIRCLE ( 'NONE', #288, 0.01748250000000000151 ) ;
#19 = CARTESIAN_POINT ( 'NONE',  ( 0.0000000000000000000, 0.0000000000000000000, 1.485000000000000764 ) ) ;
#20 = DIRECTION ( 'NONE',  ( 0.0000000000000000000, -1.000000000000000000, 0.0000000000000000000 ) ) ;
#21 = ORIENTED_EDGE ( 'NONE', *, *, #22, .F. ) ;
#22 = EDGE_CURVE ( 'NONE', #301, #137, #193, .T. ) ;
#23 = DIRECTION ( 'NONE',  ( -1.000000000000000000, 0.0000000000000000000, 1.220795792964510544E-16 ) ) ;
#24 = DIRECTION ( 'NONE',  ( -1.000000000000000000, 0.0000000000000000000, 0.0000000000000000000 ) ) ;
#25 = AXIS2_PLACEMENT_3D ( 'NONE', #44, #71, #139 ) ;
#26 = VECTOR ( 'NONE', #141, 39.37007874015748143 ) ;
#27 = SURFACE_SIDE_STYLE ('',( #249 ) ) ;
#28 = DIRECTION ( 'NONE',  ( 1.000000000000000000, 0.0000000000000000000, 0.0000000000000000000 ) ) ;
#29 = CARTESIAN_POINT ( 'NONE',  ( 0.0000000000000000000, 0.0000000000000000000, 1.500000000000000222 ) ) ;
#30 = LINE ( 'NONE', #204, #214 ) ;
#31 = EDGE_CURVE ( 'NONE', #137, #301, #183, .T. ) ;
#32 = FILL_AREA_STYLE_COLOUR ( '', #4 ) ;
#33 = CONICAL_SURFACE ( 'NONE', #209, 0.04750000000000064587, 0.7853981633974457255 ) ;
#34 = VECTOR ( 'NONE', #243, 39.37007874015748143 ) ;
#35 = VERTEX_POINT ( 'NONE', #216 ) ;
#36 = AXIS2_PLACEMENT_3D ( 'NONE', #47, #127, #50 ) ;
#37 = VERTEX_POINT ( 'NONE', #241 ) ;
#38 = ORIENTED_EDGE ( 'NONE', *, *, #22, .T. ) ;
#39 = ADVANCED_FACE ( 'NONE', ( #101 ), #91, .T. ) ;
#40 = CIRCLE ( 'NONE', #189, 0.06250000000000000000 ) ;
#41 =( GEOMETRIC_REPRESENTATION_CONTEXT ( 3 ) GLOBAL_UNCERTAINTY_ASSIGNED_CONTEXT ( ( #286 ) ) GLOBAL_UNIT_ASSIGNED_CONTEXT ( ( #128, #96, #267 ) ) REPRESENTATION_CONTEXT ( 'NONE', 'WORKASPACE' ) );
#42 = ORIENTED_EDGE ( 'NONE', *, *, #254, .T. ) ;
#43 = DIRECTION ( 'NONE',  ( 0.7071067811865456854, 8.659560562354911904E-17, -0.7071067811865493491 ) ) ;
#44 = CARTESIAN_POINT ( 'NONE',  ( 0.0000000000000000000, 0.0000000000000000000, 1.500000000000000222 ) ) ;
#45 = LENGTH_MEASURE_WITH_UNIT ( LENGTH_MEASURE( 0.02539999999999999897 ), #159 );
#46 = VERTEX_POINT ( 'NONE', #73 ) ;
#47 = CARTESIAN_POINT ( 'NONE',  ( 6.490628035480973033E-18, 0.0000000000000000000, 0.05299999999999999850 ) ) ;
#48 = ORIENTED_EDGE ( 'NONE', *, *, #110, .T. ) ;
#49 = AXIS2_PLACEMENT_3D ( 'NONE', #237, #192, #23 ) ;
#50 = DIRECTION ( 'NONE',  ( 1.000000000000000000, 0.0000000000000000000, 0.0000000000000000000 ) ) ;
#51 = CARTESIAN_POINT ( 'NONE',  ( 0.0000000000000000000, 0.0000000000000000000, 0.0000000000000000000 ) ) ;
#52 = DIRECTION ( 'NONE',  ( -1.000000000000000000, 0.0000000000000000000, 1.220795792964510544E-16 ) ) ;
#53 = DIRECTION ( 'NONE',  ( 0.0000000000000000000, 1.000000000000000000, 0.0000000000000000000 ) ) ;
#54 = DIRECTION ( 'NONE',  ( 0.1736481776669314137, 0.0000000000000000000, 0.9848077530122077983 ) ) ;
#55 = FACE_OUTER_BOUND ( 'NONE', #157, .T. ) ;
#56 = SPHERICAL_SURFACE ( 'NONE', #62, 0.01748250000000000151 ) ;
#57 =( CONVERSION_BASED_UNIT ( 'INCH', #173 ) LENGTH_UNIT ( ) NAMED_UNIT ( #182 ) );
#58 = EDGE_CURVE ( 'NONE', #104, #137, #84, .T. ) ;
#59 = DIRECTION ( 'NONE',  ( -1.000000000000000000, 0.0000000000000000000, 0.0000000000000000000 ) ) ;
#60 = ADVANCED_FACE ( 'NONE', ( #262 ), #33, .T. ) ;
#61 = AXIS2_PLACEMENT_3D ( 'NONE', #51, #125, #163 ) ;
#62 = AXIS2_PLACEMENT_3D ( 'NONE', #70, #53, #291 ) ;
#63 = ORIENTED_EDGE ( 'NONE', *, *, #224, .T. ) ;
#64 = ORIENTED_EDGE ( 'NONE', *, *, #231, .T. ) ;
#65 = ORIENTED_EDGE ( 'NONE', *, *, #171, .F. ) ;
#66 = EDGE_CURVE ( 'NONE', #7, #37, #129, .T. ) ;
#67 = DIRECTION ( 'NONE',  ( 0.0000000000000000000, 0.0000000000000000000, 1.000000000000000000 ) ) ;
#68 = EDGE_CURVE ( 'NONE', #37, #7, #296, .T. ) ;
#69 = ORIENTED_EDGE ( 'NONE', *, *, #110, .F. ) ;
#70 = CARTESIAN_POINT ( 'NONE',  ( 2.140988766609360927E-18, 0.0000000000000000000, 0.01748250000000000151 ) ) ;
#71 = DIRECTION ( 'NONE',  ( 0.0000000000000000000, 0.0000000000000000000, 1.000000000000000000 ) ) ;
#72 = FACE_OUTER_BOUND ( 'NONE', #117, .T. ) ;
#73 = CARTESIAN_POINT ( 'NONE',  ( -0.06250000000000000000, 0.0000000000000000000, 1.485000000000000764 ) ) ;
#74 = MECHANICAL_DESIGN_GEOMETRIC_PRESENTATION_REPRESENTATION (  '', ( #257 ), #92 ) ;
#75 = DIRECTION ( 'NONE',  ( 0.0000000000000000000, 0.0000000000000000000, -1.000000000000000000 ) ) ;
#76 = CARTESIAN_POINT ( 'NONE',  ( 0.0000000000000000000, 0.0000000000000000000, 1.500000000000000222 ) ) ;
#77 = FACE_OUTER_BOUND ( 'NONE', #229, .T. ) ;
#78 = CARTESIAN_POINT ( 'NONE',  ( 0.01748250000000000151, 2.140988766609360157E-18, 0.01748249999999999804 ) ) ;
#79 = PLANE ( 'NONE',  #138 ) ;
#80 =( LENGTH_UNIT ( ) NAMED_UNIT ( * ) SI_UNIT ( $, .METRE. ) );
#81 = CARTESIAN_POINT ( 'NONE',  ( 3.775670941401217639E-17, 0.0000000000000000000, 0.3083069293146387668 ) ) ;
#82 = AXIS2_PLACEMENT_3D ( 'NONE', #108, #153, #59 ) ;
#83 = EDGE_CURVE ( 'NONE', #311, #86, #30, .T. ) ;
#84 = CIRCLE ( 'NONE', #307, 0.01748250000000000151 ) ;
#85 = AXIS2_PLACEMENT_3D ( 'NONE', #250, #75, #200 ) ;
#86 = VERTEX_POINT ( 'NONE', #148 ) ;
#87 = EDGE_CURVE ( 'NONE', #46, #191, #303, .T. ) ;
#88 = CIRCLE ( 'NONE', #9, 0.06250000000000000000 ) ;
#89 = ORIENTED_EDGE ( 'NONE', *, *, #290, .F. ) ;
#90 = ORIENTED_EDGE ( 'NONE', *, *, #242, .T. ) ;
#91 = CONICAL_SURFACE ( 'NONE', #273, 0.04750000000000064587, 0.7853981633974457255 ) ;
#92 =( GEOMETRIC_REPRESENTATION_CONTEXT ( 3 ) GLOBAL_UNCERTAINTY_ASSIGNED_CONTEXT ( ( #324 ) ) GLOBAL_UNIT_ASSIGNED_CONTEXT ( ( #185, #15, #212 ) ) REPRESENTATION_CONTEXT ( 'NONE', 'WORKASPACE' ) );
#93 = CARTESIAN_POINT ( 'NONE',  ( 2.140988766609360927E-18, 0.0000000000000000000, 0.01748250000000000151 ) ) ;
#94 = CARTESIAN_POINT ( 'NONE',  ( -0.06250000000000000000, 0.0000000000000000000, 1.500000000000000222 ) ) ;
#95 = CARTESIAN_POINT ( 'NONE',  ( 0.0000000000000000000, 0.0000000000000000000, 0.0000000000000000000 ) ) ;
#96 =( NAMED_UNIT ( * ) PLANE_ANGLE_UNIT ( ) SI_UNIT ( $, .RADIAN. ) );
#97 = CYLINDRICAL_SURFACE ( 'NONE', #300, 0.01748250000000000151 ) ;
#98 = DIRECTION ( 'NONE',  ( -1.224646799147353454E-16, -0.0000000000000000000, -1.000000000000000000 ) ) ;
#99 = PRODUCT_DEFINITION ( 'UNKNOWN', '', #264, #259 ) ;
#100 = CARTESIAN_POINT ( 'NONE',  ( 0.04750000000000064587, 5.817072295950006528E-18, 1.500000000000000222 ) ) ;
#101 = FACE_OUTER_BOUND ( 'NONE', #124, .T. ) ;
#102 = COLOUR_RGB ( '',0.7921568627450980005, 0.8196078431372548767, 0.9333333333333333481 ) ;
#103 = CARTESIAN_POINT ( 'NONE',  ( -0.04750000000000064587, 0.0000000000000000000, 1.500000000000000222 ) ) ;
#104 = VERTEX_POINT ( 'NONE', #236 ) ;
#105 = CARTESIAN_POINT ( 'NONE',  ( 6.490628035480973033E-18, 0.0000000000000000000, 0.05299999999999999850 ) ) ;
#106 =( NAMED_UNIT ( * ) PLANE_ANGLE_UNIT ( ) SI_UNIT ( $, .RADIAN. ) );
#107 = EDGE_CURVE ( 'NONE', #35, #191, #16, .T. ) ;
#108 = CARTESIAN_POINT ( 'NONE',  ( 6.490628035480973033E-18, 0.0000000000000000000, 0.05299999999999999850 ) ) ;
#109 = STYLED_ITEM ( 'NONE', ( #167 ), #319 ) ;
#110 = EDGE_CURVE ( 'NONE', #104, #301, #275, .T. ) ;
#111 = ORIENTED_EDGE ( 'NONE', *, *, #171, .T. ) ;
#112 = ORIENTED_EDGE ( 'NONE', *, *, #224, .F. ) ;
#113 = PRODUCT ( 'Micro_BMS-035-2X', 'Micro_BMS-035-2X', '', ( #295 ) ) ;
#114 = SURFACE_STYLE_USAGE ( .BOTH. , #274 ) ;
#115 = ADVANCED_FACE ( 'NONE', ( #246 ), #313, .T. ) ;
#116 = VECTOR ( 'NONE', #166, 39.37007874015748143 ) ;
#117 = EDGE_LOOP ( 'NONE', ( #11, #90, #188, #268 ) ) ;
#118 = VERTEX_POINT ( 'NONE', #219 ) ;
#119 = PRESENTATION_STYLE_ASSIGNMENT (( #114 ) ) ;
#120 = CARTESIAN_POINT ( 'NONE',  ( 0.04750000000000064587, 6.735557395310482421E-18, 1.500000000000000222 ) ) ;
#121 = AXIS2_PLACEMENT_3D ( 'NONE', #165, #198, #149 ) ;
#122 = AXIS2_PLACEMENT_3D ( 'NONE', #29, #134, #133 ) ;
#123 = DIRECTION ( 'NONE',  ( 1.224646799147353207E-16, 1.000000000000000000, -0.0000000000000000000 ) ) ;
#124 = EDGE_LOOP ( 'NONE', ( #65, #306, #318, #89 ) ) ;
#125 = DIRECTION ( 'NONE',  ( -1.224646799147353454E-16, -0.0000000000000000000, -1.000000000000000000 ) ) ;
#126 = CARTESIAN_POINT ( 'NONE',  ( -0.01748249999999999804, 0.0000000000000000000, 0.01748250000000000151 ) ) ;
#127 = DIRECTION ( 'NONE',  ( 1.224646799147353454E-16, 0.0000000000000000000, 1.000000000000000000 ) ) ;
#128 =( CONVERSION_BASED_UNIT ( 'INCH', #218 ) LENGTH_UNIT ( ) NAMED_UNIT ( #207 ) );
#129 = CIRCLE ( 'NONE', #168, 0.04750000000000064587 ) ;
#130 = CARTESIAN_POINT ( 'NONE',  ( 0.0000000000000000000, 0.0000000000000000000, 1.500000000000000222 ) ) ;
#131 = AXIS2_PLACEMENT_3D ( 'NONE', #135, #276, #155 ) ;
#132 = SURFACE_STYLE_USAGE ( .BOTH. , #27 ) ;
#133 = DIRECTION ( 'NONE',  ( -1.000000000000000000, 0.0000000000000000000, 0.0000000000000000000 ) ) ;
#134 = DIRECTION ( 'NONE',  ( -0.0000000000000000000, -0.0000000000000000000, -1.000000000000000000 ) ) ;
#135 = CARTESIAN_POINT ( 'NONE',  ( 0.0000000000000000000, 0.0000000000000000000, 0.0000000000000000000 ) ) ;
#136 = VECTOR ( 'NONE', #315, 39.37007874015748143 ) ;
#137 = VERTEX_POINT ( 'NONE', #126 ) ;
#138 = AXIS2_PLACEMENT_3D ( 'NONE', #272, #248, #223 ) ;
#139 = DIRECTION ( 'NONE',  ( 1.000000000000000000, 0.0000000000000000000, 0.0000000000000000000 ) ) ;
#140 = EDGE_LOOP ( 'NONE', ( #210, #48, #158 ) ) ;
#141 = DIRECTION ( 'NONE',  ( -0.0000000000000000000, -0.0000000000000000000, -1.000000000000000000 ) ) ;
#142 = APPLICATION_PROTOCOL_DEFINITION ( 'draft international standard', 'automotive_design', 1998, #202 ) ;
#143 = DIRECTION ( 'NONE',  ( -0.0000000000000000000, -0.0000000000000000000, -1.000000000000000000 ) ) ;
#144 = PRESENTATION_LAYER_ASSIGNMENT (  '', '', ( #109 ) ) ;
#145 = ORIENTED_EDGE ( 'NONE', *, *, #234, .T. ) ;
#146 = DIRECTION ( 'NONE',  ( 1.000000000000000000, 0.0000000000000000000, 0.0000000000000000000 ) ) ;
#147 =( LENGTH_UNIT ( ) NAMED_UNIT ( * ) SI_UNIT ( $, .METRE. ) );
#148 = CARTESIAN_POINT ( 'NONE',  ( 0.06250000000000002776, 7.654042494670959086E-18, 0.3083069293146387668 ) ) ;
#149 = DIRECTION ( 'NONE',  ( 1.000000000000000000, 0.0000000000000000000, 0.0000000000000000000 ) ) ;
#150 = FACE_OUTER_BOUND ( 'NONE', #140, .T. ) ;
#151 = FILL_AREA_STYLE ('',( #287 ) ) ;
#152 = CONICAL_SURFACE ( 'NONE', #178, 0.01748250000000000151, 0.1745329251994339192 ) ;
#153 = DIRECTION ( 'NONE',  ( -1.224646799147353454E-16, -0.0000000000000000000, -1.000000000000000000 ) ) ;
#154 = VECTOR ( 'NONE', #282, 39.37007874015747433 ) ;
#155 = DIRECTION ( 'NONE',  ( 1.000000000000000000, 0.0000000000000000000, 0.0000000000000000000 ) ) ;
#156 = VECTOR ( 'NONE', #43, 39.37007874015748143 ) ;
#157 = EDGE_LOOP ( 'NONE', ( #112, #213, #42, #161 ) ) ;
#158 = ORIENTED_EDGE ( 'NONE', *, *, #31, .F. ) ;
#159 =( LENGTH_UNIT ( ) NAMED_UNIT ( * ) SI_UNIT ( $, .METRE. ) );
#160 = CARTESIAN_POINT ( 'NONE',  ( 2.140988766609360927E-18, 0.0000000000000000000, 0.01748250000000000151 ) ) ;
#161 = ORIENTED_EDGE ( 'NONE', *, *, #83, .F. ) ;
#162 = ORIENTED_EDGE ( 'NONE', *, *, #231, .F. ) ;
#163 = DIRECTION ( 'NONE',  ( -1.000000000000000000, 0.0000000000000000000, 1.224646799147353454E-16 ) ) ;
#164 = CARTESIAN_POINT ( 'NONE',  ( 0.0000000000000000000, 0.0000000000000000000, 1.500000000000000222 ) ) ;
#165 = CARTESIAN_POINT ( 'NONE',  ( 2.140988766609360927E-18, 0.0000000000000000000, 0.01748250000000000151 ) ) ;
#166 = DIRECTION ( 'NONE',  ( -1.224646799147353454E-16, -0.0000000000000000000, -1.000000000000000000 ) ) ;
#167 = PRESENTATION_STYLE_ASSIGNMENT (( #132 ) ) ;
#168 = AXIS2_PLACEMENT_3D ( 'NONE', #130, #67, #14 ) ;
#169 = PRODUCT_DEFINITION_SHAPE ( 'NONE', 'NONE',  #99 ) ;
#170 = DIRECTION ( 'NONE',  ( 0.0000000000000000000, 0.0000000000000000000, -1.000000000000000000 ) ) ;
#171 = EDGE_CURVE ( 'NONE', #7, #118, #316, .T. ) ;
#172 = LINE ( 'NONE', #221, #136 ) ;
#173 = LENGTH_MEASURE_WITH_UNIT ( LENGTH_MEASURE( 0.02539999999999999897 ), #147 );
#174 = SPHERICAL_SURFACE ( 'NONE', #121, 0.01748250000000000151 ) ;
#175 = CARTESIAN_POINT ( 'NONE',  ( -0.06249999999999996531, 0.0000000000000000000, 0.3083069293146387668 ) ) ;
#176 = FILL_AREA_STYLE ('',( #32 ) ) ;
#177 = ADVANCED_FACE ( 'NONE', ( #305 ), #270, .T. ) ;
#178 = AXIS2_PLACEMENT_3D ( 'NONE', #245, #225, #284 ) ;
#179 = ADVANCED_FACE ( 'NONE', ( #77 ), #152, .T. ) ;
#180 = ADVANCED_FACE ( 'NONE', ( #55 ), #308, .T. ) ;
#181 = EDGE_LOOP ( 'NONE', ( #190, #205 ) ) ;
#182 = DIMENSIONAL_EXPONENTS ( 1.000000000000000000, 0.0000000000000000000, 0.0000000000000000000, 0.0000000000000000000, 0.0000000000000000000, 0.0000000000000000000, 0.0000000000000000000 ) ;
#183 = CIRCLE ( 'NONE', #49, 0.01748250000000000151 ) ;
#184 = PRESENTATION_LAYER_ASSIGNMENT (  '', '', ( #257 ) ) ;
#185 =( CONVERSION_BASED_UNIT ( 'INCH', #45 ) LENGTH_UNIT ( ) NAMED_UNIT ( #187 ) );
#186 = EDGE_LOOP ( 'NONE', ( #277, #244, #281, #304 ) ) ;
#187 = DIMENSIONAL_EXPONENTS ( 1.000000000000000000, 0.0000000000000000000, 0.0000000000000000000, 0.0000000000000000000, 0.0000000000000000000, 0.0000000000000000000, 0.0000000000000000000 ) ;
#188 = ORIENTED_EDGE ( 'NONE', *, *, #206, .T. ) ;
#189 = AXIS2_PLACEMENT_3D ( 'NONE', #251, #1, #201 ) ;
#190 = ORIENTED_EDGE ( 'NONE', *, *, #68, .T. ) ;
#191 = VERTEX_POINT ( 'NONE', #175 ) ;
#192 = DIRECTION ( 'NONE',  ( 1.224646799147353454E-16, 0.0000000000000000000, 1.000000000000000000 ) ) ;
#193 = CIRCLE ( 'NONE', #3, 0.01748250000000000151 ) ;
#194 = CIRCLE ( 'NONE', #203, 0.06250000000000000000 ) ;
#195 = ADVANCED_FACE ( 'NONE', ( #266 ), #79, .T. ) ;
#196 = CARTESIAN_POINT ( 'NONE',  ( 0.0000000000000000000, 0.0000000000000000000, 1.500000000000000222 ) ) ;
#197 = CYLINDRICAL_SURFACE ( 'NONE', #61, 0.01748250000000000151 ) ;
#198 = DIRECTION ( 'NONE',  ( 0.0000000000000000000, 1.000000000000000000, 0.0000000000000000000 ) ) ;
#199 = DIRECTION ( 'NONE',  ( -1.224646799147353454E-16, -0.0000000000000000000, -1.000000000000000000 ) ) ;
#200 = DIRECTION ( 'NONE',  ( 1.000000000000000000, 0.0000000000000000000, 0.0000000000000000000 ) ) ;
#201 = DIRECTION ( 'NONE',  ( 1.000000000000000000, 0.0000000000000000000, 0.0000000000000000000 ) ) ;
#202 = APPLICATION_CONTEXT ( 'automotive_design' ) ;
#203 = AXIS2_PLACEMENT_3D ( 'NONE', #19, #217, #146 ) ;
#204 = CARTESIAN_POINT ( 'NONE',  ( 0.01748250000000000845, 0.0000000000000000000, 0.05299999999999999850 ) ) ;
#205 = ORIENTED_EDGE ( 'NONE', *, *, #66, .T. ) ;
#206 = EDGE_CURVE ( 'NONE', #35, #137, #263, .T. ) ;
#207 = DIMENSIONAL_EXPONENTS ( 1.000000000000000000, 0.0000000000000000000, 0.0000000000000000000, 0.0000000000000000000, 0.0000000000000000000, 0.0000000000000000000, 0.0000000000000000000 ) ;
#208 = ORIENTED_EDGE ( 'NONE', *, *, #58, .T. ) ;
#209 = AXIS2_PLACEMENT_3D ( 'NONE', #76, #17, #247 ) ;
#210 = ORIENTED_EDGE ( 'NONE', *, *, #58, .F. ) ;
#211 = ORIENTED_EDGE ( 'NONE', *, *, #242, .F. ) ;
#212 =( NAMED_UNIT ( * ) SI_UNIT ( $, .STERADIAN. ) SOLID_ANGLE_UNIT ( ) );
#213 = ORIENTED_EDGE ( 'NONE', *, *, #107, .T. ) ;
#214 = VECTOR ( 'NONE', #54, 39.37007874015748143 ) ;
#215 = CARTESIAN_POINT ( 'NONE',  ( -0.01748249999999999804, 2.140988766609360927E-18, 0.05299999999999999850 ) ) ;
#216 = CARTESIAN_POINT ( 'NONE',  ( -0.01748249999999999804, 4.897515630640158851E-18, 0.05299999999999999850 ) ) ;
#217 = DIRECTION ( 'NONE',  ( 0.0000000000000000000, 0.0000000000000000000, -1.000000000000000000 ) ) ;
#218 = LENGTH_MEASURE_WITH_UNIT ( LENGTH_MEASURE( 0.02539999999999999897 ), #80 );
#219 = CARTESIAN_POINT ( 'NONE',  ( 0.06250000000000000000, 7.654042494670956004E-18, 1.485000000000000764 ) ) ;
#220 = ORIENTED_EDGE ( 'NONE', *, *, #107, .F. ) ;
#221 = CARTESIAN_POINT ( 'NONE',  ( 0.01748250000000000151, 2.140988766609360157E-18, -2.140988766609360927E-18 ) ) ;
#222 = ORIENTED_EDGE ( 'NONE', *, *, #206, .F. ) ;
#223 = DIRECTION ( 'NONE',  ( 1.000000000000000000, 0.0000000000000000000, -0.0000000000000000000 ) ) ;
#224 = EDGE_CURVE ( 'NONE', #35, #311, #18, .T. ) ;
#225 = DIRECTION ( 'NONE',  ( 1.224646799147353454E-16, 0.0000000000000000000, 1.000000000000000000 ) ) ;
#226 = SURFACE_STYLE_FILL_AREA ( #176 ) ;
#227 = EDGE_CURVE ( 'NONE', #118, #86, #289, .T. ) ;
#228 = CLOSED_SHELL ( 'NONE', ( #309, #2, #180, #60, #115, #177, #195, #39, #179, #317, #13 ) ) ;
#229 = EDGE_LOOP ( 'NONE', ( #220, #211, #256, #285 ) ) ;
#230 = ORIENTED_EDGE ( 'NONE', *, *, #294, .F. ) ;
#231 = EDGE_CURVE ( 'NONE', #46, #118, #194, .T. ) ;
#232 = EDGE_LOOP ( 'NONE', ( #63, #145, #38, #222 ) ) ;
#233 = UNCERTAINTY_MEASURE_WITH_UNIT (LENGTH_MEASURE( 1.000000000000000082E-05 ), #57, 'distance_accuracy_value', 'NONE');
#234 = EDGE_CURVE ( 'NONE', #311, #301, #172, .T. ) ;
#235 = DIRECTION ( 'NONE',  ( 1.224646799147353454E-16, 0.0000000000000000000, 1.000000000000000000 ) ) ;
#236 = CARTESIAN_POINT ( 'NONE',  ( 3.211483149914040620E-18, 0.0000000000000000000, 0.0000000000000000000 ) ) ;
#237 = CARTESIAN_POINT ( 'NONE',  ( 2.140988766609360927E-18, 0.0000000000000000000, 0.01748250000000000151 ) ) ;
#238 = FACE_OUTER_BOUND ( 'NONE', #299, .T. ) ;
#239 =( GEOMETRIC_REPRESENTATION_CONTEXT ( 3 ) GLOBAL_UNCERTAINTY_ASSIGNED_CONTEXT ( ( #233 ) ) GLOBAL_UNIT_ASSIGNED_CONTEXT ( ( #57, #106, #269 ) ) REPRESENTATION_CONTEXT ( 'NONE', 'WORKASPACE' ) );
#240 = DIRECTION ( 'NONE',  ( -1.000000000000000000, 0.0000000000000000000, 0.0000000000000000000 ) ) ;
#241 = CARTESIAN_POINT ( 'NONE',  ( -0.04750000000000064587, 0.0000000000000000000, 1.500000000000000222 ) ) ;
#242 = EDGE_CURVE ( 'NONE', #311, #35, #280, .T. ) ;
#243 = DIRECTION ( 'NONE',  ( -0.0000000000000000000, -0.0000000000000000000, -1.000000000000000000 ) ) ;
#244 = ORIENTED_EDGE ( 'NONE', *, *, #290, .T. ) ;
#245 = CARTESIAN_POINT ( 'NONE',  ( 6.490628035480973033E-18, 0.0000000000000000000, 0.05299999999999999850 ) ) ;
#246 = FACE_OUTER_BOUND ( 'NONE', #8, .T. ) ;
#247 = DIRECTION ( 'NONE',  ( -1.000000000000000000, 0.0000000000000000000, 0.0000000000000000000 ) ) ;
#248 = DIRECTION ( 'NONE',  ( 0.0000000000000000000, 0.0000000000000000000, 1.000000000000000000 ) ) ;
#249 = SURFACE_STYLE_FILL_AREA ( #151 ) ;
#250 = CARTESIAN_POINT ( 'NONE',  ( 0.0000000000000000000, 0.0000000000000000000, 1.485000000000000764 ) ) ;
#251 = CARTESIAN_POINT ( 'NONE',  ( 3.775670941401217639E-17, 0.0000000000000000000, 0.3083069293146387668 ) ) ;
#252 = APPLICATION_PROTOCOL_DEFINITION ( 'draft international standard', 'automotive_design', 1998, #12 ) ;
#253 = ORIENTED_EDGE ( 'NONE', *, *, #87, .F. ) ;
#254 = EDGE_CURVE ( 'NONE', #191, #86, #40, .T. ) ;
#255 = CIRCLE ( 'NONE', #85, 0.06250000000000000000 ) ;
#256 = ORIENTED_EDGE ( 'NONE', *, *, #83, .T. ) ;
#257 = STYLED_ITEM ( 'NONE', ( #119 ), #271 ) ;
#258 = DIRECTION ( 'NONE',  ( -1.000000000000000000, 1.224646799147352961E-16, 0.0000000000000000000 ) ) ;
#259 = PRODUCT_DEFINITION_CONTEXT ( 'detailed design', #12, 'design' ) ;
#260 = DIRECTION ( 'NONE',  ( -1.000000000000000000, 0.0000000000000000000, 0.0000000000000000000 ) ) ;
#261 = DIRECTION ( 'NONE',  ( -0.7071067811865456854, 0.0000000000000000000, -0.7071067811865493491 ) ) ;
#262 = FACE_OUTER_BOUND ( 'NONE', #302, .T. ) ;
#263 = LINE ( 'NONE', #320, #116 ) ;
#264 = PRODUCT_DEFINITION_FORMATION_WITH_SPECIFIED_SOURCE ( 'ANY', '', #113, .NOT_KNOWN. ) ;
#265 = CARTESIAN_POINT ( 'NONE',  ( 2.140988766609360927E-18, 0.0000000000000000000, 0.01748250000000000151 ) ) ;
#266 = FACE_OUTER_BOUND ( 'NONE', #181, .T. ) ;
#267 =( NAMED_UNIT ( * ) SI_UNIT ( $, .STERADIAN. ) SOLID_ANGLE_UNIT ( ) );
#268 = ORIENTED_EDGE ( 'NONE', *, *, #31, .T. ) ;
#269 =( NAMED_UNIT ( * ) SI_UNIT ( $, .STERADIAN. ) SOLID_ANGLE_UNIT ( ) );
#270 = CYLINDRICAL_SURFACE ( 'NONE', #122, 0.06250000000000000000 ) ;
#271 = MANIFOLD_SOLID_BREP ( 'Fillet1', #228 ) ;
#272 = CARTESIAN_POINT ( 'NONE',  ( 0.0000000000000000000, 0.0000000000000000000, 1.500000000000000222 ) ) ;
#273 = AXIS2_PLACEMENT_3D ( 'NONE', #196, #170, #24 ) ;
#274 = SURFACE_SIDE_STYLE ('',( #226 ) ) ;
#275 = CIRCLE ( 'NONE', #297, 0.01748250000000000151 ) ;
#276 = DIRECTION ( 'NONE',  ( 0.0000000000000000000, 0.0000000000000000000, 1.000000000000000000 ) ) ;
#277 = ORIENTED_EDGE ( 'NONE', *, *, #227, .F. ) ;
#278 = EDGE_CURVE ( 'NONE', #86, #191, #88, .T. ) ;
#279 = ORIENTED_EDGE ( 'NONE', *, *, #66, .F. ) ;
#280 = CIRCLE ( 'NONE', #82, 0.01748250000000000151 ) ;
#281 = ORIENTED_EDGE ( 'NONE', *, *, #87, .T. ) ;
#282 = DIRECTION ( 'NONE',  ( -0.1736481776669312194, 2.126576849575783625E-17, 0.9848077530122080203 ) ) ;
#283 = DIRECTION ( 'NONE',  ( -1.000000000000000000, 0.0000000000000000000, 1.224646799147353454E-16 ) ) ;
#284 = DIRECTION ( 'NONE',  ( 1.000000000000000000, 0.0000000000000000000, 0.0000000000000000000 ) ) ;
#285 = ORIENTED_EDGE ( 'NONE', *, *, #278, .T. ) ;
#286 = UNCERTAINTY_MEASURE_WITH_UNIT (LENGTH_MEASURE( 1.000000000000000082E-05 ), #128, 'distance_accuracy_value', 'NONE');
#287 = FILL_AREA_STYLE_COLOUR ( '', #102 ) ;
#288 = AXIS2_PLACEMENT_3D ( 'NONE', #105, #199, #260 ) ;
#289 = LINE ( 'NONE', #292, #26 ) ;
#290 = EDGE_CURVE ( 'NONE', #118, #46, #255, .T. ) ;
#291 = DIRECTION ( 'NONE',  ( 1.000000000000000000, 0.0000000000000000000, 0.0000000000000000000 ) ) ;
#292 = CARTESIAN_POINT ( 'NONE',  ( 0.06250000000000000000, 7.654042494670956004E-18, 1.500000000000000222 ) ) ;
#293 = VECTOR ( 'NONE', #261, 39.37007874015748143 ) ;
#294 = EDGE_CURVE ( 'NONE', #37, #46, #321, .T. ) ;
#295 = PRODUCT_CONTEXT ( 'NONE', #202, 'mechanical' ) ;
#296 = CIRCLE ( 'NONE', #25, 0.04750000000000064587 ) ;
#297 = AXIS2_PLACEMENT_3D ( 'NONE', #160, #20, #310 ) ;
#298 = ORIENTED_EDGE ( 'NONE', *, *, #254, .F. ) ;
#299 = EDGE_LOOP ( 'NONE', ( #69, #208, #21 ) ) ;
#300 = AXIS2_PLACEMENT_3D ( 'NONE', #95, #323, #283 ) ;
#301 = VERTEX_POINT ( 'NONE', #78 ) ;
#302 = EDGE_LOOP ( 'NONE', ( #279, #111, #162, #230 ) ) ;
#303 = LINE ( 'NONE', #94, #34 ) ;
#304 = ORIENTED_EDGE ( 'NONE', *, *, #278, .F. ) ;
#305 = FACE_OUTER_BOUND ( 'NONE', #186, .T. ) ;
#306 = ORIENTED_EDGE ( 'NONE', *, *, #68, .F. ) ;
#307 = AXIS2_PLACEMENT_3D ( 'NONE', #265, #123, #258 ) ;
#308 = CONICAL_SURFACE ( 'NONE', #36, 0.01748250000000000151, 0.1745329251994339192 ) ;
#309 = ADVANCED_FACE ( 'NONE', ( #238 ), #56, .T. ) ;
#310 = DIRECTION ( 'NONE',  ( 0.0000000000000000000, 0.0000000000000000000, -1.000000000000000000 ) ) ;
#311 = VERTEX_POINT ( 'NONE', #325 ) ;
#312 = PRODUCT_RELATED_PRODUCT_CATEGORY ( 'part', '', ( #113 ) ) ;
#313 = CYLINDRICAL_SURFACE ( 'NONE', #6, 0.06250000000000000000 ) ;
#314 = FACE_OUTER_BOUND ( 'NONE', #232, .T. ) ;
#315 = DIRECTION ( 'NONE',  ( -1.224646799147353454E-16, -0.0000000000000000000, -1.000000000000000000 ) ) ;
#316 = LINE ( 'NONE', #100, #156 ) ;
#317 = ADVANCED_FACE ( 'NONE', ( #72 ), #197, .T. ) ;
#318 = ORIENTED_EDGE ( 'NONE', *, *, #294, .T. ) ;
#319 = ADVANCED_BREP_SHAPE_REPRESENTATION ( 'Micro_BMS-035-2X', ( #271, #131 ), #239 ) ;
#320 = CARTESIAN_POINT ( 'NONE',  ( -0.01748250000000000151, 0.0000000000000000000, 2.140988766609360927E-18 ) ) ;
#321 = LINE ( 'NONE', #103, #293 ) ;
#322 = MECHANICAL_DESIGN_GEOMETRIC_PRESENTATION_REPRESENTATION (  '', ( #109 ), #41 ) ;
#323 = DIRECTION ( 'NONE',  ( -1.224646799147353454E-16, -0.0000000000000000000, -1.000000000000000000 ) ) ;
#324 = UNCERTAINTY_MEASURE_WITH_UNIT (LENGTH_MEASURE( 1.000000000000000082E-05 ), #185, 'distance_accuracy_value', 'NONE');
#325 = CARTESIAN_POINT ( 'NONE',  ( 0.01748250000000000845, 0.0000000000000000000, 0.05299999999999999850 ) ) ;
ENDSEC;
END-ISO-10303-21;
