ISO-10303-21;
HEADER;
FILE_DESCRIPTION (( 'STEP AP214' ),
    '1' );
FILE_NAME ('59548.STEP',
    '2023-07-24T15:10:23',
    ( '' ),
    ( '' ),
    'SwSTEP 2.0',
    'SolidWorks 2023',
    '' );
FILE_SCHEMA (( 'AUTOMOTIVE_DESIGN' ));
ENDSEC;

DATA;
#1 = DIRECTION ( 'NONE',  ( -1.000000000000000000, 0.000000000000000000, 0.000000000000000000 ) ) ;
#2 = CARTESIAN_POINT ( 'NONE',  ( 0.000000000000000000, 1.000000000000000000, 0.000000000000000000 ) ) ;
#3 = ADVANCED_FACE ( 'NONE', ( #345 ), #296, .T. ) ;
#4 = ADVANCED_FACE ( 'NONE', ( #243 ), #74, .T. ) ;
#5 = PLANE ( 'NONE',  #31 ) ;
#6 = SURFACE_STYLE_FILL_AREA ( #269 ) ;
#7 = SURFACE_SIDE_STYLE ('',( #95 ) ) ;
#8 =( NAMED_UNIT ( * ) SI_UNIT ( $, .STERADIAN. ) SOLID_ANGLE_UNIT ( ) );
#9 = CARTESIAN_POINT ( 'NONE',  ( 5.204170427930421283E-15, 32.00000000000000000, 0.000000000000000000 ) ) ;
#10 = PRODUCT_RELATED_PRODUCT_CATEGORY ( 'part', '', ( #302 ) ) ;
#11 = CARTESIAN_POINT ( 'NONE',  ( 0.000000000000000000, 32.00000000000000000, 0.000000000000000000 ) ) ;
#12 = CLOSED_SHELL ( 'NONE', ( #315, #105, #3, #228, #85, #4 ) ) ;
#13 = FILL_AREA_STYLE ('',( #271 ) ) ;
#14 = CYLINDRICAL_SURFACE ( 'NONE', #81, 8.000000000000000000 ) ;
#15 = FILL_AREA_STYLE_COLOUR ( '', #171 ) ;
#16 = DIRECTION ( 'NONE',  ( -1.000000000000000000, 0.000000000000000000, 0.000000000000000000 ) ) ;
#17 = CIRCLE ( 'NONE', #98, 8.000000000000000000 ) ;
#18 = AXIS2_PLACEMENT_3D ( 'NONE', #11, #209, #100 ) ;
#19 = AXIS2_PLACEMENT_3D ( 'NONE', #361, #248, #221 ) ;
#20 =( NAMED_UNIT ( * ) SI_UNIT ( $, .STERADIAN. ) SOLID_ANGLE_UNIT ( ) );
#21 = CARTESIAN_POINT ( 'NONE',  ( 8.000000000000000000, 89.00000000000000000, 0.000000000000000000 ) ) ;
#22 = DIRECTION ( 'NONE',  ( 0.000000000000000000, 0.000000000000000000, -1.000000000000000000 ) ) ;
#23 = ORIENTED_EDGE ( 'NONE', *, *, #50, .T. ) ;
#24 = PRESENTATION_STYLE_ASSIGNMENT (( #150 ) ) ;
#25 = ORIENTED_EDGE ( 'NONE', *, *, #90, .F. ) ;
#26 = VERTEX_POINT ( 'NONE', #217 ) ;
#27 = EDGE_CURVE ( 'NONE', #322, #65, #143, .T. ) ;
#28 = PRESENTATION_LAYER_ASSIGNMENT (  '', '', ( #349 ) ) ;
#29 = ORIENTED_EDGE ( 'NONE', *, *, #90, .T. ) ;
#30 = SURFACE_STYLE_USAGE ( .BOTH. , #127 ) ;
#31 = AXIS2_PLACEMENT_3D ( 'NONE', #9, #304, #183 ) ;
#32 = ORIENTED_EDGE ( 'NONE', *, *, #75, .F. ) ;
#33 = ORIENTED_EDGE ( 'NONE', *, *, #148, .T. ) ;
#34 = CARTESIAN_POINT ( 'NONE',  ( 7.999999999999996447, 89.00000000000000000, 9.797174393178823685E-16 ) ) ;
#35 = APPLICATION_PROTOCOL_DEFINITION ( 'draft international standard', 'automotive_design', 1998, #291 ) ;
#36 = FACE_OUTER_BOUND ( 'NONE', #89, .T. ) ;
#37 = EDGE_CURVE ( 'NONE', #322, #223, #83, .T. ) ;
#38 = DIRECTION ( 'NONE',  ( 1.000000000000000000, 0.000000000000000000, -1.224646799147353207E-16 ) ) ;
#39 = SURFACE_STYLE_USAGE ( .BOTH. , #355 ) ;
#40 = FILL_AREA_STYLE_COLOUR ( '', #79 ) ;
#41 = MECHANICAL_DESIGN_GEOMETRIC_PRESENTATION_REPRESENTATION (  '', ( #219 ), #241 ) ;
#42 = DIRECTION ( 'NONE',  ( -0.000000000000000000, -1.000000000000000000, -0.000000000000000000 ) ) ;
#43 = FACE_OUTER_BOUND ( 'NONE', #224, .T. ) ;
#44 = DIRECTION ( 'NONE',  ( 0.000000000000000000, 0.000000000000000000, -1.000000000000000000 ) ) ;
#45 = UNCERTAINTY_MEASURE_WITH_UNIT (LENGTH_MEASURE( 1.000000000000000082E-05 ), #237, 'distance_accuracy_value', 'NONE');
#46 = MECHANICAL_DESIGN_GEOMETRIC_PRESENTATION_REPRESENTATION (  '', ( #132 ), #278 ) ;
#47 = PRESENTATION_STYLE_ASSIGNMENT (( #310 ) ) ;
#48 = DIRECTION ( 'NONE',  ( 0.000000000000000000, 1.000000000000000000, 0.000000000000000000 ) ) ;
#49 = DIRECTION ( 'NONE',  ( 0.000000000000000000, -1.000000000000000000, -0.000000000000000000 ) ) ;
#50 = EDGE_CURVE ( 'NONE', #280, #370, #204, .T. ) ;
#51 = CIRCLE ( 'NONE', #246, 7.999999999999994671 ) ;
#52 = VECTOR ( 'NONE', #220, 1000.000000000000000 ) ;
#53 = CARTESIAN_POINT ( 'NONE',  ( 0.000000000000000000, 0.000000000000000000, 0.000000000000000000 ) ) ;
#54 = COLOUR_RGB ( '',1.000000000000000000, 0.000000000000000000, 0.000000000000000000 ) ;
#55 = UNCERTAINTY_MEASURE_WITH_UNIT (LENGTH_MEASURE( 1.000000000000000082E-05 ), #125, 'distance_accuracy_value', 'NONE');
#56 = FACE_OUTER_BOUND ( 'NONE', #229, .T. ) ;
#57 = ORIENTED_EDGE ( 'NONE', *, *, #50, .F. ) ;
#58 = ORIENTED_EDGE ( 'NONE', *, *, #273, .F. ) ;
#59 = SURFACE_STYLE_USAGE ( .BOTH. , #7 ) ;
#60 = EDGE_LOOP ( 'NONE', ( #25, #259 ) ) ;
#61 = ADVANCED_FACE ( 'NONE', ( #168 ), #359, .F. ) ;
#62 = DIRECTION ( 'NONE',  ( -1.213802797673107944E-16, 1.000000000000000000, -0.000000000000000000 ) ) ;
#63 = CARTESIAN_POINT ( 'NONE',  ( 9.797174393178825657E-16, 1.000000000000000000, 8.000000000000000000 ) ) ;
#64 =( NAMED_UNIT ( * ) PLANE_ANGLE_UNIT ( ) SI_UNIT ( $, .RADIAN. ) );
#65 = VERTEX_POINT ( 'NONE', #362 ) ;
#66 =( LENGTH_UNIT ( ) NAMED_UNIT ( * ) SI_UNIT ( .MILLI., .METRE. ) );
#67 = DIRECTION ( 'NONE',  ( 0.000000000000000000, 0.000000000000000000, -1.000000000000000000 ) ) ;
#68 = STYLED_ITEM ( 'NONE', ( #213 ), #261 ) ;
#69 = AXIS2_PLACEMENT_3D ( 'NONE', #88, #62, #181 ) ;
#70 = DIRECTION ( 'NONE',  ( -1.213802797673107944E-16, 1.000000000000000000, -0.000000000000000000 ) ) ;
#71 = CARTESIAN_POINT ( 'NONE',  ( 5.204170427930421283E-15, 32.00000000000000000, 0.000000000000000000 ) ) ;
#72 =( GEOMETRIC_REPRESENTATION_CONTEXT ( 3 ) GLOBAL_UNCERTAINTY_ASSIGNED_CONTEXT ( ( #55 ) ) GLOBAL_UNIT_ASSIGNED_CONTEXT ( ( #125, #236, #8 ) ) REPRESENTATION_CONTEXT ( 'NONE', 'WORKASPACE' ) );
#73 = AXIS2_PLACEMENT_3D ( 'NONE', #258, #157, #126 ) ;
#74 = PLANE ( 'NONE',  #108 ) ;
#75 = EDGE_CURVE ( 'NONE', #231, #280, #111, .T. ) ;
#76 = SURFACE_SIDE_STYLE ('',( #331 ) ) ;
#77 =( NAMED_UNIT ( * ) PLANE_ANGLE_UNIT ( ) SI_UNIT ( $, .RADIAN. ) );
#78 = UNCERTAINTY_MEASURE_WITH_UNIT (LENGTH_MEASURE( 1.000000000000000082E-05 ), #169, 'distance_accuracy_value', 'NONE');
#79 = COLOUR_RGB ( '',1.000000000000000000, 0.000000000000000000, 0.000000000000000000 ) ;
#80 = ORIENTED_EDGE ( 'NONE', *, *, #348, .F. ) ;
#81 = AXIS2_PLACEMENT_3D ( 'NONE', #53, #173, #222 ) ;
#82 = AXIS2_PLACEMENT_3D ( 'NONE', #341, #121, #265 ) ;
#83 = CIRCLE ( 'NONE', #138, 7.999999999999994671 ) ;
#84 = ORIENTED_EDGE ( 'NONE', *, *, #104, .T. ) ;
#85 = ADVANCED_FACE ( 'NONE', ( #333 ), #14, .T. ) ;
#86 = ORIENTED_EDGE ( 'NONE', *, *, #277, .T. ) ;
#87 = PRESENTATION_STYLE_ASSIGNMENT (( #30 ) ) ;
#88 = CARTESIAN_POINT ( 'NONE',  ( -1.714505518806293849E-15, 89.00000000000000000, 0.000000000000000000 ) ) ;
#89 = EDGE_LOOP ( 'NONE', ( #80, #199, #23, #197 ) ) ;
#90 = EDGE_CURVE ( 'NONE', #231, #178, #17, .T. ) ;
#91 = CARTESIAN_POINT ( 'NONE',  ( -1.714505518806293849E-15, 89.00000000000000000, 0.000000000000000000 ) ) ;
#92 = CARTESIAN_POINT ( 'NONE',  ( 0.000000000000000000, 0.000000000000000000, 0.000000000000000000 ) ) ;
#93 = DIRECTION ( 'NONE',  ( -1.224646799147353454E-16, 0.000000000000000000, -1.000000000000000000 ) ) ;
#94 =( NAMED_UNIT ( * ) PLANE_ANGLE_UNIT ( ) SI_UNIT ( $, .RADIAN. ) );
#95 = SURFACE_STYLE_FILL_AREA ( #200 ) ;
#96 =( NAMED_UNIT ( * ) PLANE_ANGLE_UNIT ( ) SI_UNIT ( $, .RADIAN. ) );
#97 = FILL_AREA_STYLE_COLOUR ( '', #107 ) ;
#98 = AXIS2_PLACEMENT_3D ( 'NONE', #117, #366, #282 ) ;
#99 = STYLED_ITEM ( 'NONE', ( #47 ), #85 ) ;
#100 = DIRECTION ( 'NONE',  ( 0.000000000000000000, 0.000000000000000000, -1.000000000000000000 ) ) ;
#101 =( GEOMETRIC_REPRESENTATION_CONTEXT ( 3 ) GLOBAL_UNCERTAINTY_ASSIGNED_CONTEXT ( ( #196 ) ) GLOBAL_UNIT_ASSIGNED_CONTEXT ( ( #158, #94, #270 ) ) REPRESENTATION_CONTEXT ( 'NONE', 'WORKASPACE' ) );
#102 = SURFACE_STYLE_FILL_AREA ( #356 ) ;
#103 = CYLINDRICAL_SURFACE ( 'NONE', #191, 8.000000000000000000 ) ;
#104 = EDGE_CURVE ( 'NONE', #26, #370, #159, .T. ) ;
#105 = ADVANCED_FACE ( 'NONE', ( #56 ), #152, .T. ) ;
#106 = DIRECTION ( 'NONE',  ( 0.000000000000000000, -0.000000000000000000, 1.000000000000000000 ) ) ;
#107 = COLOUR_RGB ( '',1.000000000000000000, 0.000000000000000000, 0.000000000000000000 ) ;
#108 = AXIS2_PLACEMENT_3D ( 'NONE', #358, #48, #106 ) ;
#109 = AXIS2_PLACEMENT_3D ( 'NONE', #167, #163, #299 ) ;
#110 = DIRECTION ( 'NONE',  ( 1.000000000000000000, 1.213802797673107944E-16, 0.000000000000000000 ) ) ;
#111 = LINE ( 'NONE', #194, #52 ) ;
#112 = MECHANICAL_DESIGN_GEOMETRIC_PRESENTATION_REPRESENTATION (  '', ( #349 ), #72 ) ;
#113 = UNCERTAINTY_MEASURE_WITH_UNIT (LENGTH_MEASURE( 1.000000000000000082E-05 ), #186, 'distance_accuracy_value', 'NONE');
#114 =( LENGTH_UNIT ( ) NAMED_UNIT ( * ) SI_UNIT ( .MILLI., .METRE. ) );
#115 = VECTOR ( 'NONE', #70, 1000.000000000000000 ) ;
#116 = CIRCLE ( 'NONE', #336, 8.000000000000000000 ) ;
#117 = CARTESIAN_POINT ( 'NONE',  ( 0.000000000000000000, 32.00000000000000000, 0.000000000000000000 ) ) ;
#118 = MECHANICAL_DESIGN_GEOMETRIC_PRESENTATION_REPRESENTATION (  '', ( #68 ), #101 ) ;
#119 = ORIENTED_EDGE ( 'NONE', *, *, #284, .T. ) ;
#120 = ORIENTED_EDGE ( 'NONE', *, *, #277, .F. ) ;
#121 = DIRECTION ( 'NONE',  ( 0.000000000000000000, 0.000000000000000000, 1.000000000000000000 ) ) ;
#122 = SURFACE_STYLE_USAGE ( .BOTH. , #185 ) ;
#123 = CARTESIAN_POINT ( 'NONE',  ( 8.000000000000000000, 89.00000000000000000, 9.797174393178825657E-16 ) ) ;
#124 =( GEOMETRIC_REPRESENTATION_CONTEXT ( 3 ) GLOBAL_UNCERTAINTY_ASSIGNED_CONTEXT ( ( #78 ) ) GLOBAL_UNIT_ASSIGNED_CONTEXT ( ( #169, #305, #20 ) ) REPRESENTATION_CONTEXT ( 'NONE', 'WORKASPACE' ) );
#125 =( LENGTH_UNIT ( ) NAMED_UNIT ( * ) SI_UNIT ( .MILLI., .METRE. ) );
#126 = DIRECTION ( 'NONE',  ( 0.000000000000000000, 0.000000000000000000, -1.000000000000000000 ) ) ;
#127 = SURFACE_SIDE_STYLE ('',( #6 ) ) ;
#128 = CARTESIAN_POINT ( 'NONE',  ( 0.000000000000000000, 0.000000000000000000, -7.000000000000000000 ) ) ;
#129 = CARTESIAN_POINT ( 'NONE',  ( 0.000000000000000000, 1.000000000000000000, 0.000000000000000000 ) ) ;
#130 = LINE ( 'NONE', #34, #115 ) ;
#131 = DIRECTION ( 'NONE',  ( 0.000000000000000000, 0.000000000000000000, -1.000000000000000000 ) ) ;
#132 = STYLED_ITEM ( 'NONE', ( #87 ), #3 ) ;
#133 = FILL_AREA_STYLE ('',( #97 ) ) ;
#134 = DIRECTION ( 'NONE',  ( -1.213802797673107944E-16, 1.000000000000000000, -0.000000000000000000 ) ) ;
#135 =( NAMED_UNIT ( * ) SI_UNIT ( $, .STERADIAN. ) SOLID_ANGLE_UNIT ( ) );
#136 = SURFACE_SIDE_STYLE ('',( #334 ) ) ;
#137 = CIRCLE ( 'NONE', #109, 8.000000000000001776 ) ;
#138 = AXIS2_PLACEMENT_3D ( 'NONE', #71, #134, #16 ) ;
#139 = PRESENTATION_LAYER_ASSIGNMENT (  '', '', ( #68 ) ) ;
#140 = CARTESIAN_POINT ( 'NONE',  ( -8.000000000000000000, 89.00000000000000000, 0.000000000000000000 ) ) ;
#141 = MANIFOLD_SOLID_BREP ( 'Revolve - Cutting Edge', #12 ) ;
#142 = UNCERTAINTY_MEASURE_WITH_UNIT (LENGTH_MEASURE( 1.000000000000000082E-05 ), #66, 'distance_accuracy_value', 'NONE');
#143 = LINE ( 'NONE', #140, #298 ) ;
#144 = FILL_AREA_STYLE ('',( #337 ) ) ;
#145 =( GEOMETRIC_REPRESENTATION_CONTEXT ( 3 ) GLOBAL_UNCERTAINTY_ASSIGNED_CONTEXT ( ( #142 ) ) GLOBAL_UNIT_ASSIGNED_CONTEXT ( ( #66, #179, #352 ) ) REPRESENTATION_CONTEXT ( 'NONE', 'WORKASPACE' ) );
#146 = CLOSED_SHELL ( 'NONE', ( #206, #242, #166, #61 ) ) ;
#147 = EDGE_CURVE ( 'NONE', #370, #26, #153, .T. ) ;
#148 = EDGE_CURVE ( 'NONE', #280, #340, #187, .T. ) ;
#149 = EDGE_LOOP ( 'NONE', ( #283, #84 ) ) ;
#150 = SURFACE_STYLE_USAGE ( .BOTH. , #314 ) ;
#151 = VERTEX_POINT ( 'NONE', #123 ) ;
#152 = TOROIDAL_SURFACE ( 'NONE', #342, 7.000000000000000000, 1.000000000000000000 ) ;
#153 = CIRCLE ( 'NONE', #73, 7.000000000000000000 ) ;
#154 = ORIENTED_EDGE ( 'NONE', *, *, #27, .F. ) ;
#155 = ORIENTED_EDGE ( 'NONE', *, *, #148, .F. ) ;
#156 = CARTESIAN_POINT ( 'NONE',  ( -7.999999999999989342, 32.00000000000000000, 0.000000000000000000 ) ) ;
#157 = DIRECTION ( 'NONE',  ( -0.000000000000000000, -1.000000000000000000, -0.000000000000000000 ) ) ;
#158 =( LENGTH_UNIT ( ) NAMED_UNIT ( * ) SI_UNIT ( .MILLI., .METRE. ) );
#159 = CIRCLE ( 'NONE', #279, 7.000000000000000000 ) ;
#160 = CARTESIAN_POINT ( 'NONE',  ( -1.714505518806293652E-15, 89.00000000000000000, 0.000000000000000000 ) ) ;
#161 =( NAMED_UNIT ( * ) SI_UNIT ( $, .STERADIAN. ) SOLID_ANGLE_UNIT ( ) );
#162 =( NAMED_UNIT ( * ) SI_UNIT ( $, .STERADIAN. ) SOLID_ANGLE_UNIT ( ) );
#163 = DIRECTION ( 'NONE',  ( -1.213802797673107944E-16, 1.000000000000000000, -0.000000000000000000 ) ) ;
#164 = UNCERTAINTY_MEASURE_WITH_UNIT (LENGTH_MEASURE( 1.000000000000000082E-05 ), #276, 'distance_accuracy_value', 'NONE');
#165 = CARTESIAN_POINT ( 'NONE',  ( 0.000000000000000000, 1.000000000000000000, -8.000000000000000000 ) ) ;
#166 = ADVANCED_FACE ( 'NONE', ( #43 ), #272, .T. ) ;
#167 = CARTESIAN_POINT ( 'NONE',  ( -1.714505518806293652E-15, 89.00000000000000000, 0.000000000000000000 ) ) ;
#168 = FACE_OUTER_BOUND ( 'NONE', #286, .T. ) ;
#169 =( LENGTH_UNIT ( ) NAMED_UNIT ( * ) SI_UNIT ( .MILLI., .METRE. ) );
#170 = AXIS2_PLACEMENT_3D ( 'NONE', #160, #190, #211 ) ;
#171 = COLOUR_RGB ( '',1.000000000000000000, 0.000000000000000000, 0.000000000000000000 ) ;
#172 = STYLED_ITEM ( 'NONE', ( #210 ), #141 ) ;
#173 = DIRECTION ( 'NONE',  ( -0.000000000000000000, -1.000000000000000000, -0.000000000000000000 ) ) ;
#174 = STYLED_ITEM ( 'NONE', ( #24 ), #105 ) ;
#175 = ORIENTED_EDGE ( 'NONE', *, *, #364, .T. ) ;
#176 = ORIENTED_EDGE ( 'NONE', *, *, #348, .T. ) ;
#177 =( NAMED_UNIT ( * ) SI_UNIT ( $, .STERADIAN. ) SOLID_ANGLE_UNIT ( ) );
#178 = VERTEX_POINT ( 'NONE', #230 ) ;
#179 =( NAMED_UNIT ( * ) PLANE_ANGLE_UNIT ( ) SI_UNIT ( $, .RADIAN. ) );
#180 = APPLICATION_PROTOCOL_DEFINITION ( 'draft international standard', 'automotive_design', 1998, #325 ) ;
#181 = DIRECTION ( 'NONE',  ( -1.000000000000000000, 0.000000000000000000, 0.000000000000000000 ) ) ;
#182 = CARTESIAN_POINT ( 'NONE',  ( 8.572527594031473190E-16, 1.000000000000000000, 7.000000000000000000 ) ) ;
#183 = DIRECTION ( 'NONE',  ( -1.000000000000000000, -1.213802797673107944E-16, 0.000000000000000000 ) ) ;
#184 = EDGE_LOOP ( 'NONE', ( #368, #86, #287, #154 ) ) ;
#185 = SURFACE_SIDE_STYLE ('',( #292 ) ) ;
#186 =( LENGTH_UNIT ( ) NAMED_UNIT ( * ) SI_UNIT ( .MILLI., .METRE. ) );
#187 = CIRCLE ( 'NONE', #332, 8.000000000000000000 ) ;
#188 = FACE_OUTER_BOUND ( 'NONE', #254, .T. ) ;
#189 = DIRECTION ( 'NONE',  ( -0.000000000000000000, -1.000000000000000000, -0.000000000000000000 ) ) ;
#190 = DIRECTION ( 'NONE',  ( -1.213802797673107944E-16, 1.000000000000000000, -0.000000000000000000 ) ) ;
#191 = AXIS2_PLACEMENT_3D ( 'NONE', #92, #354, #327 ) ;
#192 = PRESENTATION_LAYER_ASSIGNMENT (  '', '', ( #338 ) ) ;
#193 = FILL_AREA_STYLE_COLOUR ( '', #256 ) ;
#194 = CARTESIAN_POINT ( 'NONE',  ( 0.000000000000000000, 0.000000000000000000, -8.000000000000000000 ) ) ;
#195 = AXIS2_PLACEMENT_3D ( 'NONE', #91, #234, #203 ) ;
#196 = UNCERTAINTY_MEASURE_WITH_UNIT (LENGTH_MEASURE( 1.000000000000000082E-05 ), #158, 'distance_accuracy_value', 'NONE');
#197 = ORIENTED_EDGE ( 'NONE', *, *, #104, .F. ) ;
#198 = CARTESIAN_POINT ( 'NONE',  ( 0.000000000000000000, 0.000000000000000000, 0.000000000000000000 ) ) ;
#199 = ORIENTED_EDGE ( 'NONE', *, *, #335, .T. ) ;
#200 = FILL_AREA_STYLE ('',( #260 ) ) ;
#201 = ORIENTED_EDGE ( 'NONE', *, *, #27, .T. ) ;
#202 = ORIENTED_EDGE ( 'NONE', *, *, #245, .T. ) ;
#203 = DIRECTION ( 'NONE',  ( -1.000000000000000000, 0.000000000000000000, 0.000000000000000000 ) ) ;
#204 = CIRCLE ( 'NONE', #19, 1.000000000000000000 ) ;
#205 = PRESENTATION_STYLE_ASSIGNMENT (( #330 ) ) ;
#206 = ADVANCED_FACE ( 'NONE', ( #346 ), #323, .T. ) ;
#207 = PRESENTATION_STYLE_ASSIGNMENT (( #122 ) ) ;
#208 = CARTESIAN_POINT ( 'NONE',  ( 0.000000000000000000, 1.000000000000000000, 0.000000000000000000 ) ) ;
#209 = DIRECTION ( 'NONE',  ( -0.000000000000000000, -1.000000000000000000, -0.000000000000000000 ) ) ;
#210 = PRESENTATION_STYLE_ASSIGNMENT (( #59 ) ) ;
#211 = DIRECTION ( 'NONE',  ( -1.000000000000000000, 0.000000000000000000, 0.000000000000000000 ) ) ;
#212 = AXIS2_PLACEMENT_3D ( 'NONE', #21, #357, #110 ) ;
#213 = PRESENTATION_STYLE_ASSIGNMENT (( #39 ) ) ;
#214 = SURFACE_SIDE_STYLE ('',( #102 ) ) ;
#215 = DIRECTION ( 'NONE',  ( -0.000000000000000000, -1.000000000000000000, -0.000000000000000000 ) ) ;
#216 = FILL_AREA_STYLE ('',( #193 ) ) ;
#217 = CARTESIAN_POINT ( 'NONE',  ( 9.184850993605147944E-16, 0.000000000000000000, 7.000000000000000000 ) ) ;
#218 = FILL_AREA_STYLE ('',( #15 ) ) ;
#219 = STYLED_ITEM ( 'NONE', ( #205 ), #228 ) ;
#220 = DIRECTION ( 'NONE',  ( -0.000000000000000000, -1.000000000000000000, -0.000000000000000000 ) ) ;
#221 = DIRECTION ( 'NONE',  ( 0.000000000000000000, 0.000000000000000000, 1.000000000000000000 ) ) ;
#222 = DIRECTION ( 'NONE',  ( 0.000000000000000000, 0.000000000000000000, -1.000000000000000000 ) ) ;
#223 = VERTEX_POINT ( 'NONE', #293 ) ;
#224 = EDGE_LOOP ( 'NONE', ( #120, #344, #201, #319 ) ) ;
#225 = PRESENTATION_LAYER_ASSIGNMENT (  '', '', ( #174 ) ) ;
#226 = MECHANICAL_DESIGN_GEOMETRIC_PRESENTATION_REPRESENTATION (  '', ( #172 ), #235 ) ;
#227 = ORIENTED_EDGE ( 'NONE', *, *, #75, .T. ) ;
#228 = ADVANCED_FACE ( 'NONE', ( #36 ), #268, .T. ) ;
#229 = EDGE_LOOP ( 'NONE', ( #33, #176, #289, #57 ) ) ;
#230 = CARTESIAN_POINT ( 'NONE',  ( 9.797174393178825657E-16, 32.00000000000000000, 8.000000000000000000 ) ) ;
#231 = VERTEX_POINT ( 'NONE', #267 ) ;
#232 = CARTESIAN_POINT ( 'NONE',  ( 5.204170427930421283E-15, 32.00000000000000000, 0.000000000000000000 ) ) ;
#233 = PRODUCT_DEFINITION ( 'UNKNOWN', '', #275, #249 ) ;
#234 = DIRECTION ( 'NONE',  ( -1.213802797673107944E-16, 1.000000000000000000, -0.000000000000000000 ) ) ;
#235 =( GEOMETRIC_REPRESENTATION_CONTEXT ( 3 ) GLOBAL_UNCERTAINTY_ASSIGNED_CONTEXT ( ( #113 ) ) GLOBAL_UNIT_ASSIGNED_CONTEXT ( ( #186, #353, #177 ) ) REPRESENTATION_CONTEXT ( 'NONE', 'WORKASPACE' ) );
#236 =( NAMED_UNIT ( * ) PLANE_ANGLE_UNIT ( ) SI_UNIT ( $, .RADIAN. ) );
#237 =( LENGTH_UNIT ( ) NAMED_UNIT ( * ) SI_UNIT ( .MILLI., .METRE. ) );
#238 =( NAMED_UNIT ( * ) PLANE_ANGLE_UNIT ( ) SI_UNIT ( $, .RADIAN. ) );
#239 = LINE ( 'NONE', #263, #312 ) ;
#240 = FILL_AREA_STYLE_COLOUR ( '', #281 ) ;
#241 =( GEOMETRIC_REPRESENTATION_CONTEXT ( 3 ) GLOBAL_UNCERTAINTY_ASSIGNED_CONTEXT ( ( #339 ) ) GLOBAL_UNIT_ASSIGNED_CONTEXT ( ( #288, #64, #162 ) ) REPRESENTATION_CONTEXT ( 'NONE', 'WORKASPACE' ) );
#242 = ADVANCED_FACE ( 'NONE', ( #351 ), #5, .F. ) ;
#243 = FACE_OUTER_BOUND ( 'NONE', #60, .T. ) ;
#244 = DIRECTION ( 'NONE',  ( -1.213802797673107944E-16, 1.000000000000000000, -0.000000000000000000 ) ) ;
#245 = EDGE_CURVE ( 'NONE', #65, #151, #137, .T. ) ;
#246 = AXIS2_PLACEMENT_3D ( 'NONE', #232, #350, #1 ) ;
#247 = MECHANICAL_DESIGN_GEOMETRIC_PRESENTATION_REPRESENTATION (  '', ( #99 ), #124 ) ;
#248 = DIRECTION ( 'NONE',  ( -1.000000000000000000, 0.000000000000000000, 0.000000000000000000 ) ) ;
#249 = PRODUCT_DEFINITION_CONTEXT ( 'detailed design', #325, 'design' ) ;
#250 = SURFACE_STYLE_FILL_AREA ( #144 ) ;
#251 = ORIENTED_EDGE ( 'NONE', *, *, #37, .F. ) ;
#252 = UNCERTAINTY_MEASURE_WITH_UNIT (LENGTH_MEASURE( 1.000000000000000082E-05 ), #114, 'distance_accuracy_value', 'NONE');
#253 = SHAPE_DEFINITION_REPRESENTATION ( #264, #313 ) ;
#254 = EDGE_LOOP ( 'NONE', ( #29, #367, #155, #32 ) ) ;
#255 = MECHANICAL_DESIGN_GEOMETRIC_PRESENTATION_REPRESENTATION (  '', ( #174 ), #311 ) ;
#256 = COLOUR_RGB ( '',1.000000000000000000, 0.000000000000000000, 0.000000000000000000 ) ;
#257 = AXIS2_PLACEMENT_3D ( 'NONE', #2, #42, #67 ) ;
#258 = CARTESIAN_POINT ( 'NONE',  ( 0.000000000000000000, 0.000000000000000000, 0.000000000000000000 ) ) ;
#259 = ORIENTED_EDGE ( 'NONE', *, *, #364, .F. ) ;
#260 = FILL_AREA_STYLE_COLOUR ( '', #300 ) ;
#261 = MANIFOLD_SOLID_BREP ( 'Revolve - Tool Body (Straight Shanked)', #146 ) ;
#262 = EDGE_LOOP ( 'NONE', ( #58, #175, #227, #347 ) ) ;
#263 = CARTESIAN_POINT ( 'NONE',  ( 9.797174393178825657E-16, 0.000000000000000000, 8.000000000000000000 ) ) ;
#264 = PRODUCT_DEFINITION_SHAPE ( 'NONE', 'NONE',  #233 ) ;
#265 = DIRECTION ( 'NONE',  ( 1.000000000000000000, 0.000000000000000000, 0.000000000000000000 ) ) ;
#266 = PRESENTATION_LAYER_ASSIGNMENT (  '', '', ( #132 ) ) ;
#267 = CARTESIAN_POINT ( 'NONE',  ( 0.000000000000000000, 32.00000000000000000, -8.000000000000000000 ) ) ;
#268 = TOROIDAL_SURFACE ( 'NONE', #257, 7.000000000000000000, 1.000000000000000000 ) ;
#269 = FILL_AREA_STYLE ('',( #40 ) ) ;
#270 =( NAMED_UNIT ( * ) SI_UNIT ( $, .STERADIAN. ) SOLID_ANGLE_UNIT ( ) );
#271 = FILL_AREA_STYLE_COLOUR ( '', #317 ) ;
#272 = CYLINDRICAL_SURFACE ( 'NONE', #195, 7.999999999999998224 ) ;
#273 = EDGE_CURVE ( 'NONE', #178, #340, #239, .T. ) ;
#274 = DIRECTION ( 'NONE',  ( -0.000000000000000000, -1.000000000000000000, -0.000000000000000000 ) ) ;
#275 = PRODUCT_DEFINITION_FORMATION_WITH_SPECIFIED_SOURCE ( 'ANY', '', #302, .NOT_KNOWN. ) ;
#276 =( LENGTH_UNIT ( ) NAMED_UNIT ( * ) SI_UNIT ( .MILLI., .METRE. ) );
#277 = EDGE_CURVE ( 'NONE', #223, #151, #130, .T. ) ;
#278 =( GEOMETRIC_REPRESENTATION_CONTEXT ( 3 ) GLOBAL_UNCERTAINTY_ASSIGNED_CONTEXT ( ( #45 ) ) GLOBAL_UNIT_ASSIGNED_CONTEXT ( ( #237, #96, #290 ) ) REPRESENTATION_CONTEXT ( 'NONE', 'WORKASPACE' ) );
#279 = AXIS2_PLACEMENT_3D ( 'NONE', #198, #320, #22 ) ;
#280 = VERTEX_POINT ( 'NONE', #165 ) ;
#281 = COLOUR_RGB ( '',1.000000000000000000, 0.000000000000000000, 0.000000000000000000 ) ;
#282 = DIRECTION ( 'NONE',  ( 0.000000000000000000, 0.000000000000000000, -1.000000000000000000 ) ) ;
#283 = ORIENTED_EDGE ( 'NONE', *, *, #147, .T. ) ;
#284 = EDGE_CURVE ( 'NONE', #151, #65, #326, .T. ) ;
#285 = ORIENTED_EDGE ( 'NONE', *, *, #307, .F. ) ;
#286 = EDGE_LOOP ( 'NONE', ( #202, #119 ) ) ;
#287 = ORIENTED_EDGE ( 'NONE', *, *, #245, .F. ) ;
#288 =( LENGTH_UNIT ( ) NAMED_UNIT ( * ) SI_UNIT ( .MILLI., .METRE. ) );
#289 = ORIENTED_EDGE ( 'NONE', *, *, #147, .F. ) ;
#290 =( NAMED_UNIT ( * ) SI_UNIT ( $, .STERADIAN. ) SOLID_ANGLE_UNIT ( ) );
#291 = APPLICATION_CONTEXT ( 'automotive_design' ) ;
#292 = SURFACE_STYLE_FILL_AREA ( #133 ) ;
#293 = CARTESIAN_POINT ( 'NONE',  ( 8.000000000000000000, 32.00000000000000000, 9.797174393178825657E-16 ) ) ;
#294 = SURFACE_STYLE_FILL_AREA ( #13 ) ;
#295 = DIRECTION ( 'NONE',  ( -0.000000000000000000, -1.000000000000000000, -0.000000000000000000 ) ) ;
#296 = PLANE ( 'NONE',  #328 ) ;
#297 = PRESENTATION_LAYER_ASSIGNMENT (  '', '', ( #219 ) ) ;
#298 = VECTOR ( 'NONE', #244, 1000.000000000000000 ) ;
#299 = DIRECTION ( 'NONE',  ( -1.000000000000000000, 0.000000000000000000, 0.000000000000000000 ) ) ;
#300 = COLOUR_RGB ( '',0.7921568627450980005, 0.8196078431372548767, 0.9333333333333333481 ) ;
#301 = DIRECTION ( 'NONE',  ( 0.000000000000000000, 0.000000000000000000, -1.000000000000000000 ) ) ;
#302 = PRODUCT ( '59548', '59548', '', ( #318 ) ) ;
#303 = PRESENTATION_STYLE_ASSIGNMENT (( #308 ) ) ;
#304 = DIRECTION ( 'NONE',  ( -1.213802797673107944E-16, 1.000000000000000000, 0.000000000000000000 ) ) ;
#305 =( NAMED_UNIT ( * ) PLANE_ANGLE_UNIT ( ) SI_UNIT ( $, .RADIAN. ) );
#306 = PRESENTATION_LAYER_ASSIGNMENT (  '', '', ( #172 ) ) ;
#307 = EDGE_CURVE ( 'NONE', #223, #322, #51, .T. ) ;
#308 = SURFACE_STYLE_USAGE ( .BOTH. , #136 ) ;
#309 = CARTESIAN_POINT ( 'NONE',  ( 0.000000000000000000, 0.000000000000000000, 0.000000000000000000 ) ) ;
#310 = SURFACE_STYLE_USAGE ( .BOTH. , #76 ) ;
#311 =( GEOMETRIC_REPRESENTATION_CONTEXT ( 3 ) GLOBAL_UNCERTAINTY_ASSIGNED_CONTEXT ( ( #252 ) ) GLOBAL_UNIT_ASSIGNED_CONTEXT ( ( #114, #238, #161 ) ) REPRESENTATION_CONTEXT ( 'NONE', 'WORKASPACE' ) );
#312 = VECTOR ( 'NONE', #215, 1000.000000000000000 ) ;
#313 = ADVANCED_BREP_SHAPE_REPRESENTATION ( '59548', ( #141, #261, #82 ), #145 ) ;
#314 = SURFACE_SIDE_STYLE ('',( #250 ) ) ;
#315 = ADVANCED_FACE ( 'NONE', ( #188 ), #103, .T. ) ;
#316 = AXIS2_PLACEMENT_3D ( 'NONE', #182, #38, #93 ) ;
#317 = COLOUR_RGB ( '',0.7921568627450980005, 0.8196078431372548767, 0.9333333333333333481 ) ;
#318 = PRODUCT_CONTEXT ( 'NONE', #291, 'mechanical' ) ;
#319 = ORIENTED_EDGE ( 'NONE', *, *, #284, .F. ) ;
#320 = DIRECTION ( 'NONE',  ( -0.000000000000000000, -1.000000000000000000, -0.000000000000000000 ) ) ;
#321 = EDGE_LOOP ( 'NONE', ( #251, #285 ) ) ;
#322 = VERTEX_POINT ( 'NONE', #156 ) ;
#323 = CYLINDRICAL_SURFACE ( 'NONE', #69, 7.999999999999998224 ) ;
#324 = DIRECTION ( 'NONE',  ( 0.000000000000000000, 0.000000000000000000, -1.000000000000000000 ) ) ;
#325 = APPLICATION_CONTEXT ( 'automotive_design' ) ;
#326 = CIRCLE ( 'NONE', #170, 8.000000000000001776 ) ;
#327 = DIRECTION ( 'NONE',  ( 0.000000000000000000, 0.000000000000000000, -1.000000000000000000 ) ) ;
#328 = AXIS2_PLACEMENT_3D ( 'NONE', #309, #49, #131 ) ;
#329 = CARTESIAN_POINT ( 'NONE',  ( 0.000000000000000000, 1.000000000000000000, 0.000000000000000000 ) ) ;
#330 = SURFACE_STYLE_USAGE ( .BOTH. , #214 ) ;
#331 = SURFACE_STYLE_FILL_AREA ( #216 ) ;
#332 = AXIS2_PLACEMENT_3D ( 'NONE', #129, #189, #301 ) ;
#333 = FACE_OUTER_BOUND ( 'NONE', #262, .T. ) ;
#334 = SURFACE_STYLE_FILL_AREA ( #218 ) ;
#335 = EDGE_CURVE ( 'NONE', #340, #280, #116, .T. ) ;
#336 = AXIS2_PLACEMENT_3D ( 'NONE', #329, #274, #44 ) ;
#337 = FILL_AREA_STYLE_COLOUR ( '', #54 ) ;
#338 = STYLED_ITEM ( 'NONE', ( #303 ), #4 ) ;
#339 = UNCERTAINTY_MEASURE_WITH_UNIT (LENGTH_MEASURE( 1.000000000000000082E-05 ), #288, 'distance_accuracy_value', 'NONE');
#340 = VERTEX_POINT ( 'NONE', #63 ) ;
#341 = CARTESIAN_POINT ( 'NONE',  ( 0.000000000000000000, 0.000000000000000000, 0.000000000000000000 ) ) ;
#342 = AXIS2_PLACEMENT_3D ( 'NONE', #208, #295, #324 ) ;
#343 = CIRCLE ( 'NONE', #18, 8.000000000000000000 ) ;
#344 = ORIENTED_EDGE ( 'NONE', *, *, #307, .T. ) ;
#345 = FACE_OUTER_BOUND ( 'NONE', #149, .T. ) ;
#346 = FACE_OUTER_BOUND ( 'NONE', #184, .T. ) ;
#347 = ORIENTED_EDGE ( 'NONE', *, *, #335, .F. ) ;
#348 = EDGE_CURVE ( 'NONE', #340, #26, #363, .T. ) ;
#349 = STYLED_ITEM ( 'NONE', ( #207 ), #315 ) ;
#350 = DIRECTION ( 'NONE',  ( -1.213802797673107944E-16, 1.000000000000000000, -0.000000000000000000 ) ) ;
#351 = FACE_OUTER_BOUND ( 'NONE', #321, .T. ) ;
#352 =( NAMED_UNIT ( * ) SI_UNIT ( $, .STERADIAN. ) SOLID_ANGLE_UNIT ( ) );
#353 =( NAMED_UNIT ( * ) PLANE_ANGLE_UNIT ( ) SI_UNIT ( $, .RADIAN. ) );
#354 = DIRECTION ( 'NONE',  ( -0.000000000000000000, -1.000000000000000000, -0.000000000000000000 ) ) ;
#355 = SURFACE_SIDE_STYLE ('',( #294 ) ) ;
#356 = FILL_AREA_STYLE ('',( #240 ) ) ;
#357 = DIRECTION ( 'NONE',  ( 1.213802797673107944E-16, -1.000000000000000000, 0.000000000000000000 ) ) ;
#358 = CARTESIAN_POINT ( 'NONE',  ( 0.000000000000000000, 32.00000000000000000, 0.000000000000000000 ) ) ;
#359 = PLANE ( 'NONE',  #212 ) ;
#360 = PRESENTATION_LAYER_ASSIGNMENT (  '', '', ( #99 ) ) ;
#361 = CARTESIAN_POINT ( 'NONE',  ( 0.000000000000000000, 1.000000000000000000, -7.000000000000000000 ) ) ;
#362 = CARTESIAN_POINT ( 'NONE',  ( -8.000000000000003553, 89.00000000000000000, 0.000000000000000000 ) ) ;
#363 = CIRCLE ( 'NONE', #316, 1.000000000000000000 ) ;
#364 = EDGE_CURVE ( 'NONE', #178, #231, #343, .T. ) ;
#365 = MECHANICAL_DESIGN_GEOMETRIC_PRESENTATION_REPRESENTATION (  '', ( #338 ), #369 ) ;
#366 = DIRECTION ( 'NONE',  ( -0.000000000000000000, -1.000000000000000000, -0.000000000000000000 ) ) ;
#367 = ORIENTED_EDGE ( 'NONE', *, *, #273, .T. ) ;
#368 = ORIENTED_EDGE ( 'NONE', *, *, #37, .T. ) ;
#369 =( GEOMETRIC_REPRESENTATION_CONTEXT ( 3 ) GLOBAL_UNCERTAINTY_ASSIGNED_CONTEXT ( ( #164 ) ) GLOBAL_UNIT_ASSIGNED_CONTEXT ( ( #276, #77, #135 ) ) REPRESENTATION_CONTEXT ( 'NONE', 'WORKASPACE' ) );
#370 = VERTEX_POINT ( 'NONE', #128 ) ;
ENDSEC;
END-ISO-10303-21;
